ISO-10303-21;
HEADER;
FILE_DESCRIPTION((''),'1');
FILE_NAME('//Big_tech03/bigt/Translate/11_3D_Field/02_Step_Field/BBT40-SKL13-105.stp','2013-03-21T04:48:26',(''),(''),'Spatial Interop R18','Kubotek KeyCreator V8.5.1 (14335)',' ');
FILE_SCHEMA(('CONFIG_CONTROL_DESIGN'));
ENDSEC;
DATA;
#1=DESIGN_CONTEXT('',#27,'design');
#2=APPLICATION_PROTOCOL_DEFINITION('INTERNATIONAL STANDARD','config_control_design',1994,#27);
#3=PRODUCT_CATEGORY_RELATIONSHIP('NONE','NONE',#28,#29);
#4=DATE_AND_TIME(#30,#31);
#5=DATE_TIME_ROLE('creation_date');
#6=DATE_TIME_ROLE('classification_date');
#7=PERSON_AND_ORGANIZATION_ROLE('creator');
#8=PERSON_AND_ORGANIZATION_ROLE('design_supplier');
#9=PERSON_AND_ORGANIZATION_ROLE('classification_officer');
#10=PERSON_AND_ORGANIZATION_ROLE('design_owner');
#11=APPROVAL_PERSON_ORGANIZATION(#32,#33,#34);
#12=APPROVAL_DATE_TIME(#4,#33);
#13=CC_DESIGN_APPROVAL(#33,(#35,#36,#37));
#14=CC_DESIGN_DATE_AND_TIME_ASSIGNMENT(#4,#5,(#37));
#15=CC_DESIGN_DATE_AND_TIME_ASSIGNMENT(#4,#6,(#35));
#16=CC_DESIGN_PERSON_AND_ORGANIZATION_ASSIGNMENT(#32,#10,(#38));
#17=CC_DESIGN_PERSON_AND_ORGANIZATION_ASSIGNMENT(#32,#7,(#37));
#18=CC_DESIGN_PERSON_AND_ORGANIZATION_ASSIGNMENT(#32,#7,(#36));
#19=CC_DESIGN_PERSON_AND_ORGANIZATION_ASSIGNMENT(#32,#8,(#36));
#20=CC_DESIGN_SECURITY_CLASSIFICATION(#35,(#36));
#21=CC_DESIGN_PERSON_AND_ORGANIZATION_ASSIGNMENT(#32,#9,(#35));
#22=SHAPE_DEFINITION_REPRESENTATION(#39,#40);
#23= (GEOMETRIC_REPRESENTATION_CONTEXT(3)GLOBAL_UNCERTAINTY_ASSIGNED_CONTEXT((#43))GLOBAL_UNIT_ASSIGNED_CONTEXT((#45,#46,#47))REPRESENTATION_CONTEXT('NONE','WORKSPACE'));
#27=APPLICATION_CONTEXT('CONFIGURATION CONTROLLED 3D DESIGNS OF MECHANICAL PARTS AND ASSEMBLIES');
#28=PRODUCT_CATEGORY('part','NONE');
#29=PRODUCT_RELATED_PRODUCT_CATEGORY('detail',' ',(#38));
#30=CALENDAR_DATE(2013,21,2);
#31=LOCAL_TIME(13,48,26.0,#49);
#32=PERSON_AND_ORGANIZATION(#50,#51);
#33=APPROVAL(#52,'SOLID MODEL');
#34=APPROVAL_ROLE('APPROVED');
#35=SECURITY_CLASSIFICATION('','',#53);
#36=PRODUCT_DEFINITION_FORMATION_WITH_SPECIFIED_SOURCE(' ','NONE',#38,.NOT_KNOWN.);
#37=PRODUCT_DEFINITION('NONE','NONE',#36,#1);
#38=PRODUCT('1','1','PART-1-DESC',(#54));
#39=PRODUCT_DEFINITION_SHAPE('NONE','NONE',#37);
#40=ADVANCED_BREP_SHAPE_REPRESENTATION('1',(#55,#56),#23);
#43=UNCERTAINTY_MEASURE_WITH_UNIT(LENGTH_MEASURE(1.0E-006),#45,'','');
#45= (CONVERSION_BASED_UNIT('MILLIMETRE',#59)LENGTH_UNIT()NAMED_UNIT(#62));
#46= (NAMED_UNIT(#64)PLANE_ANGLE_UNIT()SI_UNIT($,.RADIAN.));
#47= (NAMED_UNIT(#64)SOLID_ANGLE_UNIT()SI_UNIT($,.STERADIAN.));
#49=COORDINATED_UNIVERSAL_TIME_OFFSET(9,0,.AHEAD.);
#50=PERSON('','UNSPECIFIED',$,$,$,$);
#51=ORGANIZATION('UNSPECIFIED','UNSPECIFIED','UNSPECIFIED');
#52=APPROVAL_STATUS('approved');
#53=SECURITY_CLASSIFICATION_LEVEL('unclassified');
#54=MECHANICAL_CONTEXT('',#27,'mechanical');
#55=MANIFOLD_SOLID_BREP('1',#70);
#56=AXIS2_PLACEMENT_3D('',#71,#72,#73);
#59=LENGTH_MEASURE_WITH_UNIT(LENGTH_MEASURE(1.0),#74);
#62=DIMENSIONAL_EXPONENTS(1.0,0.0,0.0,0.0,0.0,0.0,0.0);
#64=DIMENSIONAL_EXPONENTS(0.0,0.0,0.0,0.0,0.0,0.0,0.0);
#70=CLOSED_SHELL('',(#75,#76,#77,#78,#79,#80,#81,#82,#83,#84,#85,#86,#87,#88,#89,#90,#91,#92,#93,#94,#95,#96,#97,#98,#99));
#71=CARTESIAN_POINT('',(0.0,0.0,0.0));
#72=DIRECTION('',(0.0,0.0,1.0));
#73=DIRECTION('',(1.0,0.0,0.0));
#74= (NAMED_UNIT(#62)LENGTH_UNIT()SI_UNIT(.MILLI.,.METRE.));
#75=ADVANCED_FACE('',(#101),#102,.T.);
#76=ADVANCED_FACE('',(#103,#104),#105,.T.);
#77=ADVANCED_FACE('',(#106,#107),#108,.T.);
#78=ADVANCED_FACE('',(#109,#110),#111,.T.);
#79=ADVANCED_FACE('',(#112,#113),#114,.T.);
#80=ADVANCED_FACE('',(#115,#116),#117,.T.);
#81=ADVANCED_FACE('',(#118,#119),#120,.T.);
#82=ADVANCED_FACE('',(#121,#122),#123,.T.);
#83=ADVANCED_FACE('',(#124,#125),#126,.T.);
#84=ADVANCED_FACE('',(#127,#128),#129,.T.);
#85=ADVANCED_FACE('',(#130,#131),#132,.T.);
#86=ADVANCED_FACE('',(#133,#134),#135,.T.);
#87=ADVANCED_FACE('',(#136,#137),#138,.T.);
#88=ADVANCED_FACE('',(#139,#140),#141,.T.);
#89=ADVANCED_FACE('',(#142,#143),#144,.T.);
#90=ADVANCED_FACE('',(#145,#146),#147,.T.);
#91=ADVANCED_FACE('',(#148,#149),#150,.T.);
#92=ADVANCED_FACE('',(#151,#152),#153,.T.);
#93=ADVANCED_FACE('',(#154,#155),#156,.T.);
#94=ADVANCED_FACE('',(#157,#158),#159,.T.);
#95=ADVANCED_FACE('',(#160,#161),#162,.T.);
#96=ADVANCED_FACE('',(#163,#164),#165,.T.);
#97=ADVANCED_FACE('',(#166,#167),#168,.T.);
#98=ADVANCED_FACE('',(#169,#170),#171,.T.);
#99=ADVANCED_FACE('',(#172),#173,.T.);
#101=FACE_OUTER_BOUND('',#174,.T.);
#102=PLANE('',#175);
#103=FACE_BOUND('',#176,.T.);
#104=FACE_BOUND('',#177,.T.);
#105=CONICAL_SURFACE('',#178,17.4562500000003,0.144812498238937);
#106=FACE_BOUND('',#179,.T.);
#107=FACE_BOUND('',#180,.T.);
#108=CYLINDRICAL_SURFACE('',#181,22.2250000000002);
#109=FACE_OUTER_BOUND('',#182,.T.);
#110=FACE_BOUND('',#183,.T.);
#111=PLANE('',#184);
#112=FACE_BOUND('',#185,.T.);
#113=FACE_BOUND('',#186,.T.);
#114=CYLINDRICAL_SURFACE('',#187,31.5000000000003);
#115=FACE_BOUND('',#188,.T.);
#116=FACE_BOUND('',#189,.T.);
#117=CONICAL_SURFACE('',#190,29.0000000000003,1.04719755119661);
#118=FACE_BOUND('',#191,.T.);
#119=FACE_BOUND('',#192,.T.);
#120=CYLINDRICAL_SURFACE('',#193,26.5000000000002);
#121=FACE_BOUND('',#194,.T.);
#122=FACE_BOUND('',#195,.T.);
#123=CONICAL_SURFACE('',#196,29.0000000000002,1.04719755119659);
#124=FACE_BOUND('',#197,.T.);
#125=FACE_BOUND('',#198,.T.);
#126=CYLINDRICAL_SURFACE('',#199,31.5000000000002);
#127=FACE_BOUND('',#200,.T.);
#128=FACE_OUTER_BOUND('',#201,.T.);
#129=PLANE('',#202);
#130=FACE_BOUND('',#203,.T.);
#131=FACE_BOUND('',#204,.T.);
#132=CONICAL_SURFACE('',#205,27.0000000000001,0.785398163397463);
#133=FACE_BOUND('',#206,.T.);
#134=FACE_BOUND('',#207,.T.);
#135=CYLINDRICAL_SURFACE('',#208,26.0000000000001);
#136=FACE_BOUND('',#209,.T.);
#137=FACE_OUTER_BOUND('',#210,.T.);
#138=PLANE('',#211);
#139=FACE_BOUND('',#212,.T.);
#140=FACE_BOUND('',#213,.T.);
#141=CYLINDRICAL_SURFACE('',#214,24.2500000000002);
#142=FACE_BOUND('',#215,.T.);
#143=FACE_BOUND('',#216,.T.);
#144=CONICAL_SURFACE('',#217,24.8750000000002,0.785398163397446);
#145=FACE_BOUND('',#218,.T.);
#146=FACE_BOUND('',#219,.T.);
#147=CYLINDRICAL_SURFACE('',#220,25.5000000000001);
#148=FACE_BOUND('',#221,.T.);
#149=FACE_BOUND('',#222,.T.);
#150=CONICAL_SURFACE('',#223,24.8750000000001,0.78539816339745);
#151=FACE_BOUND('',#224,.T.);
#152=FACE_OUTER_BOUND('',#225,.T.);
#153=PLANE('',#226);
#154=FACE_BOUND('',#227,.T.);
#155=FACE_BOUND('',#228,.T.);
#156=CYLINDRICAL_SURFACE('',#229,23.7500000000001);
#157=FACE_BOUND('',#230,.T.);
#158=FACE_BOUND('',#231,.T.);
#159=CONICAL_SURFACE('',#232,24.3750000000001,0.785398163397684);
#160=FACE_BOUND('',#233,.T.);
#161=FACE_BOUND('',#234,.T.);
#162=CYLINDRICAL_SURFACE('',#235,25.0);
#163=FACE_BOUND('',#236,.T.);
#164=FACE_BOUND('',#237,.T.);
#165=CONICAL_SURFACE('',#238,21.2693050987716,0.349065850398858);
#166=FACE_BOUND('',#239,.T.);
#167=FACE_OUTER_BOUND('',#240,.T.);
#168=PLANE('',#241);
#169=FACE_BOUND('',#242,.T.);
#170=FACE_BOUND('',#243,.T.);
#171=CONICAL_SURFACE('',#244,8.72518603583632,0.349065850398848);
#172=FACE_OUTER_BOUND('',#245,.T.);
#173=PLANE('',#246);
#174=EDGE_LOOP('',(#247));
#175=AXIS2_PLACEMENT_3D('',#248,#249,#250);
#176=EDGE_LOOP('',(#251));
#177=EDGE_LOOP('',(#252));
#178=AXIS2_PLACEMENT_3D('',#253,#254,#255);
#179=EDGE_LOOP('',(#256));
#180=EDGE_LOOP('',(#257));
#181=AXIS2_PLACEMENT_3D('',#258,#259,#260);
#182=EDGE_LOOP('',(#261));
#183=EDGE_LOOP('',(#262));
#184=AXIS2_PLACEMENT_3D('',#263,#264,#265);
#185=EDGE_LOOP('',(#266));
#186=EDGE_LOOP('',(#267));
#187=AXIS2_PLACEMENT_3D('',#268,#269,#270);
#188=EDGE_LOOP('',(#271));
#189=EDGE_LOOP('',(#272));
#190=AXIS2_PLACEMENT_3D('',#273,#274,#275);
#191=EDGE_LOOP('',(#276));
#192=EDGE_LOOP('',(#277));
#193=AXIS2_PLACEMENT_3D('',#278,#279,#280);
#194=EDGE_LOOP('',(#281));
#195=EDGE_LOOP('',(#282));
#196=AXIS2_PLACEMENT_3D('',#283,#284,#285);
#197=EDGE_LOOP('',(#286));
#198=EDGE_LOOP('',(#287));
#199=AXIS2_PLACEMENT_3D('',#288,#289,#290);
#200=EDGE_LOOP('',(#291));
#201=EDGE_LOOP('',(#292));
#202=AXIS2_PLACEMENT_3D('',#293,#294,#295);
#203=EDGE_LOOP('',(#296));
#204=EDGE_LOOP('',(#297));
#205=AXIS2_PLACEMENT_3D('',#298,#299,#300);
#206=EDGE_LOOP('',(#301));
#207=EDGE_LOOP('',(#302));
#208=AXIS2_PLACEMENT_3D('',#303,#304,#305);
#209=EDGE_LOOP('',(#306));
#210=EDGE_LOOP('',(#307));
#211=AXIS2_PLACEMENT_3D('',#308,#309,#310);
#212=EDGE_LOOP('',(#311));
#213=EDGE_LOOP('',(#312));
#214=AXIS2_PLACEMENT_3D('',#313,#314,#315);
#215=EDGE_LOOP('',(#316));
#216=EDGE_LOOP('',(#317));
#217=AXIS2_PLACEMENT_3D('',#318,#319,#320);
#218=EDGE_LOOP('',(#321));
#219=EDGE_LOOP('',(#322));
#220=AXIS2_PLACEMENT_3D('',#323,#324,#325);
#221=EDGE_LOOP('',(#326));
#222=EDGE_LOOP('',(#327));
#223=AXIS2_PLACEMENT_3D('',#328,#329,#330);
#224=EDGE_LOOP('',(#331));
#225=EDGE_LOOP('',(#332));
#226=AXIS2_PLACEMENT_3D('',#333,#334,#335);
#227=EDGE_LOOP('',(#336));
#228=EDGE_LOOP('',(#337));
#229=AXIS2_PLACEMENT_3D('',#338,#339,#340);
#230=EDGE_LOOP('',(#341));
#231=EDGE_LOOP('',(#342));
#232=AXIS2_PLACEMENT_3D('',#343,#344,#345);
#233=EDGE_LOOP('',(#346));
#234=EDGE_LOOP('',(#347));
#235=AXIS2_PLACEMENT_3D('',#348,#349,#350);
#236=EDGE_LOOP('',(#351));
#237=EDGE_LOOP('',(#352));
#238=AXIS2_PLACEMENT_3D('',#353,#354,#355);
#239=EDGE_LOOP('',(#356));
#240=EDGE_LOOP('',(#357));
#241=AXIS2_PLACEMENT_3D('',#358,#359,#360);
#242=EDGE_LOOP('',(#361));
#243=EDGE_LOOP('',(#362));
#244=AXIS2_PLACEMENT_3D('',#363,#364,#365);
#245=EDGE_LOOP('',(#366));
#246=AXIS2_PLACEMENT_3D('',#367,#368,#369);
#247=ORIENTED_EDGE('',*,*,#370,.F.);
#248=CARTESIAN_POINT('',(-4.00459503321184E-015,6.34375,65.3999999999999));
#249=DIRECTION('',(-6.12323399573677E-017,-4.60273414677644E-015,1.0));
#250=DIRECTION('',(2.86663334739569E-031,-1.0,-4.60273414677644E-015));
#251=ORIENTED_EDGE('',*,*,#371,.F.);
#252=ORIENTED_EDGE('',*,*,#370,.T.);
#253=CARTESIAN_POINT('',(-2.00229751660592E-015,-2.84294299033624E-013,32.7));
#254=DIRECTION('',(6.12323399573677E-017,1.98210675941283E-015,-1.0));
#255=DIRECTION('',(-1.26196187654932E-031,1.0,1.98210675941283E-015));
#256=ORIENTED_EDGE('',*,*,#372,.F.);
#257=ORIENTED_EDGE('',*,*,#371,.T.);
#258=CARTESIAN_POINT('',(3.0616169978683E-017,-2.18488354621118E-013,-0.499999999999986));
#259=DIRECTION('',(-6.12323399573677E-017,-1.98210675941283E-015,1.0));
#260=DIRECTION('',(-1.26196187654932E-031,1.0,1.98210675941283E-015));
#261=ORIENTED_EDGE('',*,*,#373,.F.);
#262=ORIENTED_EDGE('',*,*,#372,.T.);
#263=CARTESIAN_POINT('',(6.12323399573638E-017,26.8625,-0.99999999999994));
#264=DIRECTION('',(-6.12323399573677E-017,-1.22464679914735E-016,1.0));
#265=DIRECTION('',(1.23259516440783E-032,-1.0,-1.22464679914735E-016));
#266=ORIENTED_EDGE('',*,*,#374,.F.);
#267=ORIENTED_EDGE('',*,*,#373,.T.);
#268=CARTESIAN_POINT('',(3.85763741731416E-016,-2.06992135416524E-013,-6.3));
#269=DIRECTION('',(-6.12323399573677E-017,-1.98210675941283E-015,1.0));
#270=DIRECTION('',(-1.26196187654932E-031,1.0,1.98210675941283E-015));
#271=ORIENTED_EDGE('',*,*,#375,.F.);
#272=ORIENTED_EDGE('',*,*,#374,.T.);
#273=CARTESIAN_POINT('',(7.98676413399205E-016,-1.93626044913862E-013,-13.043375672974));
#274=DIRECTION('',(-6.12323399573676E-017,-1.98210675941283E-015,1.0));
#275=DIRECTION('',(-1.26196187654932E-031,1.0,1.98210675941283E-015));
#276=ORIENTED_EDGE('',*,*,#376,.F.);
#277=ORIENTED_EDGE('',*,*,#375,.T.);
#278=CARTESIAN_POINT('',(1.0164568432923E-015,-1.86576435794572E-013,-16.6));
#279=DIRECTION('',(-6.12323399573677E-017,-1.98210675941283E-015,1.0));
#280=DIRECTION('',(-1.26196187654932E-031,1.0,1.98210675941283E-015));
#281=ORIENTED_EDGE('',*,*,#377,.F.);
#282=ORIENTED_EDGE('',*,*,#376,.T.);
#283=CARTESIAN_POINT('',(1.2342372731854E-015,-1.79526826675281E-013,-20.1566243270259));
#284=DIRECTION('',(6.12323399573677E-017,1.98210675941283E-015,-1.0));
#285=DIRECTION('',(-1.26196187654932E-031,1.0,1.98210675941283E-015));
#286=ORIENTED_EDGE('',*,*,#378,.F.);
#287=ORIENTED_EDGE('',*,*,#377,.T.);
#288=CARTESIAN_POINT('',(1.48794586096403E-015,-1.71314213747093E-013,-24.3));
#289=DIRECTION('',(-6.12323399573677E-017,-1.98210675941283E-015,1.0));
#290=DIRECTION('',(-1.26196187654932E-031,1.0,1.98210675941283E-015));
#291=ORIENTED_EDGE('',*,*,#379,.F.);
#292=ORIENTED_EDGE('',*,*,#378,.T.);
#293=CARTESIAN_POINT('',(1.65327317884892E-015,29.75,-26.9999999999999));
#294=DIRECTION('',(6.12323399573677E-017,1.22464679914735E-016,-1.0));
#295=DIRECTION('',(-1.23259516440783E-032,1.0,1.22464679914735E-016));
#296=ORIENTED_EDGE('',*,*,#380,.F.);
#297=ORIENTED_EDGE('',*,*,#379,.T.);
#298=CARTESIAN_POINT('',(1.71450551880629E-015,-1.63980418737265E-013,-27.9999999999999));
#299=DIRECTION('',(-6.12323399573677E-017,-1.98210675941283E-015,1.0));
#300=DIRECTION('',(-1.26196187654932E-031,1.0,1.98210675941283E-015));
#301=ORIENTED_EDGE('',*,*,#381,.F.);
#302=ORIENTED_EDGE('',*,*,#380,.T.);
#303=CARTESIAN_POINT('',(1.84615504971463E-015,-1.59718889204528E-013,-30.1499999999999));
#304=DIRECTION('',(-6.12323399573677E-017,-1.98210675941283E-015,1.0));
#305=DIRECTION('',(-1.26196187654932E-031,1.0,1.98210675941283E-015));
#306=ORIENTED_EDGE('',*,*,#382,.F.);
#307=ORIENTED_EDGE('',*,*,#381,.T.);
#308=CARTESIAN_POINT('',(1.9165722406656E-015,25.125,-31.2999999999999));
#309=DIRECTION('',(6.12323399573677E-017,1.22464679914735E-016,-1.0));
#310=DIRECTION('',(-1.23259516440783E-032,1.0,1.22464679914735E-016));
#311=ORIENTED_EDGE('',*,*,#383,.F.);
#312=ORIENTED_EDGE('',*,*,#382,.T.);
#313=CARTESIAN_POINT('',(2.04516015457608E-015,-1.53277042236436E-013,-33.3999999999999));
#314=DIRECTION('',(-6.12323399573676E-017,-1.98210675941283E-015,1.0));
#315=DIRECTION('',(-1.26196187654932E-031,1.0,1.98210675941283E-015));
#316=ORIENTED_EDGE('',*,*,#384,.F.);
#317=ORIENTED_EDGE('',*,*,#383,.T.);
#318=CARTESIAN_POINT('',(2.2120182809599E-015,-1.47875801317036E-013,-36.125));
#319=DIRECTION('',(6.12323399573677E-017,1.98210675941283E-015,-1.0));
#320=DIRECTION('',(-1.26196187654932E-031,1.0,1.98210675941283E-015));
#321=ORIENTED_EDGE('',*,*,#385,.F.);
#322=ORIENTED_EDGE('',*,*,#384,.T.);
#323=CARTESIAN_POINT('',(2.49521785326273E-015,-1.38708557554752E-013,-40.75));
#324=DIRECTION('',(-6.12323399573676E-017,-1.98210675941283E-015,1.0));
#325=DIRECTION('',(-1.26196187654932E-031,1.0,1.98210675941283E-015));
#326=ORIENTED_EDGE('',*,*,#386,.F.);
#327=ORIENTED_EDGE('',*,*,#385,.T.);
#328=CARTESIAN_POINT('',(2.77841742556555E-015,-1.29541313792467E-013,-45.375));
#329=DIRECTION('',(-6.12323399573677E-017,-1.98210675941283E-015,1.0));
#330=DIRECTION('',(-1.26196187654932E-031,1.0,1.98210675941283E-015));
#331=ORIENTED_EDGE('',*,*,#387,.F.);
#332=ORIENTED_EDGE('',*,*,#386,.T.);
#333=CARTESIAN_POINT('',(2.81668763803891E-015,24.0,-45.9999999999999));
#334=DIRECTION('',(6.12323399573677E-017,-1.40883900352873E-014,-1.0));
#335=DIRECTION('',(8.57837935361932E-031,1.0,-1.40883900352873E-014));
#336=ORIENTED_EDGE('',*,*,#388,.F.);
#337=ORIENTED_EDGE('',*,*,#387,.T.);
#338=CARTESIAN_POINT('',(3.16877359279385E-015,-1.16905383201208E-013,-51.7500000000013));
#339=DIRECTION('',(-6.12323399573677E-017,-1.98210675941283E-015,1.0));
#340=DIRECTION('',(-1.26196187654932E-031,1.0,1.98210675941283E-015));
#341=ORIENTED_EDGE('',*,*,#389,.F.);
#342=ORIENTED_EDGE('',*,*,#388,.T.);
#343=CARTESIAN_POINT('',(3.55912976002213E-015,-1.04269452609949E-013,-58.1250000000022));
#344=DIRECTION('',(6.12323399573677E-017,1.98210675941283E-015,-1.0));
#345=DIRECTION('',(-1.26196187654932E-031,1.0,1.98210675941283E-015));
#346=ORIENTED_EDGE('',*,*,#390,.F.);
#347=ORIENTED_EDGE('',*,*,#389,.T.);
#348=CARTESIAN_POINT('',(4.4163825194252E-015,-7.65199579781719E-014,-72.125000000001));
#349=DIRECTION('',(-6.12323399573677E-017,-1.98210675941283E-015,1.0));
#350=DIRECTION('',(-1.26196187654932E-031,1.0,1.98210675941283E-015));
#351=ORIENTED_EDGE('',*,*,#391,.F.);
#352=ORIENTED_EDGE('',*,*,#390,.T.);
#353=CARTESIAN_POINT('',(5.86299655091796E-015,-2.96926857870455E-014,-95.7500000000001));
#354=DIRECTION('',(-6.12323399573677E-017,-1.98210675941283E-015,1.0));
#355=DIRECTION('',(-1.26196187654932E-031,1.0,1.98210675941283E-015));
#356=ORIENTED_EDGE('',*,*,#392,.F.);
#357=ORIENTED_EDGE('',*,*,#391,.T.);
#358=CARTESIAN_POINT('',(6.49062803548097E-015,14.2693050987715,-106.0));
#359=DIRECTION('',(6.12323399573677E-017,1.22464679914735E-016,-1.0));
#360=DIRECTION('',(-1.23259516440783E-032,1.0,1.22464679914735E-016));
#361=ORIENTED_EDGE('',*,*,#393,.F.);
#362=ORIENTED_EDGE('',*,*,#392,.T.);
#363=CARTESIAN_POINT('',(6.87333016021452E-015,3.01207574326608E-015,-112.25));
#364=DIRECTION('',(-6.12323399573676E-017,-1.98210675941283E-015,1.0));
#365=DIRECTION('',(-1.26196187654932E-031,1.0,1.98210675941283E-015));
#366=ORIENTED_EDGE('',*,*,#393,.T.);
#367=CARTESIAN_POINT('',(7.25603228494807E-015,3.22518603583636,-118.5));
#368=DIRECTION('',(6.12323399573677E-017,1.22464679914735E-016,-1.0));
#369=DIRECTION('',(-1.23259516440783E-032,1.0,1.22464679914735E-016));
#370=EDGE_CURVE('',#394,#394,#395,.T.);
#371=EDGE_CURVE('',#396,#396,#397,.T.);
#372=EDGE_CURVE('',#398,#398,#399,.T.);
#373=EDGE_CURVE('',#400,#400,#401,.T.);
#374=EDGE_CURVE('',#402,#402,#403,.T.);
#375=EDGE_CURVE('',#404,#404,#405,.T.);
#376=EDGE_CURVE('',#406,#406,#407,.T.);
#377=EDGE_CURVE('',#408,#408,#409,.T.);
#378=EDGE_CURVE('',#410,#410,#411,.T.);
#379=EDGE_CURVE('',#412,#412,#413,.T.);
#380=EDGE_CURVE('',#414,#414,#415,.T.);
#381=EDGE_CURVE('',#416,#416,#417,.T.);
#382=EDGE_CURVE('',#418,#418,#419,.T.);
#383=EDGE_CURVE('',#420,#420,#421,.T.);
#384=EDGE_CURVE('',#422,#422,#423,.T.);
#385=EDGE_CURVE('',#424,#424,#425,.T.);
#386=EDGE_CURVE('',#426,#426,#427,.T.);
#387=EDGE_CURVE('',#428,#428,#429,.T.);
#388=EDGE_CURVE('',#430,#430,#431,.T.);
#389=EDGE_CURVE('',#432,#432,#433,.T.);
#390=EDGE_CURVE('',#434,#434,#435,.T.);
#391=EDGE_CURVE('',#436,#436,#437,.T.);
#392=EDGE_CURVE('',#438,#438,#439,.T.);
#393=EDGE_CURVE('',#440,#440,#441,.T.);
#394=VERTEX_POINT('',#442);
#395=CIRCLE('',#443,12.6875000000004);
#396=VERTEX_POINT('',#444);
#397=CIRCLE('',#445,22.2250000000002);
#398=VERTEX_POINT('',#446);
#399=CIRCLE('',#447,22.2250000000002);
#400=VERTEX_POINT('',#448);
#401=CIRCLE('',#449,31.5000000000003);
#402=VERTEX_POINT('',#450);
#403=CIRCLE('',#451,31.5000000000003);
#404=VERTEX_POINT('',#452);
#405=CIRCLE('',#453,26.5000000000003);
#406=VERTEX_POINT('',#454);
#407=CIRCLE('',#455,26.5000000000002);
#408=VERTEX_POINT('',#456);
#409=CIRCLE('',#457,31.5000000000002);
#410=VERTEX_POINT('',#458);
#411=CIRCLE('',#459,31.5000000000002);
#412=VERTEX_POINT('',#460);
#413=CIRCLE('',#461,28.0000000000001);
#414=VERTEX_POINT('',#462);
#415=CIRCLE('',#463,26.0000000000002);
#416=VERTEX_POINT('',#464);
#417=CIRCLE('',#465,26.0000000000001);
#418=VERTEX_POINT('',#466);
#419=CIRCLE('',#467,24.2500000000002);
#420=VERTEX_POINT('',#468);
#421=CIRCLE('',#469,24.2500000000002);
#422=VERTEX_POINT('',#470);
#423=CIRCLE('',#471,25.5000000000002);
#424=VERTEX_POINT('',#472);
#425=CIRCLE('',#473,25.5000000000001);
#426=VERTEX_POINT('',#474);
#427=CIRCLE('',#475,24.2500000000001);
#428=VERTEX_POINT('',#476);
#429=CIRCLE('',#477,23.7500000000001);
#430=VERTEX_POINT('',#478);
#431=CIRCLE('',#479,23.7500000000001);
#432=VERTEX_POINT('',#480);
#433=CIRCLE('',#481,25.0);
#434=VERTEX_POINT('',#482);
#435=CIRCLE('',#483,25.0000000000001);
#436=VERTEX_POINT('',#484);
#437=CIRCLE('',#485,17.5386101975432);
#438=VERTEX_POINT('',#486);
#439=CIRCLE('',#487,11.0);
#440=VERTEX_POINT('',#488);
#441=CIRCLE('',#489,6.45037207167269);
#442=CARTESIAN_POINT('',(-4.00459503321184E-015,12.6875,65.4));
#443=AXIS2_PLACEMENT_3D('',#490,#491,#492);
#444=CARTESIAN_POINT('',(-3.75194118486812E-030,22.225,5.9521777511105E-014));
#445=AXIS2_PLACEMENT_3D('',#493,#494,#495);
#446=CARTESIAN_POINT('',(6.12323399573639E-017,22.225,-0.99999999999994));
#447=AXIS2_PLACEMENT_3D('',#496,#497,#498);
#448=CARTESIAN_POINT('',(6.12323399573638E-017,31.5000000000001,-0.999999999999939));
#449=AXIS2_PLACEMENT_3D('',#499,#500,#501);
#450=CARTESIAN_POINT('',(7.1029514350546E-016,31.5000000000001,-11.5999999999999));
#451=AXIS2_PLACEMENT_3D('',#502,#503,#504);
#452=CARTESIAN_POINT('',(8.87057683292942E-016,26.5000000000001,-14.486751345948));
#453=AXIS2_PLACEMENT_3D('',#505,#506,#507);
#454=CARTESIAN_POINT('',(1.14585600329165E-015,26.5000000000001,-18.7132486540518));
#455=AXIS2_PLACEMENT_3D('',#508,#509,#510);
#456=CARTESIAN_POINT('',(1.32261854307913E-015,31.5,-21.5999999999999));
#457=AXIS2_PLACEMENT_3D('',#511,#512,#513);
#458=CARTESIAN_POINT('',(1.65327317884892E-015,31.5,-26.9999999999999));
#459=AXIS2_PLACEMENT_3D('',#514,#515,#516);
#460=CARTESIAN_POINT('',(1.65327317884892E-015,28.0,-26.9999999999999));
#461=AXIS2_PLACEMENT_3D('',#517,#518,#519);
#462=CARTESIAN_POINT('',(1.77573785876365E-015,26.0,-28.9999999999998));
#463=AXIS2_PLACEMENT_3D('',#520,#521,#522);
#464=CARTESIAN_POINT('',(1.9165722406656E-015,26.0,-31.2999999999999));
#465=AXIS2_PLACEMENT_3D('',#523,#524,#525);
#466=CARTESIAN_POINT('',(1.9165722406656E-015,24.25,-31.2999999999999));
#467=AXIS2_PLACEMENT_3D('',#526,#527,#528);
#468=CARTESIAN_POINT('',(2.17374806848655E-015,24.25,-35.4999999999999));
#469=AXIS2_PLACEMENT_3D('',#529,#530,#531);
#470=CARTESIAN_POINT('',(2.25028849343326E-015,25.5,-36.7499999999999));
#471=AXIS2_PLACEMENT_3D('',#532,#533,#534);
#472=CARTESIAN_POINT('',(2.7401472130922E-015,25.5,-44.7499999999999));
#473=AXIS2_PLACEMENT_3D('',#535,#536,#537);
#474=CARTESIAN_POINT('',(2.81668763803891E-015,24.25,-45.9999999999999));
#475=AXIS2_PLACEMENT_3D('',#538,#539,#540);
#476=CARTESIAN_POINT('',(2.81668763803891E-015,23.75,-45.9999999999999));
#477=AXIS2_PLACEMENT_3D('',#541,#542,#543);
#478=CARTESIAN_POINT('',(3.5208595475488E-015,23.75,-57.5000000000025));
#479=AXIS2_PLACEMENT_3D('',#544,#545,#546);
#480=CARTESIAN_POINT('',(3.59739997249546E-015,24.9999999999999,-58.7500000000018));
#481=AXIS2_PLACEMENT_3D('',#547,#548,#549);
#482=CARTESIAN_POINT('',(5.23536506635494E-015,25.0,-85.5000000000001));
#483=AXIS2_PLACEMENT_3D('',#550,#551,#552);
#484=CARTESIAN_POINT('',(6.49062803548097E-015,17.5386101975431,-106.0));
#485=AXIS2_PLACEMENT_3D('',#553,#554,#555);
#486=CARTESIAN_POINT('',(6.49062803548097E-015,11.0,-106.0));
#487=AXIS2_PLACEMENT_3D('',#556,#557,#558);
#488=CARTESIAN_POINT('',(7.25603228494807E-015,6.4503720716727,-118.5));
#489=AXIS2_PLACEMENT_3D('',#559,#560,#561);
#490=CARTESIAN_POINT('',(-4.00459503321184E-015,-3.49109190066424E-013,65.3999999999999));
#491=DIRECTION('',(6.12323399573677E-017,1.98210675941283E-015,-1.0));
#492=DIRECTION('',(-1.26196187654932E-031,1.0,1.98210675941283E-015));
#493=CARTESIAN_POINT('',(-8.70163887006008E-031,-2.19479408000825E-013,1.4210854715202E-014));
#494=DIRECTION('',(6.12323399573677E-017,1.98210675941283E-015,-1.0));
#495=DIRECTION('',(-1.26196187654932E-031,1.0,1.98210675941283E-015));
#496=CARTESIAN_POINT('',(6.12323399573668E-017,-2.17497301241412E-013,-0.999999999999986));
#497=DIRECTION('',(6.12323399573677E-017,1.98210675941283E-015,-1.0));
#498=DIRECTION('',(-1.26196187654932E-031,1.0,1.98210675941283E-015));
#499=CARTESIAN_POINT('',(6.12323399573677E-017,-2.17497301241412E-013,-1.0));
#500=DIRECTION('',(6.12323399573677E-017,1.98210675941283E-015,-1.0));
#501=DIRECTION('',(-1.26196187654932E-031,1.0,1.98210675941283E-015));
#502=CARTESIAN_POINT('',(7.10295143505464E-016,-1.96486969591636E-013,-11.6));
#503=DIRECTION('',(6.12323399573677E-017,1.98210675941283E-015,-1.0));
#504=DIRECTION('',(-1.26196187654932E-031,1.0,1.98210675941283E-015));
#505=CARTESIAN_POINT('',(8.87057683292945E-016,-1.90765120236088E-013,-14.4867513459481));
#506=DIRECTION('',(6.12323399573677E-017,1.98210675941283E-015,-1.0));
#507=DIRECTION('',(-1.26196187654932E-031,1.0,1.98210675941283E-015));
#508=CARTESIAN_POINT('',(1.14585600329166E-015,-1.82387751353055E-013,-18.7132486540518));
#509=DIRECTION('',(6.12323399573677E-017,1.98210675941283E-015,-1.0));
#510=DIRECTION('',(-1.26196187654932E-031,1.0,1.98210675941283E-015));
#511=CARTESIAN_POINT('',(1.32261854307914E-015,-1.76665901997507E-013,-21.6));
#512=DIRECTION('',(6.12323399573676E-017,1.98210675941283E-015,-1.0));
#513=DIRECTION('',(-1.26196187654932E-031,1.0,1.98210675941283E-015));
#514=CARTESIAN_POINT('',(1.65327317884893E-015,-1.65962525496678E-013,-27.0));
#515=DIRECTION('',(6.12323399573676E-017,1.98210675941283E-015,-1.0));
#516=DIRECTION('',(-1.26196187654932E-031,1.0,1.98210675941283E-015));
#517=CARTESIAN_POINT('',(1.65327317884893E-015,-1.65962525496678E-013,-27.0));
#518=DIRECTION('',(6.12323399573677E-017,1.98210675941283E-015,-1.0));
#519=DIRECTION('',(-1.26196187654932E-031,1.0,1.98210675941283E-015));
#520=CARTESIAN_POINT('',(1.77573785876366E-015,-1.61998311977853E-013,-28.9999999999999));
#521=DIRECTION('',(6.12323399573677E-017,1.98210675941283E-015,-1.0));
#522=DIRECTION('',(-1.26196187654932E-031,1.0,1.98210675941283E-015));
#523=CARTESIAN_POINT('',(1.9165722406656E-015,-1.57439466431203E-013,-31.2999999999999));
#524=DIRECTION('',(6.12323399573677E-017,1.98210675941283E-015,-1.0));
#525=DIRECTION('',(-1.26196187654932E-031,1.0,1.98210675941283E-015));
#526=CARTESIAN_POINT('',(1.9165722406656E-015,-1.57439466431203E-013,-31.2999999999999));
#527=DIRECTION('',(6.12323399573677E-017,1.98210675941283E-015,-1.0));
#528=DIRECTION('',(-1.26196187654932E-031,1.0,1.98210675941283E-015));
#529=CARTESIAN_POINT('',(2.17374806848655E-015,-1.49114618041669E-013,-35.5));
#530=DIRECTION('',(6.12323399573677E-017,1.98210675941283E-015,-1.0));
#531=DIRECTION('',(-1.26196187654932E-031,1.0,1.98210675941283E-015));
#532=CARTESIAN_POINT('',(2.25028849343326E-015,-1.46636984592403E-013,-36.75));
#533=DIRECTION('',(6.12323399573677E-017,1.98210675941283E-015,-1.0));
#534=DIRECTION('',(-1.26196187654932E-031,1.0,1.98210675941283E-015));
#535=CARTESIAN_POINT('',(2.7401472130922E-015,-1.307801305171E-013,-44.75));
#536=DIRECTION('',(6.12323399573676E-017,1.98210675941283E-015,-1.0));
#537=DIRECTION('',(-1.26196187654932E-031,1.0,1.98210675941283E-015));
#538=CARTESIAN_POINT('',(2.81668763803891E-015,-1.28302497067834E-013,-46.0));
#539=DIRECTION('',(6.12323399573677E-017,1.98210675941283E-015,-1.0));
#540=DIRECTION('',(-1.26196187654932E-031,1.0,1.98210675941283E-015));
#541=CARTESIAN_POINT('',(2.81668763803891E-015,-1.28302497067834E-013,-45.9999999999999));
#542=DIRECTION('',(6.12323399573677E-017,1.98210675941283E-015,-1.0));
#543=DIRECTION('',(-1.26196187654932E-031,1.0,1.98210675941283E-015));
#544=CARTESIAN_POINT('',(3.5208595475488E-015,-1.05508269334581E-013,-57.5000000000026));
#545=DIRECTION('',(6.12323399573677E-017,1.98210675941283E-015,-1.0));
#546=DIRECTION('',(-1.26196187654932E-031,1.0,1.98210675941283E-015));
#547=CARTESIAN_POINT('',(3.59739997249547E-015,-1.03030635885317E-013,-58.7500000000019));
#548=DIRECTION('',(6.12323399573677E-017,1.98210675941283E-015,-1.0));
#549=DIRECTION('',(-1.26196187654932E-031,1.0,1.98210675941283E-015));
#550=CARTESIAN_POINT('',(5.23536506635495E-015,-5.00092800710269E-014,-85.5000000000002));
#551=DIRECTION('',(6.12323399573677E-017,1.98210675941283E-015,-1.0));
#552=DIRECTION('',(-1.26196187654932E-031,1.0,1.98210675941283E-015));
#553=CARTESIAN_POINT('',(6.49062803548097E-015,-9.3760915030641E-015,-106.0));
#554=DIRECTION('',(6.12323399573677E-017,1.98210675941283E-015,-1.0));
#555=DIRECTION('',(-1.26196187654932E-031,1.0,1.98210675941283E-015));
#556=CARTESIAN_POINT('',(6.49062803548097E-015,-9.37609150306412E-015,-106.0));
#557=DIRECTION('',(6.12323399573676E-017,1.98210675941283E-015,-1.0));
#558=DIRECTION('',(-1.26196187654932E-031,1.0,1.98210675941283E-015));
#559=CARTESIAN_POINT('',(7.25603228494807E-015,1.54002429895963E-014,-118.5));
#560=DIRECTION('',(6.12323399573677E-017,1.98210675941283E-015,-1.0));
#561=DIRECTION('',(-1.26196187654932E-031,1.0,1.98210675941283E-015));
ENDSEC;
END-ISO-10303-21;
