ISO-10303-21;
HEADER;
FILE_DESCRIPTION((''),'1');
FILE_NAME('//Big_tech03/bigt/Translate/21_\X2\8F2A90ED7DDA\X0\-DXF/63_\X2\30B530A430C930AB30C330BF30A230FC30D0\X0\A\X2\578B\X0\ SCA/BBT/BBT40/BBT40-SCA25.4-75.stp','2012-05-28T06:09:56',(''),(''),'Spatial Interop R18','Kubotek KeyCreator V8.5.1 (14335)',' ');
FILE_SCHEMA(('CONFIG_CONTROL_DESIGN'));
ENDSEC;
DATA;
#1=DESIGN_CONTEXT('',#27,'design');
#2=APPLICATION_PROTOCOL_DEFINITION('INTERNATIONAL STANDARD','config_control_design',1994,#27);
#3=PRODUCT_CATEGORY_RELATIONSHIP('NONE','NONE',#28,#29);
#4=DATE_AND_TIME(#30,#31);
#5=DATE_TIME_ROLE('creation_date');
#6=DATE_TIME_ROLE('classification_date');
#7=PERSON_AND_ORGANIZATION_ROLE('creator');
#8=PERSON_AND_ORGANIZATION_ROLE('design_supplier');
#9=PERSON_AND_ORGANIZATION_ROLE('classification_officer');
#10=PERSON_AND_ORGANIZATION_ROLE('design_owner');
#11=APPROVAL_PERSON_ORGANIZATION(#32,#33,#34);
#12=APPROVAL_DATE_TIME(#4,#33);
#13=CC_DESIGN_APPROVAL(#33,(#35,#36,#37));
#14=CC_DESIGN_DATE_AND_TIME_ASSIGNMENT(#4,#5,(#37));
#15=CC_DESIGN_DATE_AND_TIME_ASSIGNMENT(#4,#6,(#35));
#16=CC_DESIGN_PERSON_AND_ORGANIZATION_ASSIGNMENT(#32,#10,(#38));
#17=CC_DESIGN_PERSON_AND_ORGANIZATION_ASSIGNMENT(#32,#7,(#37));
#18=CC_DESIGN_PERSON_AND_ORGANIZATION_ASSIGNMENT(#32,#7,(#36));
#19=CC_DESIGN_PERSON_AND_ORGANIZATION_ASSIGNMENT(#32,#8,(#36));
#20=CC_DESIGN_SECURITY_CLASSIFICATION(#35,(#36));
#21=CC_DESIGN_PERSON_AND_ORGANIZATION_ASSIGNMENT(#32,#9,(#35));
#22=SHAPE_DEFINITION_REPRESENTATION(#39,#40);
#23= (GEOMETRIC_REPRESENTATION_CONTEXT(3)GLOBAL_UNCERTAINTY_ASSIGNED_CONTEXT((#43))GLOBAL_UNIT_ASSIGNED_CONTEXT((#45,#46,#47))REPRESENTATION_CONTEXT('NONE','WORKSPACE'));
#27=APPLICATION_CONTEXT('CONFIGURATION CONTROLLED 3D DESIGNS OF MECHANICAL PARTS AND ASSEMBLIES');
#28=PRODUCT_CATEGORY('part','NONE');
#29=PRODUCT_RELATED_PRODUCT_CATEGORY('detail',' ',(#38));
#30=CALENDAR_DATE(2012,28,4);
#31=LOCAL_TIME(15,9,56.0,#49);
#32=PERSON_AND_ORGANIZATION(#50,#51);
#33=APPROVAL(#52,'SOLID MODEL');
#34=APPROVAL_ROLE('APPROVED');
#35=SECURITY_CLASSIFICATION('','',#53);
#36=PRODUCT_DEFINITION_FORMATION_WITH_SPECIFIED_SOURCE(' ','NONE',#38,.NOT_KNOWN.);
#37=PRODUCT_DEFINITION('NONE','NONE',#36,#1);
#38=PRODUCT('1','1','PART-1-DESC',(#54));
#39=PRODUCT_DEFINITION_SHAPE('NONE','NONE',#37);
#40=ADVANCED_BREP_SHAPE_REPRESENTATION('1',(#55,#56),#23);
#43=UNCERTAINTY_MEASURE_WITH_UNIT(LENGTH_MEASURE(1.0E-006),#45,'','');
#45= (CONVERSION_BASED_UNIT('MILLIMETRE',#59)LENGTH_UNIT()NAMED_UNIT(#62));
#46= (NAMED_UNIT(#64)PLANE_ANGLE_UNIT()SI_UNIT($,.RADIAN.));
#47= (NAMED_UNIT(#64)SOLID_ANGLE_UNIT()SI_UNIT($,.STERADIAN.));
#49=COORDINATED_UNIVERSAL_TIME_OFFSET(9,0,.AHEAD.);
#50=PERSON('','UNSPECIFIED',$,$,$,$);
#51=ORGANIZATION('UNSPECIFIED','UNSPECIFIED','UNSPECIFIED');
#52=APPROVAL_STATUS('approved');
#53=SECURITY_CLASSIFICATION_LEVEL('unclassified');
#54=MECHANICAL_CONTEXT('',#27,'mechanical');
#55=MANIFOLD_SOLID_BREP('1',#70);
#56=AXIS2_PLACEMENT_3D('',#71,#72,#73);
#59=LENGTH_MEASURE_WITH_UNIT(LENGTH_MEASURE(1.0),#74);
#62=DIMENSIONAL_EXPONENTS(1.0,0.0,0.0,0.0,0.0,0.0,0.0);
#64=DIMENSIONAL_EXPONENTS(0.0,0.0,0.0,0.0,0.0,0.0,0.0);
#70=CLOSED_SHELL('',(#75,#76,#77,#78,#79,#80,#81,#82,#83,#84,#85,#86,#87,#88,#89,#90,#91,#92,#93));
#71=CARTESIAN_POINT('',(0.0,0.0,0.0));
#72=DIRECTION('',(0.0,0.0,1.0));
#73=DIRECTION('',(1.0,0.0,0.0));
#74= (NAMED_UNIT(#62)LENGTH_UNIT()SI_UNIT(.MILLI.,.METRE.));
#75=ADVANCED_FACE('',(#95,#96),#97,.T.);
#76=ADVANCED_FACE('',(#98),#99,.T.);
#77=ADVANCED_FACE('',(#100,#101),#102,.T.);
#78=ADVANCED_FACE('',(#103,#104),#105,.T.);
#79=ADVANCED_FACE('',(#106,#107),#108,.T.);
#80=ADVANCED_FACE('',(#109,#110),#111,.T.);
#81=ADVANCED_FACE('',(#112,#113),#114,.T.);
#82=ADVANCED_FACE('',(#115,#116),#117,.T.);
#83=ADVANCED_FACE('',(#118,#119),#120,.T.);
#84=ADVANCED_FACE('',(#121,#122),#123,.T.);
#85=ADVANCED_FACE('',(#124,#125),#126,.T.);
#86=ADVANCED_FACE('',(#127,#128),#129,.T.);
#87=ADVANCED_FACE('',(#130,#131),#132,.T.);
#88=ADVANCED_FACE('',(#133,#134),#135,.T.);
#89=ADVANCED_FACE('',(#136,#137),#138,.T.);
#90=ADVANCED_FACE('',(#139,#140),#141,.T.);
#91=ADVANCED_FACE('',(#142,#143),#144,.T.);
#92=ADVANCED_FACE('',(#145),#146,.T.);
#93=ADVANCED_FACE('',(#147,#148),#149,.T.);
#95=FACE_OUTER_BOUND('',#150,.T.);
#96=FACE_BOUND('',#151,.T.);
#97=PLANE('',#152);
#98=FACE_OUTER_BOUND('',#153,.T.);
#99=PLANE('',#154);
#100=FACE_BOUND('',#155,.T.);
#101=FACE_BOUND('',#156,.T.);
#102=CYLINDRICAL_SURFACE('',#157,12.0);
#103=FACE_OUTER_BOUND('',#158,.T.);
#104=FACE_BOUND('',#159,.T.);
#105=PLANE('',#160);
#106=FACE_BOUND('',#161,.T.);
#107=FACE_BOUND('',#162,.T.);
#108=CYLINDRICAL_SURFACE('',#163,10.75);
#109=FACE_OUTER_BOUND('',#164,.T.);
#110=FACE_BOUND('',#165,.T.);
#111=PLANE('',#166);
#112=FACE_BOUND('',#167,.T.);
#113=FACE_BOUND('',#168,.T.);
#114=CYLINDRICAL_SURFACE('',#169,12.7);
#115=FACE_OUTER_BOUND('',#170,.T.);
#116=FACE_BOUND('',#171,.T.);
#117=PLANE('',#172);
#118=FACE_BOUND('',#173,.T.);
#119=FACE_BOUND('',#174,.T.);
#120=CYLINDRICAL_SURFACE('',#175,20.0);
#121=FACE_BOUND('',#176,.T.);
#122=FACE_BOUND('',#177,.T.);
#123=CONICAL_SURFACE('',#178,21.5,0.785398163397448);
#124=FACE_OUTER_BOUND('',#179,.T.);
#125=FACE_BOUND('',#180,.T.);
#126=PLANE('',#181);
#127=FACE_BOUND('',#182,.T.);
#128=FACE_BOUND('',#183,.T.);
#129=CYLINDRICAL_SURFACE('',#184,31.5);
#130=FACE_BOUND('',#185,.T.);
#131=FACE_BOUND('',#186,.T.);
#132=CONICAL_SURFACE('',#187,29.0,1.04719755058882);
#133=FACE_BOUND('',#188,.T.);
#134=FACE_BOUND('',#189,.T.);
#135=CYLINDRICAL_SURFACE('',#190,26.5);
#136=FACE_BOUND('',#191,.T.);
#137=FACE_BOUND('',#192,.T.);
#138=CONICAL_SURFACE('',#193,29.0,1.04719755058882);
#139=FACE_BOUND('',#194,.T.);
#140=FACE_BOUND('',#195,.T.);
#141=CYLINDRICAL_SURFACE('',#196,31.5);
#142=FACE_BOUND('',#197,.T.);
#143=FACE_BOUND('',#198,.T.);
#144=CONICAL_SURFACE('',#199,17.4562500026599,0.144812498159292);
#145=FACE_OUTER_BOUND('',#200,.T.);
#146=PLANE('',#201);
#147=FACE_BOUND('',#202,.T.);
#148=FACE_BOUND('',#203,.T.);
#149=CYLINDRICAL_SURFACE('',#204,22.225);
#150=EDGE_LOOP('',(#205));
#151=EDGE_LOOP('',(#206));
#152=AXIS2_PLACEMENT_3D('',#207,#208,#209);
#153=EDGE_LOOP('',(#210));
#154=AXIS2_PLACEMENT_3D('',#211,#212,#213);
#155=EDGE_LOOP('',(#214));
#156=EDGE_LOOP('',(#215));
#157=AXIS2_PLACEMENT_3D('',#216,#217,#218);
#158=EDGE_LOOP('',(#219));
#159=EDGE_LOOP('',(#220));
#160=AXIS2_PLACEMENT_3D('',#221,#222,#223);
#161=EDGE_LOOP('',(#224));
#162=EDGE_LOOP('',(#225));
#163=AXIS2_PLACEMENT_3D('',#226,#227,#228);
#164=EDGE_LOOP('',(#229));
#165=EDGE_LOOP('',(#230));
#166=AXIS2_PLACEMENT_3D('',#231,#232,#233);
#167=EDGE_LOOP('',(#234));
#168=EDGE_LOOP('',(#235));
#169=AXIS2_PLACEMENT_3D('',#236,#237,#238);
#170=EDGE_LOOP('',(#239));
#171=EDGE_LOOP('',(#240));
#172=AXIS2_PLACEMENT_3D('',#241,#242,#243);
#173=EDGE_LOOP('',(#244));
#174=EDGE_LOOP('',(#245));
#175=AXIS2_PLACEMENT_3D('',#246,#247,#248);
#176=EDGE_LOOP('',(#249));
#177=EDGE_LOOP('',(#250));
#178=AXIS2_PLACEMENT_3D('',#251,#252,#253);
#179=EDGE_LOOP('',(#254));
#180=EDGE_LOOP('',(#255));
#181=AXIS2_PLACEMENT_3D('',#256,#257,#258);
#182=EDGE_LOOP('',(#259));
#183=EDGE_LOOP('',(#260));
#184=AXIS2_PLACEMENT_3D('',#261,#262,#263);
#185=EDGE_LOOP('',(#264));
#186=EDGE_LOOP('',(#265));
#187=AXIS2_PLACEMENT_3D('',#266,#267,#268);
#188=EDGE_LOOP('',(#269));
#189=EDGE_LOOP('',(#270));
#190=AXIS2_PLACEMENT_3D('',#271,#272,#273);
#191=EDGE_LOOP('',(#274));
#192=EDGE_LOOP('',(#275));
#193=AXIS2_PLACEMENT_3D('',#276,#277,#278);
#194=EDGE_LOOP('',(#279));
#195=EDGE_LOOP('',(#280));
#196=AXIS2_PLACEMENT_3D('',#281,#282,#283);
#197=EDGE_LOOP('',(#284));
#198=EDGE_LOOP('',(#285));
#199=AXIS2_PLACEMENT_3D('',#286,#287,#288);
#200=EDGE_LOOP('',(#289));
#201=AXIS2_PLACEMENT_3D('',#290,#291,#292);
#202=EDGE_LOOP('',(#293));
#203=EDGE_LOOP('',(#294));
#204=AXIS2_PLACEMENT_3D('',#295,#296,#297);
#205=ORIENTED_EDGE('',*,*,#298,.T.);
#206=ORIENTED_EDGE('',*,*,#299,.F.);
#207=CARTESIAN_POINT('',(6.67432505535309E-015,5.37500000000001,-109.0));
#208=DIRECTION('',(-6.12323399573677E-017,-1.22464679914735E-016,1.0));
#209=DIRECTION('',(-1.23259516440783E-032,1.0,1.22464679914735E-016));
#210=ORIENTED_EDGE('',*,*,#300,.F.);
#211=CARTESIAN_POINT('',(7.9602041944578E-015,6.00000000000002,-130.0));
#212=DIRECTION('',(6.12323399573677E-017,1.22464679914735E-016,-1.0));
#213=DIRECTION('',(1.23259516440783E-032,-1.0,-1.22464679914735E-016));
#214=ORIENTED_EDGE('',*,*,#298,.F.);
#215=ORIENTED_EDGE('',*,*,#300,.T.);
#216=CARTESIAN_POINT('',(7.31726462490544E-015,1.46345292498109E-014,-119.5));
#217=DIRECTION('',(6.12323399573677E-017,1.22464679914735E-016,-1.0));
#218=DIRECTION('',(-1.23259516440783E-032,1.0,1.22464679914735E-016));
#219=ORIENTED_EDGE('',*,*,#301,.T.);
#220=ORIENTED_EDGE('',*,*,#302,.F.);
#221=CARTESIAN_POINT('',(6.12323399573675E-017,11.1125,-0.999999999999999));
#222=DIRECTION('',(-6.12323399573677E-017,-1.22464679914735E-016,1.0));
#223=DIRECTION('',(-1.23259516440783E-032,1.0,1.22464679914735E-016));
#224=ORIENTED_EDGE('',*,*,#303,.F.);
#225=ORIENTED_EDGE('',*,*,#299,.T.);
#226=CARTESIAN_POINT('',(6.55186037543835E-015,1.31037207508767E-014,-107.0));
#227=DIRECTION('',(6.12323399573677E-017,1.22464679914735E-016,-1.0));
#228=DIRECTION('',(-1.23259516440783E-032,1.0,1.22464679914735E-016));
#229=ORIENTED_EDGE('',*,*,#304,.F.);
#230=ORIENTED_EDGE('',*,*,#303,.T.);
#231=CARTESIAN_POINT('',(6.4293956955236E-015,11.725,-105.0));
#232=DIRECTION('',(6.12323399573677E-017,1.22464679914735E-016,-1.0));
#233=DIRECTION('',(1.23259516440783E-032,-1.0,-1.22464679914735E-016));
#234=ORIENTED_EDGE('',*,*,#305,.F.);
#235=ORIENTED_EDGE('',*,*,#304,.T.);
#236=CARTESIAN_POINT('',(5.51091059616309E-015,1.10218211923262E-014,-90.0));
#237=DIRECTION('',(6.12323399573677E-017,1.22464679914735E-016,-1.0));
#238=DIRECTION('',(-1.23259516440783E-032,1.0,1.22464679914735E-016));
#239=ORIENTED_EDGE('',*,*,#306,.F.);
#240=ORIENTED_EDGE('',*,*,#305,.T.);
#241=CARTESIAN_POINT('',(4.59242549680257E-015,16.35,-75.0));
#242=DIRECTION('',(6.12323399573677E-017,1.22464679914735E-016,-1.0));
#243=DIRECTION('',(1.23259516440783E-032,-1.0,-1.22464679914735E-016));
#244=ORIENTED_EDGE('',*,*,#307,.F.);
#245=ORIENTED_EDGE('',*,*,#306,.T.);
#246=CARTESIAN_POINT('',(3.2146978477618E-015,6.4293956955236E-015,-52.5));
#247=DIRECTION('',(6.12323399573677E-017,1.22464679914735E-016,-1.0));
#248=DIRECTION('',(-1.23259516440783E-032,1.0,1.22464679914735E-016));
#249=ORIENTED_EDGE('',*,*,#308,.F.);
#250=ORIENTED_EDGE('',*,*,#307,.T.);
#251=CARTESIAN_POINT('',(1.74512168878498E-015,3.49024337756996E-015,-28.5));
#252=DIRECTION('',(-6.12323399573677E-017,-1.22464679914735E-016,1.0));
#253=DIRECTION('',(-1.23259516440783E-032,1.0,1.22464679914735E-016));
#254=ORIENTED_EDGE('',*,*,#309,.F.);
#255=ORIENTED_EDGE('',*,*,#308,.T.);
#256=CARTESIAN_POINT('',(1.65327317884893E-015,27.25,-27.0));
#257=DIRECTION('',(6.12323399573677E-017,1.22464679914735E-016,-1.0));
#258=DIRECTION('',(1.23259516440783E-032,-1.0,-1.22464679914735E-016));
#259=ORIENTED_EDGE('',*,*,#310,.F.);
#260=ORIENTED_EDGE('',*,*,#309,.T.);
#261=CARTESIAN_POINT('',(1.48794586096403E-015,2.97589172192807E-015,-24.3));
#262=DIRECTION('',(6.12323399573677E-017,1.22464679914735E-016,-1.0));
#263=DIRECTION('',(-1.23259516440783E-032,1.0,1.22464679914735E-016));
#264=ORIENTED_EDGE('',*,*,#311,.F.);
#265=ORIENTED_EDGE('',*,*,#310,.T.);
#266=CARTESIAN_POINT('',(1.23423727306135E-015,2.46847454612269E-015,-20.156624325));
#267=DIRECTION('',(6.12323399573677E-017,1.22464679914735E-016,-1.0));
#268=DIRECTION('',(-1.23259516440783E-032,1.0,1.22464679914735E-016));
#269=ORIENTED_EDGE('',*,*,#312,.F.);
#270=ORIENTED_EDGE('',*,*,#311,.T.);
#271=CARTESIAN_POINT('',(1.0164568432923E-015,2.03291368658461E-015,-16.6));
#272=DIRECTION('',(6.12323399573677E-017,1.22464679914735E-016,-1.0));
#273=DIRECTION('',(-1.23259516440783E-032,1.0,1.22464679914735E-016));
#274=ORIENTED_EDGE('',*,*,#313,.F.);
#275=ORIENTED_EDGE('',*,*,#312,.T.);
#276=CARTESIAN_POINT('',(7.9867641352326E-016,1.59735282704652E-015,-13.043375675));
#277=DIRECTION('',(-6.12323399573677E-017,-1.22464679914735E-016,1.0));
#278=DIRECTION('',(-1.23259516440783E-032,1.0,1.22464679914735E-016));
#279=ORIENTED_EDGE('',*,*,#301,.F.);
#280=ORIENTED_EDGE('',*,*,#313,.T.);
#281=CARTESIAN_POINT('',(3.85763741731416E-016,7.71527483462832E-016,-6.3));
#282=DIRECTION('',(6.12323399573677E-017,1.22464679914735E-016,-1.0));
#283=DIRECTION('',(-1.23259516440783E-032,1.0,1.22464679914735E-016));
#284=ORIENTED_EDGE('',*,*,#314,.F.);
#285=ORIENTED_EDGE('',*,*,#315,.T.);
#286=CARTESIAN_POINT('',(-2.00229751660592E-015,-4.00459503321184E-015,32.7));
#287=DIRECTION('',(6.12323399573677E-017,1.22464679914735E-016,-1.0));
#288=DIRECTION('',(-1.23259516440783E-032,1.0,1.22464679914735E-016));
#289=ORIENTED_EDGE('',*,*,#314,.T.);
#290=CARTESIAN_POINT('',(-4.00459503321185E-015,6.34375000265984,65.4));
#291=DIRECTION('',(-6.12323399573677E-017,-1.22464679914735E-016,1.0));
#292=DIRECTION('',(-1.23259516440783E-032,1.0,1.22464679914735E-016));
#293=ORIENTED_EDGE('',*,*,#315,.F.);
#294=ORIENTED_EDGE('',*,*,#302,.T.);
#295=CARTESIAN_POINT('',(3.06161699786837E-017,6.12323399573674E-017,-0.499999999999998));
#296=DIRECTION('',(6.12323399573677E-017,1.22464679914735E-016,-1.0));
#297=DIRECTION('',(-1.23259516440783E-032,1.0,1.22464679914735E-016));
#298=EDGE_CURVE('',#316,#316,#317,.T.);
#299=EDGE_CURVE('',#318,#318,#319,.T.);
#300=EDGE_CURVE('',#320,#320,#321,.T.);
#301=EDGE_CURVE('',#322,#322,#323,.T.);
#302=EDGE_CURVE('',#324,#324,#325,.T.);
#303=EDGE_CURVE('',#326,#326,#327,.T.);
#304=EDGE_CURVE('',#328,#328,#329,.T.);
#305=EDGE_CURVE('',#330,#330,#331,.T.);
#306=EDGE_CURVE('',#332,#332,#333,.T.);
#307=EDGE_CURVE('',#334,#334,#335,.T.);
#308=EDGE_CURVE('',#336,#336,#337,.T.);
#309=EDGE_CURVE('',#338,#338,#339,.T.);
#310=EDGE_CURVE('',#340,#340,#341,.T.);
#311=EDGE_CURVE('',#342,#342,#343,.T.);
#312=EDGE_CURVE('',#344,#344,#345,.T.);
#313=EDGE_CURVE('',#346,#346,#347,.T.);
#314=EDGE_CURVE('',#348,#348,#349,.T.);
#315=EDGE_CURVE('',#350,#350,#351,.T.);
#316=VERTEX_POINT('',#352);
#317=CIRCLE('',#353,12.0);
#318=VERTEX_POINT('',#354);
#319=CIRCLE('',#355,10.75);
#320=VERTEX_POINT('',#356);
#321=CIRCLE('',#357,12.0);
#322=VERTEX_POINT('',#358);
#323=CIRCLE('',#359,31.5);
#324=VERTEX_POINT('',#360);
#325=CIRCLE('',#361,22.225);
#326=VERTEX_POINT('',#362);
#327=CIRCLE('',#363,10.75);
#328=VERTEX_POINT('',#364);
#329=CIRCLE('',#365,12.7);
#330=VERTEX_POINT('',#366);
#331=CIRCLE('',#367,12.7);
#332=VERTEX_POINT('',#368);
#333=CIRCLE('',#369,20.0);
#334=VERTEX_POINT('',#370);
#335=CIRCLE('',#371,20.0);
#336=VERTEX_POINT('',#372);
#337=CIRCLE('',#373,23.0);
#338=VERTEX_POINT('',#374);
#339=CIRCLE('',#375,31.5);
#340=VERTEX_POINT('',#376);
#341=CIRCLE('',#377,31.5);
#342=VERTEX_POINT('',#378);
#343=CIRCLE('',#379,26.5);
#344=VERTEX_POINT('',#380);
#345=CIRCLE('',#381,26.5);
#346=VERTEX_POINT('',#382);
#347=CIRCLE('',#383,31.5);
#348=VERTEX_POINT('',#384);
#349=CIRCLE('',#385,12.6875000053197);
#350=VERTEX_POINT('',#386);
#351=CIRCLE('',#387,22.225);
#352=CARTESIAN_POINT('',(6.67432505535309E-015,12.0,-109.0));
#353=AXIS2_PLACEMENT_3D('',#388,#389,#390);
#354=CARTESIAN_POINT('',(6.67432505535309E-015,10.75,-109.0));
#355=AXIS2_PLACEMENT_3D('',#391,#392,#393);
#356=CARTESIAN_POINT('',(7.9602041944578E-015,12.0,-130.0));
#357=AXIS2_PLACEMENT_3D('',#394,#395,#396);
#358=CARTESIAN_POINT('',(6.12323399573673E-017,31.5,-0.999999999999996));
#359=AXIS2_PLACEMENT_3D('',#397,#398,#399);
#360=CARTESIAN_POINT('',(6.12323399573674E-017,22.225,-0.999999999999997));
#361=AXIS2_PLACEMENT_3D('',#400,#401,#402);
#362=CARTESIAN_POINT('',(6.4293956955236E-015,10.75,-105.0));
#363=AXIS2_PLACEMENT_3D('',#403,#404,#405);
#364=CARTESIAN_POINT('',(6.4293956955236E-015,12.7,-105.0));
#365=AXIS2_PLACEMENT_3D('',#406,#407,#408);
#366=CARTESIAN_POINT('',(4.59242549680257E-015,12.7,-75.0));
#367=AXIS2_PLACEMENT_3D('',#409,#410,#411);
#368=CARTESIAN_POINT('',(4.59242549680257E-015,20.0,-75.0));
#369=AXIS2_PLACEMENT_3D('',#412,#413,#414);
#370=CARTESIAN_POINT('',(1.83697019872103E-015,20.0,-30.0));
#371=AXIS2_PLACEMENT_3D('',#415,#416,#417);
#372=CARTESIAN_POINT('',(1.65327317884893E-015,23.0,-27.0));
#373=AXIS2_PLACEMENT_3D('',#418,#419,#420);
#374=CARTESIAN_POINT('',(1.65327317884893E-015,31.5,-27.0));
#375=AXIS2_PLACEMENT_3D('',#421,#422,#423);
#376=CARTESIAN_POINT('',(1.32261854307914E-015,31.5,-21.6));
#377=AXIS2_PLACEMENT_3D('',#424,#425,#426);
#378=CARTESIAN_POINT('',(1.14585600304355E-015,26.5,-18.71324865));
#379=AXIS2_PLACEMENT_3D('',#427,#428,#429);
#380=CARTESIAN_POINT('',(8.87057683541055E-016,26.5,-14.48675135));
#381=AXIS2_PLACEMENT_3D('',#430,#431,#432);
#382=CARTESIAN_POINT('',(7.10295143505464E-016,31.5,-11.6));
#383=AXIS2_PLACEMENT_3D('',#433,#434,#435);
#384=CARTESIAN_POINT('',(-4.00459503321185E-015,12.6875000053197,65.4));
#385=AXIS2_PLACEMENT_3D('',#436,#437,#438);
#386=CARTESIAN_POINT('',(-4.76010997148954E-031,22.225,6.02177751110499E-015));
#387=AXIS2_PLACEMENT_3D('',#439,#440,#441);
#388=CARTESIAN_POINT('',(6.67432505535309E-015,1.33486501107062E-014,-109.0));
#389=DIRECTION('',(-6.12323399573677E-017,-1.22464679914735E-016,1.0));
#390=DIRECTION('',(-1.23259516440783E-032,1.0,1.22464679914735E-016));
#391=CARTESIAN_POINT('',(6.67432505535309E-015,1.33486501107062E-014,-109.0));
#392=DIRECTION('',(-6.12323399573677E-017,-1.22464679914735E-016,1.0));
#393=DIRECTION('',(-1.23259516440783E-032,1.0,1.22464679914735E-016));
#394=CARTESIAN_POINT('',(7.9602041944578E-015,1.59204083889156E-014,-130.0));
#395=DIRECTION('',(-6.12323399573677E-017,-1.22464679914735E-016,1.0));
#396=DIRECTION('',(-1.23259516440783E-032,1.0,1.22464679914735E-016));
#397=CARTESIAN_POINT('',(6.12323399573677E-017,1.22464679914735E-016,-1.0));
#398=DIRECTION('',(-6.12323399573677E-017,-1.22464679914735E-016,1.0));
#399=DIRECTION('',(-1.23259516440783E-032,1.0,1.22464679914735E-016));
#400=CARTESIAN_POINT('',(6.12323399573677E-017,1.22464679914735E-016,-1.0));
#401=DIRECTION('',(-6.12323399573677E-017,-1.22464679914735E-016,1.0));
#402=DIRECTION('',(-1.23259516440783E-032,1.0,1.22464679914735E-016));
#403=CARTESIAN_POINT('',(6.4293956955236E-015,1.28587913910472E-014,-105.0));
#404=DIRECTION('',(-6.12323399573677E-017,-1.22464679914735E-016,1.0));
#405=DIRECTION('',(-1.23259516440783E-032,1.0,1.22464679914735E-016));
#406=CARTESIAN_POINT('',(6.4293956955236E-015,1.28587913910472E-014,-105.0));
#407=DIRECTION('',(-6.12323399573677E-017,-1.22464679914735E-016,1.0));
#408=DIRECTION('',(-1.23259516440783E-032,1.0,1.22464679914735E-016));
#409=CARTESIAN_POINT('',(4.59242549680257E-015,9.18485099360515E-015,-75.0));
#410=DIRECTION('',(-6.12323399573677E-017,-1.22464679914735E-016,1.0));
#411=DIRECTION('',(-1.23259516440783E-032,1.0,1.22464679914735E-016));
#412=CARTESIAN_POINT('',(4.59242549680257E-015,9.18485099360515E-015,-75.0));
#413=DIRECTION('',(-6.12323399573677E-017,-1.22464679914735E-016,1.0));
#414=DIRECTION('',(-1.23259516440783E-032,1.0,1.22464679914735E-016));
#415=CARTESIAN_POINT('',(1.83697019872103E-015,3.67394039744206E-015,-30.0));
#416=DIRECTION('',(-6.12323399573677E-017,-1.22464679914735E-016,1.0));
#417=DIRECTION('',(-1.23259516440783E-032,1.0,1.22464679914735E-016));
#418=CARTESIAN_POINT('',(1.65327317884893E-015,3.30654635769785E-015,-27.0));
#419=DIRECTION('',(-6.12323399573677E-017,-1.22464679914735E-016,1.0));
#420=DIRECTION('',(-1.23259516440783E-032,1.0,1.22464679914735E-016));
#421=CARTESIAN_POINT('',(1.65327317884893E-015,3.30654635769785E-015,-27.0));
#422=DIRECTION('',(-6.12323399573677E-017,-1.22464679914735E-016,1.0));
#423=DIRECTION('',(-1.23259516440783E-032,1.0,1.22464679914735E-016));
#424=CARTESIAN_POINT('',(1.32261854307914E-015,2.64523708615828E-015,-21.6));
#425=DIRECTION('',(-6.12323399573677E-017,-1.22464679914735E-016,1.0));
#426=DIRECTION('',(-1.23259516440783E-032,1.0,1.22464679914735E-016));
#427=CARTESIAN_POINT('',(1.14585600304355E-015,2.2917120060871E-015,-18.71324865));
#428=DIRECTION('',(-6.12323399573677E-017,-1.22464679914735E-016,1.0));
#429=DIRECTION('',(-1.23259516440783E-032,1.0,1.22464679914735E-016));
#430=CARTESIAN_POINT('',(8.87057683541055E-016,1.77411536708211E-015,-14.48675135));
#431=DIRECTION('',(-6.12323399573677E-017,-1.22464679914735E-016,1.0));
#432=DIRECTION('',(-1.23259516440783E-032,1.0,1.22464679914735E-016));
#433=CARTESIAN_POINT('',(7.10295143505465E-016,1.42059028701093E-015,-11.6));
#434=DIRECTION('',(-6.12323399573677E-017,-1.22464679914735E-016,1.0));
#435=DIRECTION('',(-1.23259516440783E-032,1.0,1.22464679914735E-016));
#436=CARTESIAN_POINT('',(-4.00459503321185E-015,-8.00919006642369E-015,65.4));
#437=DIRECTION('',(-6.12323399573677E-017,-1.22464679914735E-016,1.0));
#438=DIRECTION('',(-1.23259516440783E-032,1.0,1.22464679914735E-016));
#439=CARTESIAN_POINT('',(-2.03944661017034E-031,-4.07889322034067E-031,3.33066907387547E-015));
#440=DIRECTION('',(-6.12323399573677E-017,-1.22464679914735E-016,1.0));
#441=DIRECTION('',(-1.23259516440783E-032,1.0,1.22464679914735E-016));
ENDSEC;
END-ISO-10303-21;
