ISO-10303-21;
HEADER;
FILE_DESCRIPTION((''),'1');
FILE_NAME('U:/Translate/02_3D_Field-HP\X2\FF71FF6FFF8CFF9F5916\X0\2013/02_Step_Field-HP\X2\FF71FF6FFF8CFF9F5916\X0\2013/BBT40-50-L350.stp','2016-05-30T10:04:35',(''),(''),'Spatial Interop R21 SP3','Kubotek KeyCreator 2011 V10.0.2 (22737)',' ');
FILE_SCHEMA(('automotive_design'));
ENDSEC;
DATA;
#1=MECHANICAL_DESIGN_GEOMETRIC_PRESENTATION_REPRESENTATION(' ',(#10,#11,#12,#13,#14,#15,#16,#17,#18,#19,#20,#21,#22,#23,#24,#25,#26,#27,#28,#29,#30,#31,#32,#33,#34,#35),#6);
#2=PRODUCT_DEFINITION_CONTEXT('',#36,'design');
#3=APPLICATION_PROTOCOL_DEFINITION('INTERNATIONAL STANDARD','automotive_design',1994,#36);
#4=PRODUCT_CATEGORY_RELATIONSHIP('NONE','NONE',#37,#38);
#5=SHAPE_DEFINITION_REPRESENTATION(#39,#40);
#6= (GEOMETRIC_REPRESENTATION_CONTEXT(3)GLOBAL_UNCERTAINTY_ASSIGNED_CONTEXT((#43))GLOBAL_UNIT_ASSIGNED_CONTEXT((#45,#46,#47))REPRESENTATION_CONTEXT('NONE','WORKSPACE'));
#10=STYLED_ITEM('',(#49,#50),#51);
#11=STYLED_ITEM('',(#52,#53),#54);
#12=STYLED_ITEM('',(#55),#56);
#13=STYLED_ITEM('',(#57,#58),#59);
#14=STYLED_ITEM('',(#60),#61);
#15=STYLED_ITEM('',(#62),#63);
#16=STYLED_ITEM('',(#64,#65),#66);
#17=STYLED_ITEM('',(#67,#68),#69);
#18=STYLED_ITEM('',(#70,#71),#72);
#19=STYLED_ITEM('',(#73,#74),#75);
#20=STYLED_ITEM('',(#76,#77),#78);
#21=STYLED_ITEM('',(#79),#80);
#22=STYLED_ITEM('',(#81),#82);
#23=STYLED_ITEM('',(#83,#84),#85);
#24=STYLED_ITEM('',(#86),#87);
#25=STYLED_ITEM('',(#88),#89);
#26=STYLED_ITEM('',(#90,#91),#92);
#27=STYLED_ITEM('',(#93),#94);
#28=STYLED_ITEM('',(#95),#96);
#29=STYLED_ITEM('',(#97),#98);
#30=STYLED_ITEM('',(#99,#100),#101);
#31=STYLED_ITEM('',(#102,#103),#104);
#32=STYLED_ITEM('',(#105,#106),#107);
#33=STYLED_ITEM('',(#108),#109);
#34=STYLED_ITEM('',(#110),#111);
#35=STYLED_ITEM('',(#112,#113),#114);
#36=APPLICATION_CONTEXT(' ');
#37=PRODUCT_CATEGORY('part','NONE');
#38=PRODUCT_RELATED_PRODUCT_CATEGORY('detail',' ',(#115));
#39=PRODUCT_DEFINITION_SHAPE('NONE','NONE',#116);
#40=ADVANCED_BREP_SHAPE_REPRESENTATION('Unnamed[1]',(#59,#117),#6);
#43=UNCERTAINTY_MEASURE_WITH_UNIT(LENGTH_MEASURE(1.0E-006),#45,'','');
#45= (CONVERSION_BASED_UNIT('MILLIMETRE',#120)LENGTH_UNIT()NAMED_UNIT(#123));
#46= (NAMED_UNIT(#125)PLANE_ANGLE_UNIT()SI_UNIT($,.RADIAN.));
#47= (NAMED_UNIT(#125)SOLID_ANGLE_UNIT()SI_UNIT($,.STERADIAN.));
#49=PRESENTATION_STYLE_ASSIGNMENT((#131));
#50=PRESENTATION_STYLE_ASSIGNMENT((#132));
#51=ADVANCED_FACE('Unnamed[1]',(#133,#134),#135,.T.);
#52=PRESENTATION_STYLE_ASSIGNMENT((#136));
#53=PRESENTATION_STYLE_ASSIGNMENT((#137));
#54=ADVANCED_FACE('Unnamed[1]',(#138,#139),#140,.T.);
#55=PRESENTATION_STYLE_ASSIGNMENT((#141));
#56=EDGE_CURVE('Unnamed[1]',#142,#142,#143,.T.);
#57=PRESENTATION_STYLE_ASSIGNMENT((#144));
#58=PRESENTATION_STYLE_ASSIGNMENT((#145));
#59=MANIFOLD_SOLID_BREP('Unnamed[1]',#146);
#60=PRESENTATION_STYLE_ASSIGNMENT((#147));
#61=EDGE_CURVE('Unnamed[1]',#148,#148,#149,.T.);
#62=PRESENTATION_STYLE_ASSIGNMENT((#150));
#63=EDGE_CURVE('Unnamed[1]',#151,#151,#152,.T.);
#64=PRESENTATION_STYLE_ASSIGNMENT((#153));
#65=PRESENTATION_STYLE_ASSIGNMENT((#154));
#66=ADVANCED_FACE('Unnamed[1]',(#155,#156),#157,.T.);
#67=PRESENTATION_STYLE_ASSIGNMENT((#158));
#68=PRESENTATION_STYLE_ASSIGNMENT((#159));
#69=ADVANCED_FACE('Unnamed[1]',(#160,#161),#162,.T.);
#70=PRESENTATION_STYLE_ASSIGNMENT((#163));
#71=PRESENTATION_STYLE_ASSIGNMENT((#164));
#72=ADVANCED_FACE('Unnamed[1]',(#165,#166),#167,.T.);
#73=PRESENTATION_STYLE_ASSIGNMENT((#168));
#74=PRESENTATION_STYLE_ASSIGNMENT((#169));
#75=ADVANCED_FACE('Unnamed[1]',(#170),#171,.T.);
#76=PRESENTATION_STYLE_ASSIGNMENT((#172));
#77=PRESENTATION_STYLE_ASSIGNMENT((#173));
#78=ADVANCED_FACE('Unnamed[1]',(#174),#175,.T.);
#79=PRESENTATION_STYLE_ASSIGNMENT((#176));
#80=EDGE_CURVE('Unnamed[1]',#177,#177,#178,.T.);
#81=PRESENTATION_STYLE_ASSIGNMENT((#179));
#82=EDGE_CURVE('Unnamed[1]',#180,#180,#181,.T.);
#83=PRESENTATION_STYLE_ASSIGNMENT((#182));
#84=PRESENTATION_STYLE_ASSIGNMENT((#183));
#85=ADVANCED_FACE('Unnamed[1]',(#184,#185),#186,.T.);
#86=PRESENTATION_STYLE_ASSIGNMENT((#187));
#87=EDGE_CURVE('Unnamed[1]',#188,#188,#189,.T.);
#88=PRESENTATION_STYLE_ASSIGNMENT((#190));
#89=EDGE_CURVE('Unnamed[1]',#191,#191,#192,.T.);
#90=PRESENTATION_STYLE_ASSIGNMENT((#193));
#91=PRESENTATION_STYLE_ASSIGNMENT((#194));
#92=ADVANCED_FACE('Unnamed[1]',(#195,#196),#197,.T.);
#93=PRESENTATION_STYLE_ASSIGNMENT((#198));
#94=EDGE_CURVE('Unnamed[1]',#199,#199,#200,.T.);
#95=PRESENTATION_STYLE_ASSIGNMENT((#201));
#96=EDGE_CURVE('Unnamed[1]',#202,#202,#203,.T.);
#97=PRESENTATION_STYLE_ASSIGNMENT((#204));
#98=EDGE_CURVE('Unnamed[1]',#205,#205,#206,.T.);
#99=PRESENTATION_STYLE_ASSIGNMENT((#207));
#100=PRESENTATION_STYLE_ASSIGNMENT((#208));
#101=ADVANCED_FACE('Unnamed[1]',(#209,#210),#211,.T.);
#102=PRESENTATION_STYLE_ASSIGNMENT((#212));
#103=PRESENTATION_STYLE_ASSIGNMENT((#213));
#104=ADVANCED_FACE('Unnamed[1]',(#214,#215),#216,.T.);
#105=PRESENTATION_STYLE_ASSIGNMENT((#217));
#106=PRESENTATION_STYLE_ASSIGNMENT((#218));
#107=ADVANCED_FACE('Unnamed[1]',(#219,#220),#221,.T.);
#108=PRESENTATION_STYLE_ASSIGNMENT((#222));
#109=EDGE_CURVE('Unnamed[1]',#223,#223,#224,.T.);
#110=PRESENTATION_STYLE_ASSIGNMENT((#225));
#111=EDGE_CURVE('Unnamed[1]',#226,#226,#227,.T.);
#112=PRESENTATION_STYLE_ASSIGNMENT((#228));
#113=PRESENTATION_STYLE_ASSIGNMENT((#229));
#114=ADVANCED_FACE('Unnamed[1]',(#230,#231),#232,.T.);
#115=PRODUCT('Unnamed[1]','Unnamed[1]','PART-Unnamed[1]-DESC',(#233));
#116=PRODUCT_DEFINITION('NONE','NONE',#234,#2);
#117=AXIS2_PLACEMENT_3D('',#235,#236,#237);
#120=LENGTH_MEASURE_WITH_UNIT(LENGTH_MEASURE(1.0),#238);
#123=DIMENSIONAL_EXPONENTS(1.0,0.0,0.0,0.0,0.0,0.0,0.0);
#125=DIMENSIONAL_EXPONENTS(0.0,0.0,0.0,0.0,0.0,0.0,0.0);
#131=SURFACE_STYLE_USAGE(.BOTH.,#239);
#132=CURVE_STYLE('',#240,POSITIVE_LENGTH_MEASURE(1000.0),#241);
#133=FACE_BOUND('',#242,.T.);
#134=FACE_BOUND('',#243,.T.);
#135=CYLINDRICAL_SURFACE('',#244,26.5);
#136=SURFACE_STYLE_USAGE(.BOTH.,#245);
#137=CURVE_STYLE('',#246,POSITIVE_LENGTH_MEASURE(1000.0),#247);
#138=FACE_BOUND('',#248,.T.);
#139=FACE_BOUND('',#249,.T.);
#140=CONICAL_SURFACE('',#250,29.0,1.04719755058882);
#141=CURVE_STYLE('',#251,POSITIVE_LENGTH_MEASURE(1000.0),#252);
#142=VERTEX_POINT('',#253);
#143=CIRCLE('',#254,12.6875000053197);
#144=SURFACE_STYLE_USAGE(.BOTH.,#255);
#145=CURVE_STYLE('',#256,POSITIVE_LENGTH_MEASURE(1000.0),#257);
#146=CLOSED_SHELL('',(#75,#114,#92,#85,#69,#54,#51,#101,#72,#104,#66,#107,#78));
#147=CURVE_STYLE('',#258,POSITIVE_LENGTH_MEASURE(1000.0),#259);
#148=VERTEX_POINT('',#260);
#149=CIRCLE('',#261,26.5);
#150=CURVE_STYLE('',#262,POSITIVE_LENGTH_MEASURE(1000.0),#263);
#151=VERTEX_POINT('',#264);
#152=CIRCLE('',#265,25.0);
#153=SURFACE_STYLE_USAGE(.BOTH.,#266);
#154=CURVE_STYLE('',#267,POSITIVE_LENGTH_MEASURE(1000.0),#268);
#155=FACE_BOUND('',#269,.T.);
#156=FACE_BOUND('',#270,.T.);
#157=CONICAL_SURFACE('',#271,25.5,0.785398163397448);
#158=SURFACE_STYLE_USAGE(.BOTH.,#272);
#159=CURVE_STYLE('',#273,POSITIVE_LENGTH_MEASURE(1000.0),#274);
#160=FACE_BOUND('',#275,.T.);
#161=FACE_BOUND('',#276,.T.);
#162=CYLINDRICAL_SURFACE('',#277,31.5);
#163=SURFACE_STYLE_USAGE(.BOTH.,#278);
#164=CURVE_STYLE('',#279,POSITIVE_LENGTH_MEASURE(1000.0),#280);
#165=FACE_BOUND('',#281,.T.);
#166=FACE_BOUND('',#282,.T.);
#167=CYLINDRICAL_SURFACE('',#283,31.5);
#168=SURFACE_STYLE_USAGE(.BOTH.,#284);
#169=CURVE_STYLE('',#285,POSITIVE_LENGTH_MEASURE(1000.0),#286);
#170=FACE_OUTER_BOUND('',#287,.T.);
#171=PLANE('',#288);
#172=SURFACE_STYLE_USAGE(.BOTH.,#289);
#173=CURVE_STYLE('',#290,POSITIVE_LENGTH_MEASURE(1000.0),#291);
#174=FACE_OUTER_BOUND('',#292,.T.);
#175=PLANE('',#293);
#176=CURVE_STYLE('',#294,POSITIVE_LENGTH_MEASURE(1000.0),#295);
#177=VERTEX_POINT('',#296);
#178=CIRCLE('',#297,31.5);
#179=CURVE_STYLE('',#298,POSITIVE_LENGTH_MEASURE(1000.0),#299);
#180=VERTEX_POINT('',#300);
#181=CIRCLE('',#301,26.0);
#182=SURFACE_STYLE_USAGE(.BOTH.,#302);
#183=CURVE_STYLE('',#303,POSITIVE_LENGTH_MEASURE(1000.0),#304);
#184=FACE_OUTER_BOUND('',#305,.T.);
#185=FACE_BOUND('',#306,.T.);
#186=PLANE('',#307);
#187=CURVE_STYLE('',#308,POSITIVE_LENGTH_MEASURE(1000.0),#309);
#188=VERTEX_POINT('',#310);
#189=CIRCLE('',#311,26.5);
#190=CURVE_STYLE('',#312,POSITIVE_LENGTH_MEASURE(1000.0),#313);
#191=VERTEX_POINT('',#314);
#192=CIRCLE('',#315,22.225);
#193=SURFACE_STYLE_USAGE(.BOTH.,#316);
#194=CURVE_STYLE('',#317,POSITIVE_LENGTH_MEASURE(1000.0),#318);
#195=FACE_BOUND('',#319,.T.);
#196=FACE_BOUND('',#320,.T.);
#197=CYLINDRICAL_SURFACE('',#321,22.225);
#198=CURVE_STYLE('',#322,POSITIVE_LENGTH_MEASURE(1000.0),#323);
#199=VERTEX_POINT('',#324);
#200=CIRCLE('',#325,31.5);
#201=CURVE_STYLE('',#326,POSITIVE_LENGTH_MEASURE(1000.0),#327);
#202=VERTEX_POINT('',#328);
#203=CIRCLE('',#329,31.5);
#204=CURVE_STYLE('',#330,POSITIVE_LENGTH_MEASURE(1000.0),#331);
#205=VERTEX_POINT('',#332);
#206=CIRCLE('',#333,25.0);
#207=SURFACE_STYLE_USAGE(.BOTH.,#334);
#208=CURVE_STYLE('',#335,POSITIVE_LENGTH_MEASURE(1000.0),#336);
#209=FACE_BOUND('',#337,.T.);
#210=FACE_BOUND('',#338,.T.);
#211=CONICAL_SURFACE('',#339,29.0,1.04719755058882);
#212=SURFACE_STYLE_USAGE(.BOTH.,#340);
#213=CURVE_STYLE('',#341,POSITIVE_LENGTH_MEASURE(1000.0),#342);
#214=FACE_BOUND('',#343,.T.);
#215=FACE_OUTER_BOUND('',#344,.T.);
#216=PLANE('',#345);
#217=SURFACE_STYLE_USAGE(.BOTH.,#346);
#218=CURVE_STYLE('',#347,POSITIVE_LENGTH_MEASURE(1000.0),#348);
#219=FACE_BOUND('',#349,.T.);
#220=FACE_BOUND('',#350,.T.);
#221=CYLINDRICAL_SURFACE('',#351,25.0);
#222=CURVE_STYLE('',#352,POSITIVE_LENGTH_MEASURE(1000.0),#353);
#223=VERTEX_POINT('',#354);
#224=CIRCLE('',#355,22.225);
#225=CURVE_STYLE('',#356,POSITIVE_LENGTH_MEASURE(1000.0),#357);
#226=VERTEX_POINT('',#358);
#227=CIRCLE('',#359,31.5);
#228=SURFACE_STYLE_USAGE(.BOTH.,#360);
#229=CURVE_STYLE('',#361,POSITIVE_LENGTH_MEASURE(1000.0),#362);
#230=FACE_BOUND('',#363,.T.);
#231=FACE_BOUND('',#364,.T.);
#232=CONICAL_SURFACE('',#365,17.4562500026599,0.144812498159292);
#233=PRODUCT_CONTEXT('',#36,'mechanical');
#234=PRODUCT_DEFINITION_FORMATION_WITH_SPECIFIED_SOURCE(' ','NONE',#115,.NOT_KNOWN.);
#235=CARTESIAN_POINT('',(0.0,0.0,0.0));
#236=DIRECTION('',(0.0,0.0,1.0));
#237=DIRECTION('',(1.0,0.0,0.0));
#238= (NAMED_UNIT(#123)LENGTH_UNIT()SI_UNIT(.MILLI.,.METRE.));
#239=SURFACE_SIDE_STYLE('',(#367));
#240=DRAUGHTING_PRE_DEFINED_CURVE_FONT('continuous');
#241=COLOUR_RGB('',0.0,1.0,0.0);
#242=EDGE_LOOP('',(#368));
#243=EDGE_LOOP('',(#369));
#244=AXIS2_PLACEMENT_3D('',#370,#371,#372);
#245=SURFACE_SIDE_STYLE('',(#373));
#246=DRAUGHTING_PRE_DEFINED_CURVE_FONT('continuous');
#247=COLOUR_RGB('',0.0,1.0,0.0);
#248=EDGE_LOOP('',(#374));
#249=EDGE_LOOP('',(#375));
#250=AXIS2_PLACEMENT_3D('',#376,#377,#378);
#251=DRAUGHTING_PRE_DEFINED_CURVE_FONT('continuous');
#252=COLOUR_RGB('',0.0,1.0,0.0);
#253=CARTESIAN_POINT('',(-4.00459503321185E-015,12.6875000053197,65.4));
#254=AXIS2_PLACEMENT_3D('',#379,#380,#381);
#255=SURFACE_SIDE_STYLE('',(#382));
#256=DRAUGHTING_PRE_DEFINED_CURVE_FONT('continuous');
#257=COLOUR_RGB('',0.0,1.0,0.0);
#258=DRAUGHTING_PRE_DEFINED_CURVE_FONT('continuous');
#259=COLOUR_RGB('',0.0,1.0,0.0);
#260=CARTESIAN_POINT('',(1.14585600304355E-015,26.5,-18.71324865));
#261=AXIS2_PLACEMENT_3D('',#383,#384,#385);
#262=DRAUGHTING_PRE_DEFINED_CURVE_FONT('continuous');
#263=COLOUR_RGB('',0.0,1.0,0.0);
#264=CARTESIAN_POINT('',(1.71450551880629E-015,25.0,-28.0));
#265=AXIS2_PLACEMENT_3D('',#386,#387,#388);
#266=SURFACE_SIDE_STYLE('',(#389));
#267=DRAUGHTING_PRE_DEFINED_CURVE_FONT('continuous');
#268=COLOUR_RGB('',0.0,1.0,0.0);
#269=EDGE_LOOP('',(#390));
#270=EDGE_LOOP('',(#391));
#271=AXIS2_PLACEMENT_3D('',#392,#393,#394);
#272=SURFACE_SIDE_STYLE('',(#395));
#273=DRAUGHTING_PRE_DEFINED_CURVE_FONT('continuous');
#274=COLOUR_RGB('',0.0,1.0,0.0);
#275=EDGE_LOOP('',(#396));
#276=EDGE_LOOP('',(#397));
#277=AXIS2_PLACEMENT_3D('',#398,#399,#400);
#278=SURFACE_SIDE_STYLE('',(#401));
#279=DRAUGHTING_PRE_DEFINED_CURVE_FONT('continuous');
#280=COLOUR_RGB('',0.0,1.0,0.0);
#281=EDGE_LOOP('',(#402));
#282=EDGE_LOOP('',(#403));
#283=AXIS2_PLACEMENT_3D('',#404,#405,#406);
#284=SURFACE_SIDE_STYLE('',(#407));
#285=DRAUGHTING_PRE_DEFINED_CURVE_FONT('continuous');
#286=COLOUR_RGB('',0.0,1.0,0.0);
#287=EDGE_LOOP('',(#408));
#288=AXIS2_PLACEMENT_3D('',#409,#410,#411);
#289=SURFACE_SIDE_STYLE('',(#412));
#290=DRAUGHTING_PRE_DEFINED_CURVE_FONT('continuous');
#291=COLOUR_RGB('',0.0,1.0,0.0);
#292=EDGE_LOOP('',(#413));
#293=AXIS2_PLACEMENT_3D('',#414,#415,#416);
#294=DRAUGHTING_PRE_DEFINED_CURVE_FONT('continuous');
#295=COLOUR_RGB('',0.0,1.0,0.0);
#296=CARTESIAN_POINT('',(1.32261854307914E-015,31.5,-21.6));
#297=AXIS2_PLACEMENT_3D('',#417,#418,#419);
#298=DRAUGHTING_PRE_DEFINED_CURVE_FONT('continuous');
#299=COLOUR_RGB('',0.0,1.0,0.0);
#300=CARTESIAN_POINT('',(1.65327317884893E-015,26.0,-27.0));
#301=AXIS2_PLACEMENT_3D('',#420,#421,#422);
#302=SURFACE_SIDE_STYLE('',(#423));
#303=DRAUGHTING_PRE_DEFINED_CURVE_FONT('continuous');
#304=COLOUR_RGB('',0.0,1.0,0.0);
#305=EDGE_LOOP('',(#424));
#306=EDGE_LOOP('',(#425));
#307=AXIS2_PLACEMENT_3D('',#426,#427,#428);
#308=DRAUGHTING_PRE_DEFINED_CURVE_FONT('continuous');
#309=COLOUR_RGB('',0.0,1.0,0.0);
#310=CARTESIAN_POINT('',(8.87057683541055E-016,26.5,-14.48675135));
#311=AXIS2_PLACEMENT_3D('',#429,#430,#431);
#312=DRAUGHTING_PRE_DEFINED_CURVE_FONT('continuous');
#313=COLOUR_RGB('',0.0,1.0,0.0);
#314=CARTESIAN_POINT('',(-2.7394427528964E-031,22.225,2.72177751110499E-015));
#315=AXIS2_PLACEMENT_3D('',#432,#433,#434);
#316=SURFACE_SIDE_STYLE('',(#435));
#317=DRAUGHTING_PRE_DEFINED_CURVE_FONT('continuous');
#318=COLOUR_RGB('',0.0,1.0,0.0);
#319=EDGE_LOOP('',(#436));
#320=EDGE_LOOP('',(#437));
#321=AXIS2_PLACEMENT_3D('',#438,#439,#440);
#322=DRAUGHTING_PRE_DEFINED_CURVE_FONT('continuous');
#323=COLOUR_RGB('',0.0,1.0,0.0);
#324=CARTESIAN_POINT('',(7.10295143505464E-016,31.5,-11.6));
#325=AXIS2_PLACEMENT_3D('',#441,#442,#443);
#326=DRAUGHTING_PRE_DEFINED_CURVE_FONT('continuous');
#327=COLOUR_RGB('',0.0,1.0,0.0);
#328=CARTESIAN_POINT('',(6.12323399573673E-017,31.5,-0.999999999999996));
#329=AXIS2_PLACEMENT_3D('',#444,#445,#446);
#330=DRAUGHTING_PRE_DEFINED_CURVE_FONT('continuous');
#331=COLOUR_RGB('',0.0,1.0,0.0);
#332=CARTESIAN_POINT('',(2.14313189850787E-014,25.0,-350.0));
#333=AXIS2_PLACEMENT_3D('',#447,#448,#449);
#334=SURFACE_SIDE_STYLE('',(#450));
#335=DRAUGHTING_PRE_DEFINED_CURVE_FONT('continuous');
#336=COLOUR_RGB('',0.0,1.0,0.0);
#337=EDGE_LOOP('',(#451));
#338=EDGE_LOOP('',(#452));
#339=AXIS2_PLACEMENT_3D('',#453,#454,#455);
#340=SURFACE_SIDE_STYLE('',(#456));
#341=DRAUGHTING_PRE_DEFINED_CURVE_FONT('continuous');
#342=COLOUR_RGB('',0.0,1.0,0.0);
#343=EDGE_LOOP('',(#457));
#344=EDGE_LOOP('',(#458));
#345=AXIS2_PLACEMENT_3D('',#459,#460,#461);
#346=SURFACE_SIDE_STYLE('',(#462));
#347=DRAUGHTING_PRE_DEFINED_CURVE_FONT('continuous');
#348=COLOUR_RGB('',0.0,1.0,0.0);
#349=EDGE_LOOP('',(#463));
#350=EDGE_LOOP('',(#464));
#351=AXIS2_PLACEMENT_3D('',#465,#466,#467);
#352=DRAUGHTING_PRE_DEFINED_CURVE_FONT('continuous');
#353=COLOUR_RGB('',0.0,1.0,0.0);
#354=CARTESIAN_POINT('',(6.12323399573674E-017,22.225,-0.999999999999997));
#355=AXIS2_PLACEMENT_3D('',#468,#469,#470);
#356=DRAUGHTING_PRE_DEFINED_CURVE_FONT('continuous');
#357=COLOUR_RGB('',0.0,1.0,0.0);
#358=CARTESIAN_POINT('',(1.65327317884893E-015,31.5,-27.0));
#359=AXIS2_PLACEMENT_3D('',#471,#472,#473);
#360=SURFACE_SIDE_STYLE('',(#474));
#361=DRAUGHTING_PRE_DEFINED_CURVE_FONT('continuous');
#362=COLOUR_RGB('',0.0,1.0,0.0);
#363=EDGE_LOOP('',(#475));
#364=EDGE_LOOP('',(#476));
#365=AXIS2_PLACEMENT_3D('',#477,#478,#479);
#367=SURFACE_STYLE_FILL_AREA(#480);
#368=ORIENTED_EDGE('',*,*,#61,.F.);
#369=ORIENTED_EDGE('',*,*,#87,.T.);
#370=CARTESIAN_POINT('',(1.0164568432923E-015,2.03291368658461E-015,-16.6));
#371=DIRECTION('',(6.12323399573677E-017,1.22464679914735E-016,-1.0));
#372=DIRECTION('',(-1.23259516440783E-032,1.0,1.22464679914735E-016));
#373=SURFACE_STYLE_FILL_AREA(#481);
#374=ORIENTED_EDGE('',*,*,#87,.F.);
#375=ORIENTED_EDGE('',*,*,#94,.T.);
#376=CARTESIAN_POINT('',(7.98676413523259E-016,1.59735282704652E-015,-13.043375675));
#377=DIRECTION('',(-6.12323399573677E-017,-1.22464679914735E-016,1.0));
#378=DIRECTION('',(-1.23259516440783E-032,1.0,1.22464679914735E-016));
#379=CARTESIAN_POINT('',(-4.00459503321184E-015,-8.00919006642369E-015,65.4));
#380=DIRECTION('',(6.12323399573677E-017,1.22464679914735E-016,-1.0));
#381=DIRECTION('',(-1.23259516440783E-032,1.0,1.22464679914735E-016));
#382=SURFACE_STYLE_FILL_AREA(#482);
#383=CARTESIAN_POINT('',(1.14585600304355E-015,2.29171200608711E-015,-18.71324865));
#384=DIRECTION('',(6.12323399573677E-017,1.22464679914735E-016,-1.0));
#385=DIRECTION('',(-1.23259516440783E-032,1.0,1.22464679914735E-016));
#386=CARTESIAN_POINT('',(1.71450551880629E-015,3.42901103761259E-015,-28.0));
#387=DIRECTION('',(6.12323399573677E-017,1.22464679914735E-016,-1.0));
#388=DIRECTION('',(-1.23259516440783E-032,1.0,1.22464679914735E-016));
#389=SURFACE_STYLE_FILL_AREA(#483);
#390=ORIENTED_EDGE('',*,*,#63,.F.);
#391=ORIENTED_EDGE('',*,*,#82,.T.);
#392=CARTESIAN_POINT('',(1.68388934882761E-015,3.36777869765522E-015,-27.5));
#393=DIRECTION('',(-6.12323399573677E-017,-1.22464679914735E-016,1.0));
#394=DIRECTION('',(-1.23259516440783E-032,1.0,1.22464679914735E-016));
#395=SURFACE_STYLE_FILL_AREA(#484);
#396=ORIENTED_EDGE('',*,*,#94,.F.);
#397=ORIENTED_EDGE('',*,*,#96,.T.);
#398=CARTESIAN_POINT('',(3.85763741731417E-016,7.71527483462834E-016,-6.30000000000001));
#399=DIRECTION('',(6.12323399573677E-017,1.22464679914735E-016,-1.0));
#400=DIRECTION('',(-1.23259516440783E-032,1.0,1.22464679914735E-016));
#401=SURFACE_STYLE_FILL_AREA(#485);
#402=ORIENTED_EDGE('',*,*,#111,.F.);
#403=ORIENTED_EDGE('',*,*,#80,.T.);
#404=CARTESIAN_POINT('',(1.48794586096403E-015,2.97589172192807E-015,-24.3));
#405=DIRECTION('',(6.12323399573677E-017,1.22464679914735E-016,-1.0));
#406=DIRECTION('',(-1.23259516440783E-032,1.0,1.22464679914735E-016));
#407=SURFACE_STYLE_FILL_AREA(#486);
#408=ORIENTED_EDGE('',*,*,#56,.F.);
#409=CARTESIAN_POINT('',(-4.00459503321185E-015,6.34375000265984,65.4));
#410=DIRECTION('',(-6.12323399573677E-017,-1.22464679914735E-016,1.0));
#411=DIRECTION('',(1.23259516440783E-032,-1.0,-1.22464679914735E-016));
#412=SURFACE_STYLE_FILL_AREA(#487);
#413=ORIENTED_EDGE('',*,*,#98,.T.);
#414=CARTESIAN_POINT('',(2.14313189850787E-014,12.5,-350.0));
#415=DIRECTION('',(6.12323399573677E-017,2.39620143434706E-015,-1.0));
#416=DIRECTION('',(-1.5155217356504E-031,1.0,2.39620143434706E-015));
#417=CARTESIAN_POINT('',(1.32261854307914E-015,2.64523708615829E-015,-21.6));
#418=DIRECTION('',(6.12323399573677E-017,1.22464679914735E-016,-1.0));
#419=DIRECTION('',(-1.23259516440783E-032,1.0,1.22464679914735E-016));
#420=CARTESIAN_POINT('',(1.65327317884893E-015,3.30654635769785E-015,-27.0));
#421=DIRECTION('',(6.12323399573677E-017,1.22464679914735E-016,-1.0));
#422=DIRECTION('',(-1.23259516440783E-032,1.0,1.22464679914735E-016));
#423=SURFACE_STYLE_FILL_AREA(#488);
#424=ORIENTED_EDGE('',*,*,#96,.F.);
#425=ORIENTED_EDGE('',*,*,#109,.T.);
#426=CARTESIAN_POINT('',(6.12323399573673E-017,26.8625,-0.999999999999997));
#427=DIRECTION('',(-6.12323399573677E-017,-1.22464679914735E-016,1.0));
#428=DIRECTION('',(1.23259516440783E-032,-1.0,-1.22464679914735E-016));
#429=CARTESIAN_POINT('',(8.87057683541056E-016,1.77411536708211E-015,-14.48675135));
#430=DIRECTION('',(6.12323399573677E-017,1.22464679914735E-016,-1.0));
#431=DIRECTION('',(-1.23259516440783E-032,1.0,1.22464679914735E-016));
#432=CARTESIAN_POINT('',(0.0,0.0,0.0));
#433=DIRECTION('',(6.12323399573677E-017,1.22464679914735E-016,-1.0));
#434=DIRECTION('',(-1.23259516440783E-032,1.0,1.22464679914735E-016));
#435=SURFACE_STYLE_FILL_AREA(#489);
#436=ORIENTED_EDGE('',*,*,#109,.F.);
#437=ORIENTED_EDGE('',*,*,#89,.T.);
#438=CARTESIAN_POINT('',(3.06161699786838E-017,6.12323399573676E-017,-0.5));
#439=DIRECTION('',(6.12323399573677E-017,1.22464679914735E-016,-1.0));
#440=DIRECTION('',(-1.23259516440783E-032,1.0,1.22464679914735E-016));
#441=CARTESIAN_POINT('',(7.10295143505466E-016,1.42059028701093E-015,-11.6));
#442=DIRECTION('',(6.12323399573677E-017,1.22464679914735E-016,-1.0));
#443=DIRECTION('',(-1.23259516440783E-032,1.0,1.22464679914735E-016));
#444=CARTESIAN_POINT('',(6.12323399573677E-017,1.22464679914735E-016,-1.0));
#445=DIRECTION('',(6.12323399573677E-017,1.22464679914735E-016,-1.0));
#446=DIRECTION('',(-1.23259516440783E-032,1.0,1.22464679914735E-016));
#447=CARTESIAN_POINT('',(2.14313189850787E-014,4.28626379701573E-014,-350.0));
#448=DIRECTION('',(6.12323399573677E-017,1.22464679914735E-016,-1.0));
#449=DIRECTION('',(-1.23259516440783E-032,1.0,1.22464679914735E-016));
#450=SURFACE_STYLE_FILL_AREA(#490);
#451=ORIENTED_EDGE('',*,*,#80,.F.);
#452=ORIENTED_EDGE('',*,*,#61,.T.);
#453=CARTESIAN_POINT('',(1.23423727306135E-015,2.46847454612269E-015,-20.156624325));
#454=DIRECTION('',(6.12323399573677E-017,1.22464679914735E-016,-1.0));
#455=DIRECTION('',(-1.23259516440783E-032,1.0,1.22464679914735E-016));
#456=SURFACE_STYLE_FILL_AREA(#491);
#457=ORIENTED_EDGE('',*,*,#82,.F.);
#458=ORIENTED_EDGE('',*,*,#111,.T.);
#459=CARTESIAN_POINT('',(1.65327317884893E-015,28.75,-27.0));
#460=DIRECTION('',(6.12323399573677E-017,1.22464679914735E-016,-1.0));
#461=DIRECTION('',(-1.23259516440783E-032,1.0,1.22464679914735E-016));
#462=SURFACE_STYLE_FILL_AREA(#492);
#463=ORIENTED_EDGE('',*,*,#98,.F.);
#464=ORIENTED_EDGE('',*,*,#63,.T.);
#465=CARTESIAN_POINT('',(1.15729122519425E-014,2.3145824503885E-014,-189.0));
#466=DIRECTION('',(6.12323399573677E-017,1.22464679914735E-016,-1.0));
#467=DIRECTION('',(-1.23259516440783E-032,1.0,1.22464679914735E-016));
#468=CARTESIAN_POINT('',(6.12323399573677E-017,1.22464679914735E-016,-1.0));
#469=DIRECTION('',(6.12323399573677E-017,1.22464679914735E-016,-1.0));
#470=DIRECTION('',(-1.23259516440783E-032,1.0,1.22464679914735E-016));
#471=CARTESIAN_POINT('',(1.65327317884893E-015,3.30654635769785E-015,-27.0));
#472=DIRECTION('',(6.12323399573677E-017,1.22464679914735E-016,-1.0));
#473=DIRECTION('',(-1.23259516440783E-032,1.0,1.22464679914735E-016));
#474=SURFACE_STYLE_FILL_AREA(#493);
#475=ORIENTED_EDGE('',*,*,#89,.F.);
#476=ORIENTED_EDGE('',*,*,#56,.T.);
#477=CARTESIAN_POINT('',(-2.00229751660592E-015,-4.00459503321184E-015,32.7));
#478=DIRECTION('',(6.12323399573677E-017,1.22464679914735E-016,-1.0));
#479=DIRECTION('',(-1.23259516440783E-032,1.0,1.22464679914735E-016));
#480=FILL_AREA_STYLE('',(#494));
#481=FILL_AREA_STYLE('',(#495));
#482=FILL_AREA_STYLE('',(#496));
#483=FILL_AREA_STYLE('',(#497));
#484=FILL_AREA_STYLE('',(#498));
#485=FILL_AREA_STYLE('',(#499));
#486=FILL_AREA_STYLE('',(#500));
#487=FILL_AREA_STYLE('',(#501));
#488=FILL_AREA_STYLE('',(#502));
#489=FILL_AREA_STYLE('',(#503));
#490=FILL_AREA_STYLE('',(#504));
#491=FILL_AREA_STYLE('',(#505));
#492=FILL_AREA_STYLE('',(#506));
#493=FILL_AREA_STYLE('',(#507));
#494=FILL_AREA_STYLE_COLOUR('',#508);
#495=FILL_AREA_STYLE_COLOUR('',#509);
#496=FILL_AREA_STYLE_COLOUR('',#510);
#497=FILL_AREA_STYLE_COLOUR('',#511);
#498=FILL_AREA_STYLE_COLOUR('',#512);
#499=FILL_AREA_STYLE_COLOUR('',#513);
#500=FILL_AREA_STYLE_COLOUR('',#514);
#501=FILL_AREA_STYLE_COLOUR('',#515);
#502=FILL_AREA_STYLE_COLOUR('',#516);
#503=FILL_AREA_STYLE_COLOUR('',#517);
#504=FILL_AREA_STYLE_COLOUR('',#518);
#505=FILL_AREA_STYLE_COLOUR('',#519);
#506=FILL_AREA_STYLE_COLOUR('',#520);
#507=FILL_AREA_STYLE_COLOUR('',#521);
#508=COLOUR_RGB('',0.0,1.0,0.0);
#509=COLOUR_RGB('',0.0,1.0,0.0);
#510=COLOUR_RGB('',0.0,1.0,0.0);
#511=COLOUR_RGB('',0.0,1.0,0.0);
#512=COLOUR_RGB('',0.0,1.0,0.0);
#513=COLOUR_RGB('',0.0,1.0,0.0);
#514=COLOUR_RGB('',0.0,1.0,0.0);
#515=COLOUR_RGB('',0.0,1.0,0.0);
#516=COLOUR_RGB('',0.0,1.0,0.0);
#517=COLOUR_RGB('',0.0,1.0,0.0);
#518=COLOUR_RGB('',0.0,1.0,0.0);
#519=COLOUR_RGB('',0.0,1.0,0.0);
#520=COLOUR_RGB('',0.0,1.0,0.0);
#521=COLOUR_RGB('',0.0,1.0,0.0);
ENDSEC;
END-ISO-10303-21;
