  0
SECTION
  2
HEADER
  9
$ACADVER
  1
AC1009
  9
$INSBASE
 10
0.0
 20
0.0
 30
0.0
  9
$EXTMIN
 10
-61.034253859646633
 20
-11.92225881136414
 30
0.0
  9
$EXTMAX
 10
9.1423297069020464
 20
40.0
 30
0.0
  9
$LIMMIN
 10
0.0
 20
0.0
  9
$LIMMAX
 10
297.0
 20
210.0
  9
$ORTHOMODE
 70
     0
  9
$REGENMODE
 70
     1
  9
$FILLMODE
 70
     1
  9
$QTEXTMODE
 70
     0
  9
$MIRRTEXT
 70
     1
  9
$DRAGMODE
 70
     2
  9
$LTSCALE
 40
10.0
  9
$OSMODE
 70
    45
  9
$ATTMODE
 70
     1
  9
$TEXTSIZE
 40
3.0
  9
$TRACEWID
 40
1.0
  9
$TEXTSTYLE
  7
YOKO
  9
$CLAYER
  8
240
  9
$CELTYPE
  6
BYLAYER
  9
$CECOLOR
 62
   256
  9
$DIMSCALE
 40
1.0
  9
$DIMASZ
 40
2.2299999999999991
  9
$DIMEXO
 40
0.5
  9
$DIMDLI
 40
7.0
  9
$DIMRND
 40
0.0
  9
$DIMDLE
 40
0.0
  9
$DIMEXE
 40
1.0
  9
$DIMTP
 40
0.0
  9
$DIMTM
 40
0.01
  9
$DIMTXT
 40
2.799999999999998
  9
$DIMCEN
 40
0.0
  9
$DIMTSZ
 40
0.0
  9
$DIMTOL
 70
     0
  9
$DIMLIM
 70
     0
  9
$DIMTIH
 70
     0
  9
$DIMTOH
 70
     0
  9
$DIMSE1
 70
     0
  9
$DIMSE2
 70
     0
  9
$DIMTAD
 70
     3
  9
$DIMZIN
 70
     9
  9
$DIMBLK
  1
OPEN
  9
$DIMASO
 70
     1
  9
$DIMSHO
 70
     1
  9
$DIMPOST
  1

  9
$DIMAPOST
  1

  9
$DIMALT
 70
     0
  9
$DIMALTD
 70
     2
  9
$DIMALTF
 40
25.399999999999999
  9
$DIMLFAC
 40
1.0
  9
$DIMTOFL
 70
     1
  9
$DIMTVP
 40
0.0
  9
$DIMTIX
 70
     1
  9
$DIMSOXD
 70
     0
  9
$DIMSAH
 70
     0
  9
$DIMBLK1
  1

  9
$DIMBLK2
  1

  9
$DIMSTYLE
  2
BIGT
  9
$DIMCLRD
 70
   256
  9
$DIMCLRE
 70
   256
  9
$DIMCLRT
 70
    40
  9
$DIMTFAC
 40
1.0
  9
$DIMGAP
 40
1.0
  9
$LUNITS
 70
     2
  9
$LUPREC
 70
     3
  9
$SKETCHINC
 40
1.0
  9
$FILLETRAD
 40
0.0
  9
$AUNITS
 70
     0
  9
$AUPREC
 70
     3
  9
$MENU
  1
.
  9
$ELEVATION
 40
0.0
  9
$PELEVATION
 40
0.0
  9
$THICKNESS
 40
0.0
  9
$LIMCHECK
 70
     0
  9
$BLIPMODE
 70
     0
  9
$CHAMFERA
 40
0.25
  9
$CHAMFERB
 40
0.25
  9
$SKPOLY
 70
     0
  9
$TDCREATE
 40
2454805.4797781021
  9
$TDUPDATE
 40
2457856.7571634031
  9
$TDINDWG
 40
0.0561640509
  9
$TDUSRTIMER
 40
0.0561638426
  9
$USRTIMER
 70
     1
  9
$ANGBASE
 50
0.0
  9
$ANGDIR
 70
     0
  9
$PDMODE
 70
     1
  9
$PDSIZE
 40
0.0
  9
$PLINEWID
 40
0.0
  9
$COORDS
 70
     1
  9
$SPLFRAME
 70
     0
  9
$SPLINETYPE
 70
     6
  9
$SPLINESEGS
 70
     4
  9
$ATTDIA
 70
     1
  9
$ATTREQ
 70
     1
  9
$HANDLING
 70
     1
  9
$HANDSEED
  5
1962
  9
$SURFTAB1
 70
     6
  9
$SURFTAB2
 70
     6
  9
$SURFTYPE
 70
     6
  9
$SURFU
 70
     6
  9
$SURFV
 70
     6
  9
$UCSNAME
  2

  9
$UCSORG
 10
0.0
 20
0.0
 30
0.0
  9
$UCSXDIR
 10
1.0
 20
0.0
 30
0.0
  9
$UCSYDIR
 10
0.0
 20
1.0
 30
0.0
  9
$PUCSNAME
  2

  9
$PUCSORG
 10
0.0
 20
0.0
 30
0.0
  9
$PUCSXDIR
 10
1.0
 20
0.0
 30
0.0
  9
$PUCSYDIR
 10
0.0
 20
1.0
 30
0.0
  9
$USERI1
 70
     1
  9
$USERI2
 70
     0
  9
$USERI3
 70
     0
  9
$USERI4
 70
     0
  9
$USERI5
 70
     0
  9
$USERR1
 40
0.0
  9
$USERR2
 40
0.0
  9
$USERR3
 40
0.0
  9
$USERR4
 40
0.0
  9
$USERR5
 40
0.0
  9
$WORLDVIEW
 70
     1
  9
$SHADEDGE
 70
     3
  9
$SHADEDIF
 70
    70
  9
$TILEMODE
 70
     1
  9
$MAXACTVP
 70
    16
  9
$PLIMCHECK
 70
     0
  9
$PEXTMIN
 10
1.0000000000000000E+020
 20
1.0000000000000000E+020
 30
1.0000000000000000E+020
  9
$PEXTMAX
 10
-1.0000000000000000E+020
 20
-1.0000000000000000E+020
 30
-1.0000000000000000E+020
  9
$PLIMMIN
 10
0.0
 20
0.0
  9
$PLIMMAX
 10
420.0
 20
297.0
  9
$UNITMODE
 70
     0
  9
$VISRETAIN
 70
     1
  9
$PLINEGEN
 70
     0
  9
$PSLTSCALE
 70
     1
  0
ENDSEC
  0
SECTION
  2
TABLES
  0
TABLE
  2
VPORT
 70
     1
  0
VPORT
  2
*ACTIVE
 70
     0
 10
0.0
 20
0.0
 11
1.0
 21
1.0
 12
-24.722207512635851
 22
1.1554301038905019
 13
0.0
 23
0.0
 14
7.0
 24
7.0
 15
7.0
 25
7.0
 16
0.0
 26
0.0
 36
1.0
 17
0.0
 27
0.0
 37
0.0
 40
86.50432017995189
 41
1.6353340883352201
 42
50.0
 43
0.0
 44
0.0
 50
0.0
 51
0.0
 71
     0
 72
  2000
 73
     1
 74
     0
 75
     0
 76
     1
 77
     0
 78
     0
  0
ENDTAB
  0
TABLE
  2
LTYPE
 70
    22
  0
LTYPE
  2
CONTINUOUS
 70
     0
  3
Solid line
 72
    65
 73
     0
 40
0.0
  0
LTYPE
  2
CENTER2
 70
     0
  3
___ _ ___ _ ___ _ ___ _ ___ _ ___ _ ___ _ ___ _
 72
    65
 73
     4
 40
1.125
 49
0.75
 49
-0.125
 49
0.125
 49
-0.125
  0
LTYPE
  2
HIDDEN2
 70
     0
  3
_ _ _ _ _ _ _ _ _ _ _ _ _ _ _ _ _ _ _ _ _ _ _ _
 72
    65
 73
     2
 40
0.1875
 49
0.125
 49
-0.0625
  0
LTYPE
  2
PHANTOM2
 70
     0
  3
___ _ _ ___ _ _ ___ _ _ ___ _ _ ___ _ _ ___ _ _
 72
    65
 73
     6
 40
1.25
 49
0.625
 49
-0.125
 49
0.125
 49
-0.125
 49
0.125
 49
-0.125
  0
LTYPE
  2
CENTER
 70
     0
  3
____ _ ____ _ ____ _ ____ _ ____ _ ____ _ ____ 
 72
    65
 73
     4
 40
2.0
 49
1.25
 49
-0.25
 49
0.25
 49
-0.25
  0
LTYPE
  2
AMCONSTR
 70
     0
  3
_______________________
 72
    65
 73
     2
 40
9999.0
 49
9999.0
 49
0.0
  0
LTYPE
  2
HIDDEN
 70
     0
  3
Hidden __ __ __ __ __ __ __ __ __ __ __ __ __ _
 72
    65
 73
     2
 40
9.5249999999999986
 49
6.3499999999999979
 49
-3.174999999999998
  0
LTYPE
  2
ACANSTGB
 70
     0
  3
__ . . __ . .
 72
    65
 73
     6
 40
0.35433070866
 49
0.15748031496
 49
-0.03937007874
 49
0.03937007874
 49
-0.03937007874
 49
0.03937007874
 49
-0.03937007874
  0
LTYPE
  2
ACANSTGL
 70
     0
  3
_ _ _ _ _
 72
    65
 73
     2
 40
0.11811023622
 49
0.07874015748
 49
-0.03937007874
  0
LTYPE
  2
AMZIGZAG2
 70
     0
  3
/\/-/\/-/\/-/\/-/\/-/\/
 72
    65
 73
     2
 40
0.4401
 49
0.0001
 49
-0.4400000000000001
  0
ENDTAB
  0
TABLE
  2
LAYER
 70
    11
  0
LAYER
  2
0
 70
     0
 62
     7
  6
CONTINUOUS
  0
LAYER
  2
240
 70
     0
 62
     4
  6
CONTINUOUS
  0
LAYER
  2
DEFPOINTS
 70
     0
 62
     7
  6
CONTINUOUS
  0
LAYER
  2
245
 70
     0
 62
     2
  6
CENTER2
  0
LAYER
  2
241
 70
     0
 62
   211
  6
CONTINUOUS
  0
LAYER
  2
246
 70
     0
 62
     3
  6
PHANTOM2
  0
LAYER
  2
247
 70
     0
 62
    60
  6
CONTINUOUS
  0
LAYER
  2
250
 70
     0
 62
     3
  6
CONTINUOUS
  0
ENDTAB
  0
TABLE
  2
STYLE
 70
    10
  0
STYLE
  2
STANDARD
 70
     0
 40
0.0
 41
1.0
 50
0.0
 71
     0
 42
3.0
  3
romans.shx
  4
extfont.shx
  0
STYLE
  2
YOKO
 70
     0
 40
0.0
 41
1.0
 50
0.0
 71
     0
 42
3.0
  3
romans.shx
  4
extfont.shx
  0
STYLE
  2
ACJISTS
 70
     0
 40
1.0
 41
1.0
 50
0.0
 71
     0
 42
3.0
  3
amgdt.shx
  4
extfont.shx
  0
STYLE
  2
ACANSGDT
 70
     0
 40
0.0
 41
1.0
 50
0.0
 71
     0
 42
0.2
  3
amgdt.shx
  4

  0
STYLE
  2

 70
     1
 40
0.0
 41
1.0
 50
0.0
 71
     0
 42
3.0
  3
genltshp.shx
  4

  0
ENDTAB
  0
TABLE
  2
VIEW
 70
     0
  0
ENDTAB
  0
TABLE
  2
UCS
 70
     0
  0
ENDTAB
  0
TABLE
  2
APPID
 70
    34
  0
APPID
  2
ACAD
 70
     0
  0
APPID
  2
ACADANNOTATIVE
 70
     0
  0
APPID
  2
GLOBAL
 70
     0
  0
APPID
  2
DETAIL
 70
     0
  0
APPID
  2
GRPNAME
 70
     0
  0
APPID
  2
GPARA
 70
     0
  0
APPID
  2
MCAD_NO_VIS
 70
     0
  0
APPID
  2
ACAD_TEMP_GRAPHIC
 70
     0
  0
APPID
  2
ACATTRIBSERVICES
 70
     0
  0
APPID
  2
GENIUS_GENSCREG_15
 70
     0
  0
APPID
  2
GENIUS_GENODEF_13
 70
     0
  0
APPID
  2
GENIUS_GENOBJ-N-SDF_13
 70
     0
  0
APPID
  2
GENIUS_GENREC_14
 70
     0
  0
APPID
  2
GENIUS_GENOBJ-N-REC_13
 70
     0
  0
APPID
  2
GENIUS_GENDIMSH_14
 70
     0
  0
APPID
  2
GENIUS_GENOBJ-N-DIM_13
 70
     0
  0
APPID
  2
GENIUS_GENDIM_13
 70
     0
  0
APPID
  2
GENIUS_GENDTOL_13
 70
     0
  0
APPID
  2
GENIUS_GENOLIS_13
 70
     0
  0
APPID
  2
GENIUS_GENOENT_13
 70
     0
  0
APPID
  2
GENIUS_GENOBJ-F-FEM_13
 70
     0
  0
APPID
  2
GENIUS_GENOREF_13
 70
     0
  0
APPID
  2
GENIUS_GEFFEM_13
 70
     0
  0
APPID
  2
GENIUS_GEFFEMP_13
 70
     0
  0
APPID
  2
AD_DRAW
 70
     0
  0
APPID
  2
DESIGNERASSEMBLIES
 70
     0
  0
APPID
  2
ACADM_DIM_EDIT
 70
     0
  0
APPID
  2
AMDT_DM_ADJ
 70
     0
  0
APPID
  2
ACAD_DSTYLE_DIMBREAK
 70
     0
  0
APPID
  2
ACAD_DSTYLE_DIMJAG
 70
     0
  0
APPID
  2
ACAD_NAV_VCDISPLAY
 70
     0
  0
APPID
  2
GENIUS_GENOBJ-N-FIL_13
 70
     0
  0
APPID
  2
ACAECLAYERSTANDARD
 70
     0
  0
APPID
  2
ACAD_MLEADERVER
 70
     0
  0
ENDTAB
  0
TABLE
  2
DIMSTYLE
 70
    32
  0
DIMSTYLE
  2
STANDARD
 70
     0
  3

  4

  5

  6

  7

 40
1.0
 41
0.18
 42
0.0625
 43
0.38
 44
0.18
 45
0.0
 46
0.0
 47
0.0
 48
0.0
140
0.18
141
0.09
142
0.0
143
25.399999999999999
144
1.0
145
0.0
146
1.0
147
0.09
 71
     0
 72
     0
 73
     1
 74
     1
 75
     0
 76
     0
 77
     0
 78
     0
170
     0
171
     2
172
     0
173
     0
174
     0
175
     0
176
     0
177
     0
178
     0
  0
DIMSTYLE
  2
BIGT
 70
     0
  3

  4

  5

  6

  7

 40
1.0
 41
2.2299999999999991
 42
0.5
 43
7.0
 44
1.0
 45
0.0
 46
0.0
 47
0.0
 48
0.01
140
2.799999999999998
141
0.0
142
0.0
143
25.399999999999999
144
1.0
145
0.0
146
1.0
147
1.0
 71
     0
 72
     0
 73
     0
 74
     0
 75
     0
 76
     0
 77
     3
 78
     9
170
     0
171
     2
172
     1
173
     0
174
     1
175
     0
176
   256
177
   256
178
    40
  0
DIMSTYLE
  2
AM_ANSI
 70
     0
  3

  4
mm
  5

  6

  7

 40
1.0
 41
0.1
 42
0.05
 43
0.5
 44
0.1
 45
0.0
 46
0.0
 47
0.1
 48
0.1
140
0.12
141
0.0
142
0.0
143
25.399999999999999
144
1.0
145
0.0
146
0.71
147
0.06
 71
     0
 72
     0
 73
     1
 74
     1
 75
     0
 76
     0
 77
     0
 78
     7
170
     0
171
     2
172
     0
173
     0
174
     0
175
     0
176
   256
177
   256
178
     2
  0
DIMSTYLE
  2
AM_ANSI$3
 70
     0
  3

  4
mm
  5

  6

  7

 40
1.0
 41
0.1
 42
0.05
 43
0.5
 44
0.1
 45
0.0
 46
0.0
 47
0.1
 48
0.1
140
0.12
141
0.0
142
0.0
143
25.399999999999999
144
1.0
145
0.0
146
0.71
147
0.06
 71
     0
 72
     0
 73
     1
 74
     1
 75
     0
 76
     0
 77
     0
 78
     7
170
     0
171
     2
172
     0
173
     0
174
     0
175
     0
176
   256
177
   256
178
     2
  0
DIMSTYLE
  2
AM_ANSI$4
 70
     0
  3

  4
mm
  5

  6

  7

 40
1.0
 41
0.1
 42
0.05
 43
0.5
 44
0.1
 45
0.0
 46
0.0
 47
0.1
 48
0.1
140
0.12
141
0.0
142
0.0
143
25.399999999999999
144
1.0
145
0.0
146
0.71
147
0.06
 71
     0
 72
     0
 73
     1
 74
     1
 75
     0
 76
     0
 77
     0
 78
     7
170
     0
171
     2
172
     0
173
     0
174
     0
175
     0
176
   256
177
   256
178
     2
  0
DIMSTYLE
  2
AM_ANSI$7
 70
     0
  3

  4
mm
  5

  6

  7

 40
1.0
 41
0.1
 42
0.05
 43
0.5
 44
0.1
 45
0.0
 46
0.0
 47
0.1
 48
0.1
140
0.24
141
0.0
142
0.0
143
25.399999999999999
144
1.0
145
0.0
146
0.71
147
0.06
 71
     0
 72
     0
 73
     1
 74
     1
 75
     0
 76
     0
 77
     0
 78
     7
170
     0
171
     2
172
     0
173
     0
174
     0
175
     0
176
   256
177
   256
178
     2
  0
DIMSTYLE
  2
AM_ANSI$SF
 70
     0
  3

  4
mm
  5

  6

  7

 40
1.0
 41
0.1
 42
0.05
 43
0.5
 44
0.1
 45
0.0
 46
0.0
 47
0.1
 48
0.1
140
0.12
141
0.0
142
0.0
143
25.399999999999999
144
1.0
145
0.0
146
0.71
147
0.06
 71
     0
 72
     0
 73
     1
 74
     1
 75
     1
 76
     1
 77
     0
 78
     7
170
     0
171
     2
172
     0
173
     0
174
     0
175
     0
176
   256
177
   256
178
     2
  0
DIMSTYLE
  2
AM_ANSI$SH
 70
     0
  3

  4
mm
  5

  6

  7

 40
1.0
 41
0.1
 42
0.05
 43
0.5
 44
0.1
 45
0.0
 46
0.0
 47
0.1
 48
0.1
140
0.12
141
0.0
142
0.0
143
25.399999999999999
144
1.0
145
0.0
146
0.71
147
0.06
 71
     0
 72
     0
 73
     1
 74
     1
 75
     1
 76
     1
 77
     0
 78
     7
170
     0
171
     2
172
     0
173
     1
174
     0
175
     0
176
   256
177
   256
178
     2
  0
ENDTAB
  0
ENDSEC
  0
SECTION
  2
BLOCKS
  0
BLOCK
  8
0
  2
$MODEL_SPACE
 70
     0
 10
0.0
 20
0.0
 30
0.0
  3
$MODEL_SPACE
  1

  0
ENDBLK
  5
1788
  8
0
  0
BLOCK
 67
     1
  8
0
  2
$PAPER_SPACE
 70
     0
 10
0.0
 20
0.0
 30
0.0
  3
$PAPER_SPACE
  1

  0
ENDBLK
  5
1784
 67
     1
  8
0
  0
BLOCK
  8
0
  2
_OPEN
 70
     0
 10
0.0
 20
0.0
 30
0.0
  3
_OPEN
  1

  0
LINE
  5
595
  8
0
  6
BYBLOCK
 62
     0
 10
-1.0
 20
0.1666666666666666
 30
0.0
 11
0.0
 21
0.0
 31
0.0
  0
LINE
  5
596
  8
0
  6
BYBLOCK
 62
     0
 10
-1.0
 20
-0.1666666666666666
 30
0.0
 11
0.0
 21
0.0
 31
0.0
  0
LINE
  5
597
  8
0
  6
BYBLOCK
 62
     0
 10
0.0
 20
0.0
 30
0.0
 11
-1.0
 21
0.0
 31
0.0
  0
ENDBLK
  5
599
  8
0
  0
BLOCK
  8
0
  2
_ACMFILLEDHALF
 70
     0
 10
0.0
 20
0.0
 30
0.0
  3
_ACMFILLEDHALF
  1

  0
TRACE
  5
184B
  8
240
 62
     0
 10
-0.8
 20
0.0
 30
0.0
 11
-1.0
 21
0.166666666
 31
0.0
 12
0.0
 22
0.0
 32
0.0
 13
0.0
 23
0.0
 33
0.0
  0
LINE
  5
184C
  8
240
 62
     0
 10
-1.0
 20
0.0
 30
0.0
 11
-0.8
 21
0.0
 31
0.0
  0
ENDBLK
  5
184A
  8
0
  0
ENDSEC
  0
SECTION
  2
ENTITIES
  0
TEXT
  5
14C3
  8
241
  6
CENTER2
 10
-49.100035998999999
 20
35.0
 30
0.0
 40
5.0
  1
ST7W-EB8-20
  7
YOKO
  0
LINE
  5
166C
  8
250
  6
CONTINUOUS
 10
-51.699999997999988
 20
3.7999999999999989
 30
0.0
 11
-51.699999997999988
 21
22.0
 31
0.0
  0
LINE
  5
166D
  8
250
  6
CONTINUOUS
 10
0.0
 20
0.5
 30
0.0
 11
0.0000000000000013
 21
22.0
 31
0.0
  0
LINE
  5
166E
  8
250
  6
CONTINUOUS
 10
-49.469999997999999
 20
21.0
 30
0.0
 11
-2.2299999999999982
 21
21.0
 31
0.0
  0
LINE
  5
1672
  8
250
  6
CONTINUOUS
 10
0.2306929570000022
 20
3.7387853390000001
 30
0.0
 11
9.1423297069020464
 21
3.7387853389999961
 31
0.0
  0
LINE
  5
1673
  8
250
  6
CONTINUOUS
 10
8.1423297069020464
 20
1.5087853389999959
 30
0.0
 11
8.1423297069020446
 21
-8.8365830707569142
 31
0.0
  0
TEXT
  5
1676
  8
250
  6
CONTINUOUS
 10
-28.516666665666659
 20
22.0
 30
0.0
 40
2.799999999999998
  1
52
  0
LINE
  5
1677
  8
250
  6
CONTINUOUS
 10
-2.2299999999999982
 20
21.37166666666667
 30
0.0
 11
0.0000000000000013
 21
21.0
 31
0.0
  0
LINE
  5
1678
  8
250
  6
CONTINUOUS
 10
-2.2299999999999982
 20
20.62833333333333
 30
0.0
 11
0.0000000000000013
 21
21.0
 31
0.0
  0
LINE
  5
1679
  8
250
  6
CONTINUOUS
 10
0.0000000000000013
 20
21.0
 30
0.0
 11
-2.2299999999999982
 21
21.0
 31
0.0
  0
LINE
  5
167A
  8
250
  6
CONTINUOUS
 10
-49.469999997999999
 20
20.62833333333333
 30
0.0
 11
-51.699999997999988
 21
21.0
 31
0.0
  0
LINE
  5
167B
  8
250
  6
CONTINUOUS
 10
-49.469999997999999
 20
21.37166666666667
 30
0.0
 11
-51.699999997999988
 21
21.0
 31
0.0
  0
LINE
  5
167C
  8
250
  6
CONTINUOUS
 10
-51.699999997999988
 20
21.0
 30
0.0
 11
-49.469999997999999
 21
21.0
 31
0.0
  0
LINE
  5
1685
  8
250
  6
CONTINUOUS
 10
7.7706630402353793
 20
1.5087853389999959
 30
0.0
 11
8.1423297069020464
 21
3.7387853389999961
 31
0.0
  0
LINE
  5
1686
  8
250
  6
CONTINUOUS
 10
8.5139963735687125
 20
1.5087853389999959
 30
0.0
 11
8.1423297069020464
 21
3.7387853389999961
 31
0.0
  0
LINE
  5
1687
  8
250
  6
CONTINUOUS
 10
8.1423297069020464
 20
3.7387853389999961
 30
0.0
 11
8.1423297069020464
 21
1.5087853389999959
 31
0.0
  0
TEXT
  5
1688
  8
250
  6
CONTINUOUS
 10
6.9254916550636372
 20
-8.1032497374235817
 30
0.0
 40
2.799999999999998
  1
\U+2205
 50
90.0
  0
TEXT
  5
1689
  8
250
  6
CONTINUOUS
 10
6.9254916550636372
 20
-5.5699164040902467
 30
0.0
 40
2.799999999999998
  1
7.8ü`9.0
 50
90.0
  0
CIRCLE
  5
186A
  8
246
  6
PHANTOM2
 10
-2.2541874164077398
 20
0.4205125335618908
 30
0.0
 40
2.0862944309361322
  0
LINE
  5
186C
  8
240
  6
CONTINUOUS
 10
-1.2330221347887951
 20
3.2811842670239781
 30
0.0
 11
-0.3910105329999993
 21
3.709722425999999
 31
0.0
  0
ARC
  5
186D
  8
240
  6
CONTINUOUS
 10
-0.6104576070000009
 20
-2.8276956809999989
 30
0.0
 40
0.269160535
 50
266.9177452427499
 51
296.97362156550003
  0
ARC
  5
186E
  8
240
  6
CONTINUOUS
 10
-0.6104576070000009
 20
-2.8276956809999989
 30
0.0
 40
0.269160535
 50
296.97362156550003
 51
357.08537421099999
  0
LINE
  5
186F
  8
240
  6
CONTINUOUS
 10
-51.699999997999988
 20
-3.5
 30
0.0
 11
-0.6622093509999943
 21
-3.5
 31
0.0
  0
LINE
  5
1870
  8
240
  6
CONTINUOUS
 10
-1.486512509051426
 20
3.5
 30
0.0
 11
-51.699999997999988
 21
3.5
 31
0.0
  0
ARC
  5
1873
  8
240
  6
CONTINUOUS
 10
-1.576383112999997
 20
3.139650314999999
 30
0.0
 40
0.3713874270000001
 50
22.401536088999968
 51
75.996207295926624
  0
ARC
  5
1895
  8
241
  6
CENTER2
 10
-2.1124758776105379
 20
17.841806352766909
 30
0.0
 40
21.346153557769441
 50
258.0718701886986
 51
268.2403476633599
  0
LINE
  5
1896
  8
241
  6
CENTER2
 10
-0.6618869459999992
 20
-3.4942810419999981
 30
0.0
 11
-0.6622093509999978
 21
-3.5
 31
0.0
  0
LINE
  5
189F
  8
240
  6
CONTINUOUS
 10
-0.6618869459999992
 20
-3.4942810419999981
 30
0.0
 11
-0.6410534679999991
 21
-3.095231956999998
 31
0.0
  0
LINE
  5
18A2
  8
240
  6
CONTINUOUS
 10
-51.699999997999988
 20
-3.5
 30
0.0
 11
-51.699999997999988
 21
3.5
 31
0.0
  0
ARC
  5
18A3
  8
240
  6
CONTINUOUS
 10
-0.2693070429999977
 20
3.4694318759999989
 30
0.0
 40
0.269353463
 50
356.70925308199998
 51
116.861516786
  0
LINE
  5
18A4
  8
240
  6
CONTINUOUS
 10
-0.0003977169999985
 20
3.4539702330000002
 30
0.0
 11
-0.3416452549999995
 21
-2.841381923999998
 31
0.0
  0
ARC
  5
18A5
  8
241
  6
CENTER2
 10
-0.6104576070000009
 20
-2.8276956809999989
 30
0.0
 40
0.269160535
 50
236.86186891999989
 51
266.9177452427499
  0
LINE
  5
18A6
  8
241
  6
CENTER2
 10
-0.7575967309999996
 20
-3.053078626
 30
0.0
 11
-6.0181615969999989
 21
0.391255362
 31
0.0
  0
ARC
  5
18A7
  8
241
  6
CENTER2
 10
-5.869375103999996
 20
0.617686665
 30
0.0
 40
0.270940132
 50
116.97362156999991
 51
236.691352134
  0
LINE
  5
18A8
  8
241
  6
CENTER2
 10
-5.9922010489999984
 20
0.8590207649999999
 30
0.0
 11
-1.2330221347887951
 21
3.2811842670239781
 31
0.0
  0
LINE
  5
18A9
  8
241
  6
CENTER2
 10
-6.1026142948021649
 20
0.4798170345438077
 30
0.0
 11
-8.6320499319999993
 21
3.4942810419999981
 31
0.0
  0
LINE
  5
18AA
  8
241
  6
CENTER2
 10
-2.7679500649999991
 20
-3.4942810419999981
 30
0.0
 11
-4.7324216089999958
 21
-1.153115021999999
 31
0.0
  0
LINE
  5
18AB
  8
245
  6
CENTER2
 10
-52.802017809999981
 20
0.0
 30
0.0
 11
0.5110025903705946
 21
0.0
 31
0.0
  0
LINE
  5
18D6
  8
247
  6
CONTINUOUS
 10
-47.449999998000003
 20
-1.4999999999999989
 30
0.0
 11
-42.815384613669991
 21
-1.4999999999999989
 31
0.0
  0
LINE
  5
18D7
  8
247
  6
CONTINUOUS
 10
-46.65489349798797
 20
0.9999999999999998
 30
0.0
 11
-47.257058808057337
 21
-1.0999999999160071
 31
0.0
  0
LINE
  5
18D8
  8
247
  6
CONTINUOUS
 10
-46.025151401519039
 20
0.0038461538861156
 30
0.0
 11
-46.940536016867021
 21
0.0038461538861156
 31
0.0
  0
ARC
  5
18D9
  8
247
  6
CONTINUOUS
 10
-45.787263399946809
 20
0.6152809327059005
 30
0.0
 40
0.3876715809326743
 50
342.99788967529508
 51
82.924166218513577
  0
ARC
  5
18DA
  8
247
  6
CONTINUOUS
 10
-46.082477554804143
 20
0.6947768689719851
 30
0.0
 40
0.6933047965358767
 50
274.74293685219902
 51
343.84922627326659
1001
GENIUS_GENOBJ-N-FIL_13
1002
{
1000
OWNER
1000
GEN
1002
}
1001
GENIUS_GENODEF_13
1002
{
1000
HIER
1070
     0
1002
}
1002
{
1000
MANEDIT
1070
     0
1002
}
1002
{
1000
NOSEL
1070
     0
1002
}
1002
{
1000
BEHIND
1070
     0
1002
}
1002
{
1000
OTHER
1070
     0
1002
}
1002
{
1000
REACTOR
1002
}
  0
LINE
  5
18DB
  8
247
  6
CONTINUOUS
 10
-46.341674192709363
 20
-1.0999999999160071
 30
0.0
 11
-47.257058808057337
 21
-1.0999999999160071
 31
0.0
  0
LINE
  5
18DC
  8
247
  6
CONTINUOUS
 10
-46.65489349798797
 20
0.9999999999999998
 30
0.0
 11
-45.739508882639917
 21
0.9999999999999998
 31
0.0
  0
ARC
  5
18DD
  8
247
  6
CONTINUOUS
 10
-46.078306474266832
 20
-0.3874169627679294
 30
0.0
 40
0.394857301075386
 50
335.9909416525216
 51
82.263443459069066
  0
ARC
  5
18DE
  8
247
  6
CONTINUOUS
 10
-46.412446608426897
 20
-0.3912003273326263
 30
0.0
 40
0.7123241612361686
 50
275.70198516425648
 51
347.27733843682188
1001
GENIUS_GENOBJ-N-FIL_13
1002
{
1000
OWNER
1000
GEN
1002
}
1001
GENIUS_GENODEF_13
1002
{
1000
HIER
1070
     0
1002
}
1002
{
1000
MANEDIT
1070
     0
1002
}
1002
{
1000
NOSEL
1070
     0
1002
}
1002
{
1000
BEHIND
1070
     0
1002
}
1002
{
1000
OTHER
1070
     0
1002
}
1002
{
1000
REACTOR
1002
}
  0
LINE
  5
18DF
  8
247
  6
CONTINUOUS
 10
-45.383981885063378
 20
-1.0999999999160071
 30
0.0
 11
-44.781816574993933
 21
0.9999999999999998
 31
0.0
  0
LINE
  5
18E0
  8
247
  6
CONTINUOUS
 10
-43.285662728907973
 20
0.9999999999999998
 30
0.0
 11
-43.681678362303529
 21
0.9999999999999998
 31
0.0
  0
LINE
  5
18E1
  8
247
  6
CONTINUOUS
 10
-44.308739651943966
 20
-1.0999999999160071
 30
0.0
 11
-43.877970421191918
 21
-1.0999999999160071
 31
0.0
  0
ARC
  5
18E2
  8
247
  6
CONTINUOUS
 10
-43.081816575069958
 20
-0.4582995950834176
 30
0.0
 40
1.576855057639547
 50
112.3594881415293
 51
164.99324854284649
  0
ARC
  5
18E3
  8
247
  6
CONTINUOUS
 10
-43.5475113641332
 20
0.4341811414619771
 30
0.0
 40
0.6234706797009447
 50
4.9945893190753488
 51
65.166328957308124
1001
GENIUS_GENOBJ-N-FIL_13
1002
{
1000
OWNER
1000
GEN
1002
}
1001
GENIUS_GENODEF_13
1002
{
1000
HIER
1070
     0
1002
}
1002
{
1000
MANEDIT
1070
     0
1002
}
1002
{
1000
NOSEL
1070
     0
1002
}
1002
{
1000
BEHIND
1070
     0
1002
}
1002
{
1000
OTHER
1070
     0
1002
}
1002
{
1000
REACTOR
1002
}
  0
ARC
  5
18E4
  8
247
  6
CONTINUOUS
 10
-44.144183949032737
 20
-0.162102121969383
 30
0.0
 40
0.9749472149106983
 50
285.84609655578407
 51
352.3251370041624
  0
ARC
  5
18E5
  8
247
  6
CONTINUOUS
 10
-43.735211636772227
 20
-0.3714704019710098
 30
0.0
 40
0.9271945638692009
 50
159.7136016704896
 51
231.78874565641519
1001
GENIUS_GENOBJ-N-FIL_13
1002
{
1000
OWNER
1000
GEN
1002
}
1001
GENIUS_GENODEF_13
1002
{
1000
HIER
1070
     0
1002
}
1002
{
1000
MANEDIT
1070
     0
1002
}
1002
{
1000
NOSEL
1070
     0
1002
}
1002
{
1000
BEHIND
1070
     0
1002
}
1002
{
1000
OTHER
1070
     0
1002
}
1002
{
1000
REACTOR
1002
}
  0
LINE
  5
18E6
  8
247
  6
CONTINUOUS
 10
-43.662585805815958
 20
-0.2923076922559176
 30
0.0
 11
-43.177970421219968
 21
-0.2923076922559176
 31
0.0
  0
ARC
  5
18E7
  8
247
  6
CONTINUOUS
 10
-47.449999998000003
 20
-0.25
 30
0.0
 40
1.25
 50
90.0
 51
270.0
  0
LINE
  5
18E8
  8
247
  6
CONTINUOUS
 10
-47.449999998000003
 20
0.9999999999999998
 30
0.0
 11
-47.003846151913969
 21
0.9999999999999998
 31
0.0
  0
ARC
  5
18E9
  8
247
  6
CONTINUOUS
 10
-42.815384613669991
 20
-0.25
 30
0.0
 40
1.25
 50
270.0
 51
90.0
  0
LINE
  5
18EA
  8
250
  6
CONTINUOUS
 10
-55.71195236523279
 20
-11.92225881136414
 30
0.0
 11
-43.96222375781069
 21
-11.92225881136414
 31
0.0
  0
LINE
  5
18EB
  8
250
  6
CONTINUOUS
 10
-43.96222375781069
 20
-11.92225881136414
 30
0.0
 11
-40.290667905276948
 21
-5.4403456717494691
 31
0.0
  0
LINE
  5
18EC
  8
250
  6
CONTINUOUS
 10
-40.290667905276948
 20
-5.4403456717494691
 30
0.0
 11
-39.191596172348163
 21
-3.5
 31
0.0
  0
LINE
  5
18ED
  8
250
  6
CONTINUOUS
 10
-40.035216552547958
 20
-5.5850412097717017
 30
0.0
 11
-39.191596172348163
 21
-3.5
 31
0.0
  0
LINE
  5
18EE
  8
250
  6
CONTINUOUS
 10
-39.191596172348163
 20
-3.5
 30
0.0
 11
-40.54611925800593
 21
-5.2956501337272348
 31
0.0
  0
TEXT
  5
18EF
  8
250
  6
CONTINUOUS
 10
-55.469141744933019
 20
-10.52225881136417
 30
0.0
 40
2.7999999999999989
  1
ST7W
  7
ACJISTS
  0
ARC
  5
18F6
  8
241
  6
CENTER2
 10
-3.3217635238174541
 20
5.2044222653284411
 30
0.0
 40
8.8478232477649836
 50
197.58703265295301
 51
248.77886544316959
  0
ARC
  5
18F7
  8
241
  6
CENTER2
 10
-11.09874192646833
 20
2.6831030860792562
 30
0.0
 40
0.6746554270308391
 50
97.210063218930387
 51
193.0281473087224
  0
ARC
  5
18F8
  8
241
  6
CENTER2
 10
-8.3139167363208095
 20
-25.24214976836976
 30
0.0
 40
28.738191739379879
 50
90.634280051773459
 51
95.730514944536637
  0
ARC
  5
18F9
  8
241
  6
CENTER2
 10
-6.260504520567479
 20
-0.7588320657276171
 30
0.0
 40
1.0
 50
116.68476568598849
 51
296.68476568598851
  0
LINE
  5
18FD
  8
241
  6
CENTER2
 10
-6.7095859657330559
 20
0.1346587599712239
 30
0.0
 11
-6.0821876016052139
 21
0.449998275446022
 31
0.0
  0
LINE
  5
18FE
  8
241
  6
CENTER2
 10
-4.1626567944049908
 20
-0.8236290504670499
 30
0.0
 11
-5.8114230754019021
 21
-1.6523228914264581
 31
0.0
  0
VIEWPORT
  5
22
 67
     1
  8
0
 10
261.51769911504419
 20
148.5
 30
0.0
 40
523.0353982300885
 41
297.0
 68
     1
 69
     1
1001
ACAD
1000
MVIEW
1002
{
1070
    16
1010
0.0
1020
0.0
1030
0.0
1010
0.0
1020
0.0
1030
1.0
1040
0.0
1040
297.0
1040
261.51769911504419
1040
148.5
1040
50.0
1040
0.0
1040
0.0
1070
     0
1070
   100
1070
     1
1070
     1
1070
     0
1070
     0
1070
     0
1070
     0
1040
0.0
1040
0.0
1040
0.0
1040
1.0
1040
1.0
1040
10.0
1040
10.0
1070
     0
1002
{
1002
}
1002
}
1001
GENIUS_GENODEF_13
1002
{
1000
HIER
1070
     0
1002
}
1002
{
1000
MANEDIT
1070
     0
1002
}
1002
{
1000
NOSEL
1070
     0
1002
}
1002
{
1000
BEHIND
1070
     0
1002
}
1002
{
1000
OTHER
1070
     0
1002
}
1002
{
1000
REACTOR
1002
}
1001
GENIUS_GENOBJ-N-SDF_13
1002
{
1000
OWNER
1000
GEN
1002
}
1001
GENIUS_GENSCREG_15
1000
PF
1040
1.0
1000
DF
1040
1.0
1000
MIN
1011
0.0
1021
0.0
1031
0.0
1021
0.0
1031
0.0
1000
MAX
1011
523.0353982300885
1021
0.0
1031
0.0
1021
297.0
1031
0.0
1000
FLAGS
1070
     4
  0
ENDSEC
  0
EOF
