  0
SECTION
  2
HEADER
  9
$ACADVER
  1
AC1009
  9
$INSBASE
 10
0.0
 20
0.0
 30
0.0
  9
$EXTMIN
 10
-60.74755500501707
 20
-11.92225881136414
 30
0.0
  9
$EXTMAX
 10
7.2816364168741048
 20
40.0
 30
0.0
  9
$LIMMIN
 10
0.0
 20
0.0
  9
$LIMMAX
 10
297.0
 20
210.0
  9
$ORTHOMODE
 70
     1
  9
$REGENMODE
 70
     1
  9
$FILLMODE
 70
     1
  9
$QTEXTMODE
 70
     0
  9
$MIRRTEXT
 70
     1
  9
$DRAGMODE
 70
     2
  9
$LTSCALE
 40
10.0
  9
$OSMODE
 70
    45
  9
$ATTMODE
 70
     1
  9
$TEXTSIZE
 40
3.0
  9
$TRACEWID
 40
1.0
  9
$TEXTSTYLE
  7
YOKO
  9
$CLAYER
  8
240
  9
$CELTYPE
  6
BYLAYER
  9
$CECOLOR
 62
   256
  9
$DIMSCALE
 40
1.0
  9
$DIMASZ
 40
2.2299999999999991
  9
$DIMEXO
 40
0.5
  9
$DIMDLI
 40
7.0
  9
$DIMRND
 40
0.0
  9
$DIMDLE
 40
0.0
  9
$DIMEXE
 40
1.0
  9
$DIMTP
 40
0.0
  9
$DIMTM
 40
0.01
  9
$DIMTXT
 40
2.799999999999998
  9
$DIMCEN
 40
0.0
  9
$DIMTSZ
 40
0.0
  9
$DIMTOL
 70
     0
  9
$DIMLIM
 70
     0
  9
$DIMTIH
 70
     0
  9
$DIMTOH
 70
     0
  9
$DIMSE1
 70
     0
  9
$DIMSE2
 70
     0
  9
$DIMTAD
 70
     3
  9
$DIMZIN
 70
     9
  9
$DIMBLK
  1
OPEN
  9
$DIMASO
 70
     1
  9
$DIMSHO
 70
     1
  9
$DIMPOST
  1

  9
$DIMAPOST
  1

  9
$DIMALT
 70
     0
  9
$DIMALTD
 70
     2
  9
$DIMALTF
 40
25.399999999999999
  9
$DIMLFAC
 40
1.0
  9
$DIMTOFL
 70
     1
  9
$DIMTVP
 40
0.0
  9
$DIMTIX
 70
     1
  9
$DIMSOXD
 70
     0
  9
$DIMSAH
 70
     0
  9
$DIMBLK1
  1

  9
$DIMBLK2
  1

  9
$DIMSTYLE
  2
BIGT
  9
$DIMCLRD
 70
   256
  9
$DIMCLRE
 70
   256
  9
$DIMCLRT
 70
    40
  9
$DIMTFAC
 40
1.0
  9
$DIMGAP
 40
1.0
  9
$LUNITS
 70
     2
  9
$LUPREC
 70
     3
  9
$SKETCHINC
 40
1.0
  9
$FILLETRAD
 40
0.0
  9
$AUNITS
 70
     0
  9
$AUPREC
 70
     3
  9
$MENU
  1
.
  9
$ELEVATION
 40
0.0
  9
$PELEVATION
 40
0.0
  9
$THICKNESS
 40
0.0
  9
$LIMCHECK
 70
     0
  9
$BLIPMODE
 70
     0
  9
$CHAMFERA
 40
0.25
  9
$CHAMFERB
 40
0.25
  9
$SKPOLY
 70
     0
  9
$TDCREATE
 40
2454805.4617612502
  9
$TDUPDATE
 40
2457856.751818079
  9
$TDINDWG
 40
0.0209237384
  9
$TDUSRTIMER
 40
0.0209237269
  9
$USRTIMER
 70
     1
  9
$ANGBASE
 50
0.0
  9
$ANGDIR
 70
     0
  9
$PDMODE
 70
     1
  9
$PDSIZE
 40
0.0
  9
$PLINEWID
 40
0.0
  9
$COORDS
 70
     1
  9
$SPLFRAME
 70
     0
  9
$SPLINETYPE
 70
     6
  9
$SPLINESEGS
 70
     4
  9
$ATTDIA
 70
     1
  9
$ATTREQ
 70
     1
  9
$HANDLING
 70
     1
  9
$HANDSEED
  5
18A3
  9
$SURFTAB1
 70
     6
  9
$SURFTAB2
 70
     6
  9
$SURFTYPE
 70
     6
  9
$SURFU
 70
     6
  9
$SURFV
 70
     6
  9
$UCSNAME
  2

  9
$UCSORG
 10
0.0
 20
0.0
 30
0.0
  9
$UCSXDIR
 10
1.0
 20
0.0
 30
0.0
  9
$UCSYDIR
 10
0.0
 20
1.0
 30
0.0
  9
$PUCSNAME
  2

  9
$PUCSORG
 10
0.0
 20
0.0
 30
0.0
  9
$PUCSXDIR
 10
1.0
 20
0.0
 30
0.0
  9
$PUCSYDIR
 10
0.0
 20
1.0
 30
0.0
  9
$USERI1
 70
     1
  9
$USERI2
 70
     0
  9
$USERI3
 70
     0
  9
$USERI4
 70
     0
  9
$USERI5
 70
     0
  9
$USERR1
 40
0.0
  9
$USERR2
 40
0.0
  9
$USERR3
 40
0.0
  9
$USERR4
 40
0.0
  9
$USERR5
 40
0.0
  9
$WORLDVIEW
 70
     1
  9
$SHADEDGE
 70
     3
  9
$SHADEDIF
 70
    70
  9
$TILEMODE
 70
     1
  9
$MAXACTVP
 70
    16
  9
$PLIMCHECK
 70
     0
  9
$PEXTMIN
 10
1.0000000000000000E+020
 20
1.0000000000000000E+020
 30
1.0000000000000000E+020
  9
$PEXTMAX
 10
-1.0000000000000000E+020
 20
-1.0000000000000000E+020
 30
-1.0000000000000000E+020
  9
$PLIMMIN
 10
0.0
 20
0.0
  9
$PLIMMAX
 10
420.0
 20
297.0
  9
$UNITMODE
 70
     0
  9
$VISRETAIN
 70
     1
  9
$PLINEGEN
 70
     0
  9
$PSLTSCALE
 70
     1
  0
ENDSEC
  0
SECTION
  2
TABLES
  0
TABLE
  2
VPORT
 70
     1
  0
VPORT
  2
*ACTIVE
 70
     0
 10
0.0
 20
0.0
 11
1.0
 21
1.0
 12
-19.637586606698669
 22
16.07488807555324
 13
0.0
 23
0.0
 14
7.0
 24
7.0
 15
7.0
 25
7.0
 16
0.0
 26
0.0
 36
1.0
 17
0.0
 27
0.0
 37
0.0
 40
84.809259823869994
 41
1.6353340883352201
 42
50.0
 43
0.0
 44
0.0
 50
0.0
 51
0.0
 71
     0
 72
  2000
 73
     1
 74
     0
 75
     0
 76
     1
 77
     0
 78
     0
  0
ENDTAB
  0
TABLE
  2
LTYPE
 70
    22
  0
LTYPE
  2
CONTINUOUS
 70
     0
  3
Solid line
 72
    65
 73
     0
 40
0.0
  0
LTYPE
  2
CENTER2
 70
     0
  3
___ _ ___ _ ___ _ ___ _ ___ _ ___ _ ___ _ ___ _
 72
    65
 73
     4
 40
1.125
 49
0.75
 49
-0.125
 49
0.125
 49
-0.125
  0
LTYPE
  2
HIDDEN2
 70
     0
  3
_ _ _ _ _ _ _ _ _ _ _ _ _ _ _ _ _ _ _ _ _ _ _ _
 72
    65
 73
     2
 40
0.1875
 49
0.125
 49
-0.0625
  0
LTYPE
  2
PHANTOM2
 70
     0
  3
___ _ _ ___ _ _ ___ _ _ ___ _ _ ___ _ _ ___ _ _
 72
    65
 73
     6
 40
1.25
 49
0.625
 49
-0.125
 49
0.125
 49
-0.125
 49
0.125
 49
-0.125
  0
LTYPE
  2
CENTER
 70
     0
  3
____ _ ____ _ ____ _ ____ _ ____ _ ____ _ ____ 
 72
    65
 73
     4
 40
2.0
 49
1.25
 49
-0.25
 49
0.25
 49
-0.25
  0
LTYPE
  2
AMCONSTR
 70
     0
  3
_______________________
 72
    65
 73
     2
 40
9999.0
 49
9999.0
 49
0.0
  0
LTYPE
  2
HIDDEN
 70
     0
  3
Hidden __ __ __ __ __ __ __ __ __ __ __ __ __ _
 72
    65
 73
     2
 40
9.5249999999999986
 49
6.3499999999999979
 49
-3.174999999999998
  0
LTYPE
  2
ACANSTGB
 70
     0
  3
__ . . __ . .
 72
    65
 73
     6
 40
0.35433070866
 49
0.15748031496
 49
-0.03937007874
 49
0.03937007874
 49
-0.03937007874
 49
0.03937007874
 49
-0.03937007874
  0
LTYPE
  2
ACANSTGL
 70
     0
  3
_ _ _ _ _
 72
    65
 73
     2
 40
0.11811023622
 49
0.07874015748
 49
-0.03937007874
  0
LTYPE
  2
AMZIGZAG2
 70
     0
  3
/\/-/\/-/\/-/\/-/\/-/\/
 72
    65
 73
     2
 40
0.4401
 49
0.0001
 49
-0.4400000000000001
  0
ENDTAB
  0
TABLE
  2
LAYER
 70
     8
  0
LAYER
  2
0
 70
     0
 62
     7
  6
CONTINUOUS
  0
LAYER
  2
240
 70
     0
 62
     4
  6
CONTINUOUS
  0
LAYER
  2
DEFPOINTS
 70
     0
 62
     7
  6
CONTINUOUS
  0
LAYER
  2
245
 70
     0
 62
     2
  6
CENTER2
  0
LAYER
  2
241
 70
     0
 62
   211
  6
CONTINUOUS
  0
LAYER
  2
246
 70
     0
 62
     3
  6
PHANTOM2
  0
LAYER
  2
247
 70
     0
 62
    60
  6
CONTINUOUS
  0
LAYER
  2
250
 70
     0
 62
     3
  6
CONTINUOUS
  0
ENDTAB
  0
TABLE
  2
STYLE
 70
    10
  0
STYLE
  2
STANDARD
 70
     0
 40
0.0
 41
1.0
 50
0.0
 71
     0
 42
3.0
  3
romans.shx
  4
extfont.shx
  0
STYLE
  2
YOKO
 70
     0
 40
0.0
 41
1.0
 50
0.0
 71
     0
 42
3.0
  3
romans.shx
  4
extfont.shx
  0
STYLE
  2
ACJISTS
 70
     0
 40
1.0
 41
1.0
 50
0.0
 71
     0
 42
3.0
  3
amgdt.shx
  4
extfont.shx
  0
STYLE
  2
ACANSGDT
 70
     0
 40
0.0
 41
1.0
 50
0.0
 71
     0
 42
0.2
  3
amgdt.shx
  4

  0
STYLE
  2

 70
     1
 40
0.0
 41
1.0
 50
0.0
 71
     0
 42
3.0
  3
genltshp.shx
  4

  0
ENDTAB
  0
TABLE
  2
VIEW
 70
     0
  0
ENDTAB
  0
TABLE
  2
UCS
 70
     0
  0
ENDTAB
  0
TABLE
  2
APPID
 70
    34
  0
APPID
  2
ACAD
 70
     0
  0
APPID
  2
ACADANNOTATIVE
 70
     0
  0
APPID
  2
GLOBAL
 70
     0
  0
APPID
  2
DETAIL
 70
     0
  0
APPID
  2
GRPNAME
 70
     0
  0
APPID
  2
GPARA
 70
     0
  0
APPID
  2
MCAD_NO_VIS
 70
     0
  0
APPID
  2
ACAD_TEMP_GRAPHIC
 70
     0
  0
APPID
  2
ACATTRIBSERVICES
 70
     0
  0
APPID
  2
GENIUS_GENSCREG_15
 70
     0
  0
APPID
  2
GENIUS_GENODEF_13
 70
     0
  0
APPID
  2
GENIUS_GENOBJ-N-SDF_13
 70
     0
  0
APPID
  2
GENIUS_GENREC_14
 70
     0
  0
APPID
  2
GENIUS_GENOBJ-N-REC_13
 70
     0
  0
APPID
  2
GENIUS_GENDIMSH_14
 70
     0
  0
APPID
  2
GENIUS_GENOBJ-N-DIM_13
 70
     0
  0
APPID
  2
GENIUS_GENDIM_13
 70
     0
  0
APPID
  2
GENIUS_GENDTOL_13
 70
     0
  0
APPID
  2
GENIUS_GENOLIS_13
 70
     0
  0
APPID
  2
GENIUS_GENOENT_13
 70
     0
  0
APPID
  2
GENIUS_GENOBJ-F-FEM_13
 70
     0
  0
APPID
  2
GENIUS_GENOREF_13
 70
     0
  0
APPID
  2
GENIUS_GEFFEM_13
 70
     0
  0
APPID
  2
GENIUS_GEFFEMP_13
 70
     0
  0
APPID
  2
AD_DRAW
 70
     0
  0
APPID
  2
DESIGNERASSEMBLIES
 70
     0
  0
APPID
  2
ACADM_DIM_EDIT
 70
     0
  0
APPID
  2
AMDT_DM_ADJ
 70
     0
  0
APPID
  2
ACAD_DSTYLE_DIMBREAK
 70
     0
  0
APPID
  2
ACAD_DSTYLE_DIMJAG
 70
     0
  0
APPID
  2
ACAD_NAV_VCDISPLAY
 70
     0
  0
APPID
  2
GENIUS_GENOBJ-N-FIL_13
 70
     0
  0
APPID
  2
ACAD_EXEMPT_FROM_CAD_STANDARDS
 70
     0
  0
APPID
  2
ACAD_MLEADERVER
 70
     0
  0
ENDTAB
  0
TABLE
  2
DIMSTYLE
 70
    32
  0
DIMSTYLE
  2
STANDARD
 70
     0
  3

  4

  5

  6

  7

 40
1.0
 41
0.18
 42
0.0625
 43
0.38
 44
0.18
 45
0.0
 46
0.0
 47
0.0
 48
0.0
140
0.18
141
0.09
142
0.0
143
25.399999999999999
144
1.0
145
0.0
146
1.0
147
0.09
 71
     0
 72
     0
 73
     1
 74
     1
 75
     0
 76
     0
 77
     0
 78
     0
170
     0
171
     2
172
     0
173
     0
174
     0
175
     0
176
     0
177
     0
178
     0
  0
DIMSTYLE
  2
BIGT
 70
     0
  3

  4

  5

  6

  7

 40
1.0
 41
2.2299999999999991
 42
0.5
 43
7.0
 44
1.0
 45
0.0
 46
0.0
 47
0.0
 48
0.01
140
2.799999999999998
141
0.0
142
0.0
143
25.399999999999999
144
1.0
145
0.0
146
1.0
147
1.0
 71
     0
 72
     0
 73
     0
 74
     0
 75
     0
 76
     0
 77
     3
 78
     9
170
     0
171
     2
172
     1
173
     0
174
     1
175
     0
176
   256
177
   256
178
    40
  0
DIMSTYLE
  2
AM_ANSI
 70
     0
  3

  4
mm
  5

  6

  7

 40
1.0
 41
0.1
 42
0.05
 43
0.5
 44
0.1
 45
0.0
 46
0.0
 47
0.1
 48
0.1
140
0.12
141
0.0
142
0.0
143
25.399999999999999
144
1.0
145
0.0
146
0.71
147
0.06
 71
     0
 72
     0
 73
     1
 74
     1
 75
     0
 76
     0
 77
     0
 78
     7
170
     0
171
     2
172
     0
173
     0
174
     0
175
     0
176
   256
177
   256
178
     2
  0
DIMSTYLE
  2
AM_ANSI$3
 70
     0
  3

  4
mm
  5

  6

  7

 40
1.0
 41
0.1
 42
0.05
 43
0.5
 44
0.1
 45
0.0
 46
0.0
 47
0.1
 48
0.1
140
0.12
141
0.0
142
0.0
143
25.399999999999999
144
1.0
145
0.0
146
0.71
147
0.06
 71
     0
 72
     0
 73
     1
 74
     1
 75
     0
 76
     0
 77
     0
 78
     7
170
     0
171
     2
172
     0
173
     0
174
     0
175
     0
176
   256
177
   256
178
     2
  0
DIMSTYLE
  2
AM_ANSI$4
 70
     0
  3

  4
mm
  5

  6

  7

 40
1.0
 41
0.1
 42
0.05
 43
0.5
 44
0.1
 45
0.0
 46
0.0
 47
0.1
 48
0.1
140
0.12
141
0.0
142
0.0
143
25.399999999999999
144
1.0
145
0.0
146
0.71
147
0.06
 71
     0
 72
     0
 73
     1
 74
     1
 75
     0
 76
     0
 77
     0
 78
     7
170
     0
171
     2
172
     0
173
     0
174
     0
175
     0
176
   256
177
   256
178
     2
  0
DIMSTYLE
  2
AM_ANSI$7
 70
     0
  3

  4
mm
  5

  6

  7

 40
1.0
 41
0.1
 42
0.05
 43
0.5
 44
0.1
 45
0.0
 46
0.0
 47
0.1
 48
0.1
140
0.24
141
0.0
142
0.0
143
25.399999999999999
144
1.0
145
0.0
146
0.71
147
0.06
 71
     0
 72
     0
 73
     1
 74
     1
 75
     0
 76
     0
 77
     0
 78
     7
170
     0
171
     2
172
     0
173
     0
174
     0
175
     0
176
   256
177
   256
178
     2
  0
DIMSTYLE
  2
AM_ANSI$SF
 70
     0
  3

  4
mm
  5

  6

  7

 40
1.0
 41
0.1
 42
0.05
 43
0.5
 44
0.1
 45
0.0
 46
0.0
 47
0.1
 48
0.1
140
0.12
141
0.0
142
0.0
143
25.399999999999999
144
1.0
145
0.0
146
0.71
147
0.06
 71
     0
 72
     0
 73
     1
 74
     1
 75
     1
 76
     1
 77
     0
 78
     7
170
     0
171
     2
172
     0
173
     0
174
     0
175
     0
176
   256
177
   256
178
     2
  0
DIMSTYLE
  2
AM_ANSI$SH
 70
     0
  3

  4
mm
  5

  6

  7

 40
1.0
 41
0.1
 42
0.05
 43
0.5
 44
0.1
 45
0.0
 46
0.0
 47
0.1
 48
0.1
140
0.12
141
0.0
142
0.0
143
25.399999999999999
144
1.0
145
0.0
146
0.71
147
0.06
 71
     0
 72
     0
 73
     1
 74
     1
 75
     1
 76
     1
 77
     0
 78
     7
170
     0
171
     2
172
     0
173
     1
174
     0
175
     0
176
   256
177
   256
178
     2
  0
ENDTAB
  0
ENDSEC
  0
SECTION
  2
BLOCKS
  0
BLOCK
  8
0
  2
$MODEL_SPACE
 70
     0
 10
0.0
 20
0.0
 30
0.0
  3
$MODEL_SPACE
  1

  0
ENDBLK
  5
16D3
  8
0
  0
BLOCK
 67
     1
  8
0
  2
$PAPER_SPACE
 70
     0
 10
0.0
 20
0.0
 30
0.0
  3
$PAPER_SPACE
  1

  0
ENDBLK
  5
16CF
 67
     1
  8
0
  0
BLOCK
  8
0
  2
_OPEN
 70
     0
 10
0.0
 20
0.0
 30
0.0
  3
_OPEN
  1

  0
LINE
  5
595
  8
0
  6
BYBLOCK
 62
     0
 10
-1.0
 20
0.1666666666666666
 30
0.0
 11
0.0
 21
0.0
 31
0.0
  0
LINE
  5
596
  8
0
  6
BYBLOCK
 62
     0
 10
-1.0
 20
-0.1666666666666666
 30
0.0
 11
0.0
 21
0.0
 31
0.0
  0
LINE
  5
597
  8
0
  6
BYBLOCK
 62
     0
 10
0.0
 20
0.0
 30
0.0
 11
-1.0
 21
0.0
 31
0.0
  0
ENDBLK
  5
599
  8
0
  0
BLOCK
  8
0
  2
_ACMFILLEDHALF
 70
     0
 10
0.0
 20
0.0
 30
0.0
  3
_ACMFILLEDHALF
  1

  0
TRACE
  5
1794
  8
240
 62
     0
 10
-0.8
 20
0.0
 30
0.0
 11
-1.0
 21
0.166666666
 31
0.0
 12
0.0
 22
0.0
 32
0.0
 13
0.0
 23
0.0
 33
0.0
  0
LINE
  5
1795
  8
240
 62
     0
 10
-1.0
 20
0.0
 30
0.0
 11
-0.8
 21
0.0
 31
0.0
  0
ENDBLK
  5
1793
  8
0
  0
ENDSEC
  0
SECTION
  2
ENTITIES
  0
TEXT
  5
1477
  8
241
  6
CONTINUOUS
 10
-49.100035998999999
 20
35.0
 30
0.0
 40
5.0
  1
ST7W-EB7-20
  7
YOKO
  0
LINE
  5
15B6
  8
250
  6
CONTINUOUS
 10
0.3000000000000007
 20
3.3292491630000001
 30
0.0
 11
7.2816364168741048
 21
3.329249162999997
 31
0.0
  0
LINE
  5
15B7
  8
250
  6
CONTINUOUS
 10
6.2816364168741048
 20
1.0992491629999981
 30
0.0
 11
6.281636416874103
 21
-9.4238074227534696
 31
0.0
  0
LINE
  5
15BA
  8
250
  6
CONTINUOUS
 10
5.9099697502074404
 20
1.0992491629999981
 30
0.0
 11
6.2816364168741057
 21
3.329249162999997
 31
0.0
  0
LINE
  5
15BB
  8
250
  6
CONTINUOUS
 10
6.6533030835407718
 20
1.0992491629999981
 30
0.0
 11
6.2816364168741057
 21
3.329249162999997
 31
0.0
  0
LINE
  5
15BC
  8
250
  6
CONTINUOUS
 10
6.2816364168741057
 20
3.329249162999997
 30
0.0
 11
6.2816364168741057
 21
1.0992491629999981
 31
0.0
  0
TEXT
  5
15BD
  8
250
  6
CONTINUOUS
 10
5.1383344896802301
 20
-8.6904740894201336
 30
0.0
 40
2.799999999999998
  1
\U+2205
 50
90.0
  0
TEXT
  5
15BE
  8
250
  6
CONTINUOUS
 10
5.1383344896802301
 20
-6.1571407560868012
 30
0.0
 40
2.799999999999998
  1
6.8ü`8.0
 50
90.0
  0
LINE
  5
15BF
  8
250
  6
CONTINUOUS
 10
-51.699999997999988
 20
3.7999999999999989
 30
0.0
 11
-51.699999997999988
 21
21.275835707999999
 31
0.0
  0
LINE
  5
15C0
  8
250
  6
CONTINUOUS
 10
0.0
 20
0.5
 30
0.0
 11
0.0000000000000013
 21
21.275835707999999
 31
0.0
  0
LINE
  5
15C1
  8
250
  6
CONTINUOUS
 10
-49.469999997999999
 20
20.275835707999999
 30
0.0
 11
-2.2299999999999982
 21
20.275835707999999
 31
0.0
  0
TEXT
  5
15CB
  8
250
  6
CONTINUOUS
 10
-28.516666665666659
 20
21.275835707999999
 30
0.0
 40
2.799999999999998
  1
52
  0
LINE
  5
15CC
  8
250
  6
CONTINUOUS
 10
-2.2299999999999982
 20
20.647502374666661
 30
0.0
 11
0.0000000000000012
 21
20.275835707999999
 31
0.0
  0
LINE
  5
15CD
  8
250
  6
CONTINUOUS
 10
-2.2299999999999982
 20
19.904169041333319
 30
0.0
 11
0.0000000000000012
 21
20.275835707999999
 31
0.0
  0
LINE
  5
15CE
  8
250
  6
CONTINUOUS
 10
0.0000000000000012
 20
20.275835707999999
 30
0.0
 11
-2.2299999999999982
 21
20.275835707999999
 31
0.0
  0
LINE
  5
15CF
  8
250
  6
CONTINUOUS
 10
-49.469999997999999
 20
19.904169041333319
 30
0.0
 11
-51.699999997999988
 21
20.275835707999999
 31
0.0
  0
LINE
  5
15D0
  8
250
  6
CONTINUOUS
 10
-49.469999997999999
 20
20.647502374666661
 30
0.0
 11
-51.699999997999988
 21
20.275835707999999
 31
0.0
  0
LINE
  5
15D1
  8
250
  6
CONTINUOUS
 10
-51.699999997999988
 20
20.275835707999999
 30
0.0
 11
-49.469999997999999
 21
20.275835707999999
 31
0.0
  0
CIRCLE
  5
17B3
  8
246
  6
PHANTOM2
 10
-2.093886961398058
 20
1.0983040452183861
 30
0.0
 40
1.984999999686418
  0
LINE
  5
17B5
  8
241
  6
CONTINUOUS
 10
-0.5715912340049068
 20
-2.147799191093632
 30
0.0
 11
-1.199960969999998
 21
-1.7397311129999991
 31
0.0
  0
LINE
  5
17B6
  8
241
  6
CONTINUOUS
 10
-5.8932200881400494
 20
2.9941902179999991
 30
0.0
 11
-4.9873659339999987
 21
1.792081152999998
 31
0.0
  0
LINE
  5
17B7
  8
240
  6
CONTINUOUS
 10
-0.4668284430194752
 20
-0.1488060543715972
 30
0.0
 11
-0.1299253939999971
 21
0.6448877910000002
 31
0.0
  0
LINE
  5
17B8
  8
241
  6
CONTINUOUS
 10
-2.745339030783124
 20
2.9941902179999991
 30
0.0
 11
-4.8904786070000004
 21
1.901187011999999
 31
0.0
  0
LINE
  5
17BB
  8
240
  6
CONTINUOUS
 10
-20.373449998000002
 20
3.5
 30
0.0
 11
-51.699999997999988
 21
3.5
 31
0.0
  0
LINE
  5
17BC
  8
240
  6
CONTINUOUS
 10
-51.699999997999988
 20
-3.5
 30
0.0
 11
-20.373449998000002
 21
-3.5
 31
0.0
  0
LINE
  5
17BD
  8
240
  6
CONTINUOUS
 10
-20.373449998000002
 20
-3.5
 30
0.0
 11
-19.999999998
 21
-3.1265499999999991
 31
0.0
  0
LINE
  5
17BE
  8
240
  6
CONTINUOUS
 10
-19.999999998
 20
3.1265499999999991
 30
0.0
 11
-20.373449998000002
 21
3.5
 31
0.0
  0
LINE
  5
17BF
  8
240
  6
CONTINUOUS
 10
-5.9929603378866654
 20
3.1265499999999991
 30
0.0
 11
-19.999999998
 21
3.1265499999999991
 31
0.0
  0
LINE
  5
17C0
  8
240
  6
CONTINUOUS
 10
-19.999999998
 20
-3.1265499999999991
 30
0.0
 11
-0.5001251984060318
 21
-3.1265499999999991
 31
0.0
  0
LINE
  5
17C1
  8
241
  6
CONTINUOUS
 10
-3.4685377399999981
 20
-0.375828437
 30
0.0
 11
-1.390908183999999
 21
-1.7250568469999981
 31
0.0
  0
LINE
  5
17C2
  8
241
  6
CONTINUOUS
 10
-4.9594076090000003
 20
1.6026227019999979
 30
0.0
 11
-3.4685377399999981
 21
-0.375828437
 31
0.0
  0
ARC
  5
17C3
  8
241
  6
CONTINUOUS
 10
-4.7996805069999997
 20
1.7229857069999981
 30
0.0
 40
0.2
 50
117.0
 51
216.99999999999989
  0
LINE
  5
17C4
  8
240
  6
CONTINUOUS
 10
-2.683197750000001
 20
3.0258527819999981
 30
0.0
 11
-2.7453390307831231
 21
2.9941902179999991
 31
0.0
  0
LINE
  5
17C5
  8
240
  6
CONTINUOUS
 10
-0.2243738689999972
 20
3.327758392999999
 30
0.0
 11
-2.683197750000001
 21
3.0258527819999981
 31
0.0
  0
ARC
  5
17C6
  8
240
  6
CONTINUOUS
 10
-0.1999999999999993
 20
3.129249162999999
 30
0.0
 40
0.2
 50
357.0
 51
97.0
  0
LINE
  5
17C7
  8
240
  6
CONTINUOUS
 10
-0.1299253939999971
 20
0.6448877910000002
 30
0.0
 11
-0.0002740930000016
 21
3.1187819710000002
 31
0.0
  0
LINE
  5
17C8
  8
241
  6
CONTINUOUS
 10
-1.097879405999999
 20
-1.635468958999998
 30
0.0
 11
-0.4668284430194752
 21
-0.1488060543715972
 31
0.0
  0
ARC
  5
17C9
  8
241
  6
CONTINUOUS
 10
-1.281980377
 20
-1.5573227339999991
 30
0.0
 40
0.2
 50
237.0
 51
337.0
  0
LINE
  5
17CA
  8
240
  6
CONTINUOUS
 10
-2.745339030999999
 20
2.9941902179999991
 30
0.0
 11
-5.8932200879999987
 21
2.9941902179999991
 31
0.0
  0
ARC
  5
17CB
  8
241
  6
CONTINUOUS
 10
-7.0752662339999981
 20
0.6151255110000001
 30
0.0
 40
2.5398610330000002
 50
98.583192465000039
 51
123.0838606960001
  0
ARC
  5
17E4
  8
241
  6
CONTINUOUS
 10
-1.706254545
 20
3.6033493939999981
 30
0.0
 40
6.7014145989999987
 50
251.270844522
 51
273.397307189
  0
LINE
  5
17E5
  8
241
  6
CONTINUOUS
 10
-0.5128669289999978
 20
-3.0862882339999991
 30
0.0
 11
-1.3091323489999971
 21
-3.0862882339999991
 31
0.0
  0
LINE
  5
17E8
  8
240
  6
CONTINUOUS
 10
-0.4480406210000007
 20
-3.0748309630000001
 30
0.0
 11
-0.4092537800000004
 21
-2.3347339479999989
 31
0.0
  0
LINE
  5
17E9
  8
240
  6
CONTINUOUS
 10
-0.4480406210000007
 20
-3.0748309630000001
 30
0.0
 11
-0.5001251984060318
 21
-3.1265499999999991
 31
0.0
  0
LINE
  5
17EA
  8
240
  6
CONTINUOUS
 10
-5.9929603378866654
 20
3.1265499999999991
 30
0.0
 11
-5.8932200881400494
 21
2.9941902179999991
 31
0.0
  0
LINE
  5
17EB
  8
240
  6
CONTINUOUS
 10
-0.4764662669999993
 20
-2.2095740669999979
 30
0.0
 11
-0.5715912340049068
 21
-2.147799191093632
 31
0.0
  0
LINE
  5
17EC
  8
240
  6
CONTINUOUS
 10
-0.4092537800000004
 20
-2.3347339479999989
 30
0.0
 11
-0.4764662669999993
 21
-2.2095740669999979
 31
0.0
  0
LINE
  5
17ED
  8
240
  6
CONTINUOUS
 10
-0.4668284430000007
 20
-0.148806054
 30
0.0
 11
-0.5715912339999996
 21
-2.1477991909999981
 31
0.0
  0
LINE
  5
17EF
  8
240
  6
CONTINUOUS
 10
-51.699999997999988
 20
-3.5
 30
0.0
 11
-51.699999997999988
 21
3.5
 31
0.0
  0
LINE
  5
17F0
  8
241
  6
CONTINUOUS
 10
-20.373449998000002
 20
3.5
 30
0.0
 11
-20.373449998000002
 21
-3.5
 31
0.0
  0
LINE
  5
17F1
  8
241
  6
CONTINUOUS
 10
-19.999999998
 20
3.1265499999999991
 30
0.0
 11
-19.999999998
 21
-3.1265499999999991
 31
0.0
  0
LINE
  5
17F2
  8
245
  6
CENTER2
 10
-52.401633123448839
 20
0.0
 30
0.0
 11
0.6340185399999996
 21
0.0
 31
0.0
  0
LINE
  5
181D
  8
247
  6
CONTINUOUS
 10
-47.449999998000003
 20
-1.4999999999999989
 30
0.0
 11
-42.815384613669991
 21
-1.4999999999999989
 31
0.0
  0
LINE
  5
181E
  8
247
  6
CONTINUOUS
 10
-46.65489349798797
 20
0.9999999999999998
 30
0.0
 11
-47.257058808057337
 21
-1.0999999999160071
 31
0.0
  0
LINE
  5
181F
  8
247
  6
CONTINUOUS
 10
-46.025151401519039
 20
0.0038461538861156
 30
0.0
 11
-46.940536016867021
 21
0.0038461538861156
 31
0.0
  0
ARC
  5
1820
  8
247
  6
CONTINUOUS
 10
-45.787263399946809
 20
0.6152809327059005
 30
0.0
 40
0.3876715809326743
 50
342.99788967529508
 51
82.924166218513577
  0
ARC
  5
1821
  8
247
  6
CONTINUOUS
 10
-46.082477554804143
 20
0.6947768689719851
 30
0.0
 40
0.6933047965358767
 50
274.74293685219902
 51
343.84922627326659
1001
GENIUS_GENOBJ-N-FIL_13
1002
{
1000
OWNER
1000
GEN
1002
}
1001
GENIUS_GENODEF_13
1002
{
1000
HIER
1070
     0
1002
}
1002
{
1000
MANEDIT
1070
     0
1002
}
1002
{
1000
NOSEL
1070
     0
1002
}
1002
{
1000
BEHIND
1070
     0
1002
}
1002
{
1000
OTHER
1070
     0
1002
}
1002
{
1000
REACTOR
1002
}
  0
LINE
  5
1822
  8
247
  6
CONTINUOUS
 10
-46.341674192709363
 20
-1.0999999999160071
 30
0.0
 11
-47.257058808057337
 21
-1.0999999999160071
 31
0.0
  0
LINE
  5
1823
  8
247
  6
CONTINUOUS
 10
-46.65489349798797
 20
0.9999999999999998
 30
0.0
 11
-45.739508882639917
 21
0.9999999999999998
 31
0.0
  0
ARC
  5
1824
  8
247
  6
CONTINUOUS
 10
-46.078306474266832
 20
-0.3874169627679294
 30
0.0
 40
0.394857301075386
 50
335.9909416525216
 51
82.263443459069066
  0
ARC
  5
1825
  8
247
  6
CONTINUOUS
 10
-46.412446608426897
 20
-0.3912003273326263
 30
0.0
 40
0.7123241612361686
 50
275.70198516425648
 51
347.27733843682188
1001
GENIUS_GENOBJ-N-FIL_13
1002
{
1000
OWNER
1000
GEN
1002
}
1001
GENIUS_GENODEF_13
1002
{
1000
HIER
1070
     0
1002
}
1002
{
1000
MANEDIT
1070
     0
1002
}
1002
{
1000
NOSEL
1070
     0
1002
}
1002
{
1000
BEHIND
1070
     0
1002
}
1002
{
1000
OTHER
1070
     0
1002
}
1002
{
1000
REACTOR
1002
}
  0
LINE
  5
1826
  8
247
  6
CONTINUOUS
 10
-45.383981885063378
 20
-1.0999999999160071
 30
0.0
 11
-44.781816574993933
 21
0.9999999999999998
 31
0.0
  0
LINE
  5
1827
  8
247
  6
CONTINUOUS
 10
-43.285662728907973
 20
0.9999999999999998
 30
0.0
 11
-43.681678362303529
 21
0.9999999999999998
 31
0.0
  0
LINE
  5
1828
  8
247
  6
CONTINUOUS
 10
-44.308739651943966
 20
-1.0999999999160071
 30
0.0
 11
-43.877970421191918
 21
-1.0999999999160071
 31
0.0
  0
ARC
  5
1829
  8
247
  6
CONTINUOUS
 10
-43.081816575069958
 20
-0.4582995950834176
 30
0.0
 40
1.576855057639547
 50
112.3594881415293
 51
164.99324854284649
  0
ARC
  5
182A
  8
247
  6
CONTINUOUS
 10
-43.5475113641332
 20
0.4341811414619771
 30
0.0
 40
0.6234706797009447
 50
4.9945893190753488
 51
65.166328957308124
1001
GENIUS_GENOBJ-N-FIL_13
1002
{
1000
OWNER
1000
GEN
1002
}
1001
GENIUS_GENODEF_13
1002
{
1000
HIER
1070
     0
1002
}
1002
{
1000
MANEDIT
1070
     0
1002
}
1002
{
1000
NOSEL
1070
     0
1002
}
1002
{
1000
BEHIND
1070
     0
1002
}
1002
{
1000
OTHER
1070
     0
1002
}
1002
{
1000
REACTOR
1002
}
  0
ARC
  5
182B
  8
247
  6
CONTINUOUS
 10
-44.144183949032737
 20
-0.162102121969383
 30
0.0
 40
0.9749472149106983
 50
285.84609655578407
 51
352.3251370041624
  0
ARC
  5
182C
  8
247
  6
CONTINUOUS
 10
-43.735211636772227
 20
-0.3714704019710098
 30
0.0
 40
0.9271945638692009
 50
159.7136016704896
 51
231.78874565641519
1001
GENIUS_GENOBJ-N-FIL_13
1002
{
1000
OWNER
1000
GEN
1002
}
1001
GENIUS_GENODEF_13
1002
{
1000
HIER
1070
     0
1002
}
1002
{
1000
MANEDIT
1070
     0
1002
}
1002
{
1000
NOSEL
1070
     0
1002
}
1002
{
1000
BEHIND
1070
     0
1002
}
1002
{
1000
OTHER
1070
     0
1002
}
1002
{
1000
REACTOR
1002
}
  0
LINE
  5
182D
  8
247
  6
CONTINUOUS
 10
-43.662585805815958
 20
-0.2923076922559176
 30
0.0
 11
-43.177970421219968
 21
-0.2923076922559176
 31
0.0
  0
ARC
  5
182E
  8
247
  6
CONTINUOUS
 10
-47.449999998000003
 20
-0.25
 30
0.0
 40
1.25
 50
90.0
 51
270.0
  0
LINE
  5
182F
  8
247
  6
CONTINUOUS
 10
-47.449999998000003
 20
0.9999999999999998
 30
0.0
 11
-47.003846151913969
 21
0.9999999999999998
 31
0.0
  0
ARC
  5
1830
  8
247
  6
CONTINUOUS
 10
-42.815384613669991
 20
-0.25
 30
0.0
 40
1.25
 50
270.0
 51
90.0
  0
LINE
  5
1831
  8
250
  6
CONTINUOUS
 10
-55.71195236523279
 20
-11.92225881136414
 30
0.0
 11
-43.96222375781069
 21
-11.92225881136414
 31
0.0
  0
LINE
  5
1832
  8
250
  6
CONTINUOUS
 10
-43.96222375781069
 20
-11.92225881136414
 30
0.0
 11
-40.290667905276948
 21
-5.4403456717494691
 31
0.0
  0
LINE
  5
1833
  8
250
  6
CONTINUOUS
 10
-40.290667905276948
 20
-5.4403456717494691
 30
0.0
 11
-39.191596172348163
 21
-3.5
 31
0.0
  0
LINE
  5
1834
  8
250
  6
CONTINUOUS
 10
-40.035216552547958
 20
-5.5850412097717017
 30
0.0
 11
-39.191596172348163
 21
-3.5
 31
0.0
  0
LINE
  5
1835
  8
250
  6
CONTINUOUS
 10
-39.191596172348163
 20
-3.5
 30
0.0
 11
-40.54611925800593
 21
-5.2956501337272348
 31
0.0
  0
TEXT
  5
1836
  8
250
  6
CONTINUOUS
 10
-55.469141744933019
 20
-10.52225881136417
 30
0.0
 40
2.7999999999999989
  1
ST7W
  7
ACJISTS
  0
ARC
  5
183E
  8
241
  6
CONTINUOUS
 10
0.0304202894619958
 20
5.7195342613362801
 30
0.0
 40
9.3133303190035743
 50
203.2275137121716
 51
245.32213356978249
  0
ARC
  5
183F
  8
241
  6
CONTINUOUS
 10
-7.5058060470670629
 20
2.300682970554945
 30
0.0
 40
1.053347035237407
 50
155.1584279682551
 51
193.9631361736937
  0
VIEWPORT
  5
22
 67
     1
  8
0
 10
261.51769911504419
 20
148.5
 30
0.0
 40
523.0353982300885
 41
297.0
 68
     1
 69
     1
1001
ACAD
1000
MVIEW
1002
{
1070
    16
1010
0.0
1020
0.0
1030
0.0
1010
0.0
1020
0.0
1030
1.0
1040
0.0
1040
297.0
1040
261.51769911504419
1040
148.5
1040
50.0
1040
0.0
1040
0.0
1070
     0
1070
   100
1070
     1
1070
     1
1070
     0
1070
     0
1070
     0
1070
     0
1040
0.0
1040
0.0
1040
0.0
1040
1.0
1040
1.0
1040
10.0
1040
10.0
1070
     0
1002
{
1002
}
1002
}
1001
GENIUS_GENODEF_13
1002
{
1000
HIER
1070
     0
1002
}
1002
{
1000
MANEDIT
1070
     0
1002
}
1002
{
1000
NOSEL
1070
     0
1002
}
1002
{
1000
BEHIND
1070
     0
1002
}
1002
{
1000
OTHER
1070
     0
1002
}
1002
{
1000
REACTOR
1002
}
1001
GENIUS_GENOBJ-N-SDF_13
1002
{
1000
OWNER
1000
GEN
1002
}
1001
GENIUS_GENSCREG_15
1000
PF
1040
1.0
1000
DF
1040
1.0
1000
MIN
1011
0.0
1021
0.0
1031
-1.#QNAN00000000000E+000
1021
0.0
1031
0.0
1000
MAX
1011
523.0353982300885
1021
0.0
1031
-1.#QNAN00000000000E+000
1021
297.0
1031
0.0
1000
FLAGS
1070
     4
  0
ENDSEC
  0
EOF
