  0
SECTION
  2
HEADER
  9
$ACADVER
  1
AC1009
  9
$INSBASE
 10
0.0
 20
0.0
 30
0.0
  9
$EXTMIN
 10
-61.316171416596973
 20
-11.92225881136414
 30
0.0
  9
$EXTMAX
 10
8.0
 20
40.0
 30
0.0
  9
$LIMMIN
 10
0.0
 20
0.0
  9
$LIMMAX
 10
297.0
 20
210.0
  9
$ORTHOMODE
 70
     1
  9
$REGENMODE
 70
     1
  9
$FILLMODE
 70
     1
  9
$QTEXTMODE
 70
     0
  9
$MIRRTEXT
 70
     1
  9
$DRAGMODE
 70
     2
  9
$LTSCALE
 40
10.0
  9
$OSMODE
 70
    45
  9
$ATTMODE
 70
     1
  9
$TEXTSIZE
 40
3.0
  9
$TRACEWID
 40
1.0
  9
$TEXTSTYLE
  7
YOKO
  9
$CLAYER
  8
240
  9
$CELTYPE
  6
BYLAYER
  9
$CECOLOR
 62
   256
  9
$DIMSCALE
 40
1.0
  9
$DIMASZ
 40
2.2299999999999991
  9
$DIMEXO
 40
0.5
  9
$DIMDLI
 40
7.0
  9
$DIMRND
 40
0.0
  9
$DIMDLE
 40
0.0
  9
$DIMEXE
 40
1.0
  9
$DIMTP
 40
0.0
  9
$DIMTM
 40
0.01
  9
$DIMTXT
 40
2.799999999999998
  9
$DIMCEN
 40
0.0
  9
$DIMTSZ
 40
0.0
  9
$DIMTOL
 70
     0
  9
$DIMLIM
 70
     0
  9
$DIMTIH
 70
     0
  9
$DIMTOH
 70
     0
  9
$DIMSE1
 70
     0
  9
$DIMSE2
 70
     0
  9
$DIMTAD
 70
     3
  9
$DIMZIN
 70
     9
  9
$DIMBLK
  1
OPEN
  9
$DIMASO
 70
     1
  9
$DIMSHO
 70
     1
  9
$DIMPOST
  1

  9
$DIMAPOST
  1

  9
$DIMALT
 70
     0
  9
$DIMALTD
 70
     2
  9
$DIMALTF
 40
25.399999999999999
  9
$DIMLFAC
 40
1.0
  9
$DIMTOFL
 70
     1
  9
$DIMTVP
 40
0.0
  9
$DIMTIX
 70
     1
  9
$DIMSOXD
 70
     0
  9
$DIMSAH
 70
     0
  9
$DIMBLK1
  1

  9
$DIMBLK2
  1

  9
$DIMSTYLE
  2
BIGT
  9
$DIMCLRD
 70
   256
  9
$DIMCLRE
 70
   256
  9
$DIMCLRT
 70
    40
  9
$DIMTFAC
 40
1.0
  9
$DIMGAP
 40
1.0
  9
$LUNITS
 70
     2
  9
$LUPREC
 70
     3
  9
$SKETCHINC
 40
1.0
  9
$FILLETRAD
 40
0.0
  9
$AUNITS
 70
     0
  9
$AUPREC
 70
     3
  9
$MENU
  1
.
  9
$ELEVATION
 40
0.0
  9
$PELEVATION
 40
0.0
  9
$THICKNESS
 40
0.0
  9
$LIMCHECK
 70
     0
  9
$BLIPMODE
 70
     0
  9
$CHAMFERA
 40
0.25
  9
$CHAMFERB
 40
0.25
  9
$SKPOLY
 70
     0
  9
$TDCREATE
 40
2454804.4882860882
  9
$TDUPDATE
 40
2457856.7184928819
  9
$TDINDWG
 40
0.0162405556
  9
$TDUSRTIMER
 40
0.016240544
  9
$USRTIMER
 70
     1
  9
$ANGBASE
 50
0.0
  9
$ANGDIR
 70
     0
  9
$PDMODE
 70
     1
  9
$PDSIZE
 40
0.0
  9
$PLINEWID
 40
0.0
  9
$COORDS
 70
     1
  9
$SPLFRAME
 70
     0
  9
$SPLINETYPE
 70
     6
  9
$SPLINESEGS
 70
     4
  9
$ATTDIA
 70
     1
  9
$ATTREQ
 70
     1
  9
$HANDLING
 70
     1
  9
$HANDSEED
  5
17DD
  9
$SURFTAB1
 70
     6
  9
$SURFTAB2
 70
     6
  9
$SURFTYPE
 70
     6
  9
$SURFU
 70
     6
  9
$SURFV
 70
     6
  9
$UCSNAME
  2

  9
$UCSORG
 10
0.0
 20
0.0
 30
0.0
  9
$UCSXDIR
 10
1.0
 20
0.0
 30
0.0
  9
$UCSYDIR
 10
0.0
 20
1.0
 30
0.0
  9
$PUCSNAME
  2

  9
$PUCSORG
 10
0.0
 20
0.0
 30
0.0
  9
$PUCSXDIR
 10
1.0
 20
0.0
 30
0.0
  9
$PUCSYDIR
 10
0.0
 20
1.0
 30
0.0
  9
$USERI1
 70
     1
  9
$USERI2
 70
     0
  9
$USERI3
 70
     0
  9
$USERI4
 70
     0
  9
$USERI5
 70
     0
  9
$USERR1
 40
0.0
  9
$USERR2
 40
0.0
  9
$USERR3
 40
0.0
  9
$USERR4
 40
0.0
  9
$USERR5
 40
0.0
  9
$WORLDVIEW
 70
     1
  9
$SHADEDGE
 70
     3
  9
$SHADEDIF
 70
    70
  9
$TILEMODE
 70
     1
  9
$MAXACTVP
 70
    16
  9
$PLIMCHECK
 70
     0
  9
$PEXTMIN
 10
1.0000000000000000E+020
 20
1.0000000000000000E+020
 30
1.0000000000000000E+020
  9
$PEXTMAX
 10
-1.0000000000000000E+020
 20
-1.0000000000000000E+020
 30
-1.0000000000000000E+020
  9
$PLIMMIN
 10
0.0
 20
0.0
  9
$PLIMMAX
 10
420.0
 20
297.0
  9
$UNITMODE
 70
     0
  9
$VISRETAIN
 70
     1
  9
$PLINEGEN
 70
     0
  9
$PSLTSCALE
 70
     1
  0
ENDSEC
  0
SECTION
  2
TABLES
  0
TABLE
  2
VPORT
 70
     1
  0
VPORT
  2
*ACTIVE
 70
     0
 10
0.0
 20
0.0
 11
1.0
 21
1.0
 12
-12.65328474865578
 22
23.181676649761421
 13
0.0
 23
0.0
 14
7.0
 24
7.0
 15
7.0
 25
7.0
 16
0.0
 26
0.0
 36
1.0
 17
0.0
 27
0.0
 37
0.0
 40
128.10908733109929
 41
1.6353340883352201
 42
50.0
 43
0.0
 44
0.0
 50
0.0
 51
0.0
 71
     0
 72
  2000
 73
     1
 74
     0
 75
     1
 76
     1
 77
     0
 78
     0
  0
ENDTAB
  0
TABLE
  2
LTYPE
 70
    21
  0
LTYPE
  2
CONTINUOUS
 70
     0
  3
Solid line
 72
    65
 73
     0
 40
0.0
  0
LTYPE
  2
CENTER2
 70
     0
  3
___ _ ___ _ ___ _ ___ _ ___ _ ___ _ ___ _ ___ _
 72
    65
 73
     4
 40
1.125
 49
0.75
 49
-0.125
 49
0.125
 49
-0.125
  0
LTYPE
  2
HIDDEN2
 70
     0
  3
_ _ _ _ _ _ _ _ _ _ _ _ _ _ _ _ _ _ _ _ _ _ _ _
 72
    65
 73
     2
 40
0.1875
 49
0.125
 49
-0.0625
  0
LTYPE
  2
PHANTOM2
 70
     0
  3
___ _ _ ___ _ _ ___ _ _ ___ _ _ ___ _ _ ___ _ _
 72
    65
 73
     6
 40
1.25
 49
0.625
 49
-0.125
 49
0.125
 49
-0.125
 49
0.125
 49
-0.125
  0
LTYPE
  2
CENTER
 70
     0
  3
____ _ ____ _ ____ _ ____ _ ____ _ ____ _ ____ 
 72
    65
 73
     4
 40
2.0
 49
1.25
 49
-0.25
 49
0.25
 49
-0.25
  0
LTYPE
  2
AM_ISO02W050
 70
     0
  3
__ __ __ __ __ __ __ __ __ __ __ __ __ __ __
 72
    65
 73
     2
 40
7.5
 49
6.0
 49
-1.5
  0
LTYPE
  2
AMCONSTR
 70
     0
  3
_______________________
 72
    65
 73
     2
 40
9999.0
 49
9999.0
 49
0.0
  0
LTYPE
  2
ACISOWELD
 70
     0
  3
_ _ _ _ _
 72
    65
 73
     2
 40
2.0
 49
2.0
 49
-1.0
  0
LTYPE
  2
ACISOTGB
 70
     0
  3
__ . . __ . .
 72
    65
 73
     6
 40
9.0
 49
4.0
 49
-1.0
 49
1.0
 49
-1.0
 49
1.0
 49
-1.0
  0
LTYPE
  2
ACISOTGL
 70
     0
  3
_ _ _ _ _
 72
    65
 73
     2
 40
3.0
 49
2.0
 49
-1.0
  0
LTYPE
  2
HIDDEN
 70
     0
  3
Hidden __ __ __ __ __ __ __ __ __ __ __ __ __ _
 72
    65
 73
     2
 40
9.5249999999999986
 49
6.3499999999999979
 49
-3.174999999999998
  0
LTYPE
  2
ACANSTGB
 70
     0
  3
__ . . __ . .
 72
    65
 73
     6
 40
0.35433070866
 49
0.15748031496
 49
-0.03937007874
 49
0.03937007874
 49
-0.03937007874
 49
0.03937007874
 49
-0.03937007874
  0
LTYPE
  2
ACANSTGL
 70
     0
  3
_ _ _ _ _
 72
    65
 73
     2
 40
0.11811023622
 49
0.07874015748
 49
-0.03937007874
  0
LTYPE
  2
AM_ISO08W050
 70
     0
  3
____ . ____ . ____ . ____ . ____ . ____ . ____
 72
    65
 73
     4
 40
18.0
 49
12.0
 49
-1.5
 49
3.0
 49
-1.5
  0
LTYPE
  2
AM_ISO09W050
 70
     0
  3
_____ . . _____ . . _____ . . ____ .. ____
 72
    65
 73
     6
 40
22.5
 49
12.0
 49
-1.5
 49
3.0
 49
-1.5
 49
3.0
 49
-1.5
  0
LTYPE
  2
AM_ISO08W050X2
 70
     0
  3
__ . __ . __ . __ . __ . __
 72
    65
 73
     4
 40
9.0
 49
6.0
 49
-0.75
 49
1.5
 49
-0.75
  0
LTYPE
  2
AM_ISO02W050X2
 70
     0
  3
 _ _ _ _ _ _ _ _ _ _ _ _
 72
    65
 73
     2
 40
3.75
 49
3.0
 49
-0.75
  0
LTYPE
  2
AMZIGZAG
 70
     0
  3
/\/-/\/-/\/-/\/-/\/-/\/
 72
    65
 73
     2
 40
11.0001
 49
0.0001
 49
-11.0
  0
LTYPE
  2
AMZIGZAG2
 70
     0
  3
/\/-/\/-/\/-/\/-/\/-/\/
 72
    65
 73
     2
 40
0.4401
 49
0.0001
 49
-0.4400000000000001
  0
ENDTAB
  0
TABLE
  2
LAYER
 70
     7
  0
LAYER
  2
0
 70
     0
 62
     7
  6
CONTINUOUS
  0
LAYER
  2
240
 70
     0
 62
     4
  6
CONTINUOUS
  0
LAYER
  2
DEFPOINTS
 70
     0
 62
     7
  6
CONTINUOUS
  0
LAYER
  2
245
 70
     0
 62
     2
  6
CENTER2
  0
LAYER
  2
241
 70
     0
 62
   211
  6
CONTINUOUS
  0
LAYER
  2
247
 70
     0
 62
    60
  6
CONTINUOUS
  0
LAYER
  2
250
 70
     0
 62
     3
  6
CONTINUOUS
  0
ENDTAB
  0
TABLE
  2
STYLE
 70
    11
  0
STYLE
  2
STANDARD
 70
     0
 40
0.0
 41
1.0
 50
0.0
 71
     0
 42
3.0
  3
romans.shx
  4
extfont.shx
  0
STYLE
  2
YOKO
 70
     0
 40
0.0
 41
1.0
 50
0.0
 71
     0
 42
3.0
  3
romans.shx
  4
extfont.shx
  0
STYLE
  2
ACISOGDT
 70
     0
 40
0.0
 41
1.0
 50
0.0
 71
     0
 42
3.0
  3
amgdt.shx
  4
extfont.shx
  0
STYLE
  2
ACJISTS
 70
     0
 40
1.0
 41
1.0
 50
0.0
 71
     0
 42
3.0
  3
amgdt.shx
  4
extfont.shx
  0
STYLE
  2
ACANSGDT
 70
     0
 40
0.0
 41
1.0
 50
0.0
 71
     0
 42
0.2
  3
amgdt.shx
  4

  0
STYLE
  2

 70
     1
 40
0.0
 41
1.0
 50
0.0
 71
     0
 42
3.0
  3
genltshp.shx
  4

  0
ENDTAB
  0
TABLE
  2
VIEW
 70
     0
  0
ENDTAB
  0
TABLE
  2
UCS
 70
     0
  0
ENDTAB
  0
TABLE
  2
APPID
 70
    33
  0
APPID
  2
ACAD
 70
     0
  0
APPID
  2
ACADANNOTATIVE
 70
     0
  0
APPID
  2
GLOBAL
 70
     0
  0
APPID
  2
DETAIL
 70
     0
  0
APPID
  2
GRPNAME
 70
     0
  0
APPID
  2
GPARA
 70
     0
  0
APPID
  2
MCAD_NO_VIS
 70
     0
  0
APPID
  2
ACAD_TEMP_GRAPHIC
 70
     0
  0
APPID
  2
ACATTRIBSERVICES
 70
     0
  0
APPID
  2
GENIUS_GENSCREG_15
 70
     0
  0
APPID
  2
GENIUS_GENODEF_13
 70
     0
  0
APPID
  2
GENIUS_GENOBJ-N-SDF_13
 70
     0
  0
APPID
  2
GENIUS_GENREC_14
 70
     0
  0
APPID
  2
GENIUS_GENOBJ-N-REC_13
 70
     0
  0
APPID
  2
GENIUS_GENDIMSH_14
 70
     0
  0
APPID
  2
GENIUS_GENOBJ-N-DIM_13
 70
     0
  0
APPID
  2
GENIUS_GENDIM_13
 70
     0
  0
APPID
  2
GENIUS_GENDTOL_13
 70
     0
  0
APPID
  2
GENIUS_GENOLIS_13
 70
     0
  0
APPID
  2
GENIUS_GENOENT_13
 70
     0
  0
APPID
  2
GENIUS_GENOBJ-F-FEM_13
 70
     0
  0
APPID
  2
GENIUS_GENOREF_13
 70
     0
  0
APPID
  2
GENIUS_GEFFEM_13
 70
     0
  0
APPID
  2
GENIUS_GEFFEMP_13
 70
     0
  0
APPID
  2
AD_DRAW
 70
     0
  0
APPID
  2
DESIGNERASSEMBLIES
 70
     0
  0
APPID
  2
ACADM_DIM_EDIT
 70
     0
  0
APPID
  2
AMDT_DM_ADJ
 70
     0
  0
APPID
  2
ACAD_DSTYLE_DIMBREAK
 70
     0
  0
APPID
  2
ACAD_DSTYLE_DIMJAG
 70
     0
  0
APPID
  2
ACAD_NAV_VCDISPLAY
 70
     0
  0
APPID
  2
GENIUS_GENOBJ-N-FIL_13
 70
     0
  0
APPID
  2
ACAD_MLEADERVER
 70
     0
  0
ENDTAB
  0
TABLE
  2
DIMSTYLE
 70
    31
  0
DIMSTYLE
  2
STANDARD
 70
     0
  3

  4

  5

  6

  7

 40
1.0
 41
0.18
 42
0.0625
 43
0.38
 44
0.18
 45
0.0
 46
0.0
 47
0.0
 48
0.0
140
0.18
141
0.09
142
0.0
143
25.399999999999999
144
1.0
145
0.0
146
1.0
147
0.09
 71
     0
 72
     0
 73
     1
 74
     1
 75
     0
 76
     0
 77
     0
 78
     0
170
     0
171
     2
172
     0
173
     0
174
     0
175
     0
176
     0
177
     0
178
     0
  0
DIMSTYLE
  2
BIGT
 70
     0
  3

  4

  5

  6

  7

 40
1.0
 41
2.2299999999999991
 42
0.5
 43
7.0
 44
1.0
 45
0.0
 46
0.0
 47
0.0
 48
0.01
140
2.799999999999998
141
0.0
142
0.0
143
25.399999999999999
144
1.0
145
0.0
146
1.0
147
1.0
 71
     0
 72
     0
 73
     0
 74
     0
 75
     0
 76
     0
 77
     3
 78
     9
170
     0
171
     2
172
     1
173
     0
174
     1
175
     0
176
   256
177
   256
178
    40
  0
DIMSTYLE
  2
AM_ISO
 70
     0
  3

  4
"
  5

  6

  7

 40
1.0
 41
2.5
 42
1.0
 43
10.0
 44
1.0
 45
0.0
 46
0.0
 47
0.1
 48
0.1
140
3.5
141
0.0
142
0.0
143
0.0393701
144
1.0
145
0.0
146
0.71
147
1.5
 71
     0
 72
     0
 73
     0
 74
     0
 75
     0
 76
     0
 77
     1
 78
     8
170
     0
171
     2
172
     1
173
     0
174
     0
175
     0
176
   256
177
   256
178
     2
  0
DIMSTYLE
  2
AM_ISO$3
 70
     0
  3

  4
"
  5

  6

  7

 40
1.0
 41
2.5
 42
1.0
 43
10.0
 44
1.0
 45
0.0
 46
0.0
 47
0.1
 48
0.1
140
3.5
141
0.0
142
0.0
143
0.0393701
144
1.0
145
0.0
146
0.71
147
1.5
 71
     0
 72
     0
 73
     0
 74
     1
 75
     0
 76
     0
 77
     1
 78
     8
170
     0
171
     2
172
     0
173
     0
174
     0
175
     0
176
   256
177
   256
178
     2
  0
DIMSTYLE
  2
AM_ISO$4
 70
     0
  3

  4
"
  5

  6

  7

 40
1.0
 41
2.5
 42
1.0
 43
10.0
 44
1.0
 45
0.0
 46
0.0
 47
0.1
 48
0.1
140
3.5
141
0.0
142
0.0
143
0.0393701
144
1.0
145
0.0
146
0.71
147
1.5
 71
     0
 72
     0
 73
     0
 74
     1
 75
     0
 76
     0
 77
     1
 78
     8
170
     0
171
     2
172
     0
173
     0
174
     0
175
     0
176
   256
177
   256
178
     2
  0
DIMSTYLE
  2
AM_ISO$6
 70
     0
  3

  4
"
  5

  6

  7

 40
1.0
 41
2.5
 42
1.0
 43
10.0
 44
1.0
 45
0.0
 46
0.0
 47
0.1
 48
0.1
140
3.5
141
0.0
142
0.0
143
0.0393701
144
1.0
145
0.0
146
0.71
147
1.5
 71
     0
 72
     0
 73
     0
 74
     0
 75
     0
 76
     0
 77
     0
 78
     8
170
     0
171
     2
172
     1
173
     0
174
     0
175
     0
176
   256
177
   256
178
     2
  0
DIMSTYLE
  2
AM_ISO$7
 70
     0
  3

  4
"
  5

  6

  7

 40
1.0
 41
2.5
 42
1.0
 43
10.0
 44
1.0
 45
0.0
 46
0.0
 47
0.1
 48
0.1
140
5.0
141
0.0
142
0.0
143
0.0393701
144
1.0
145
0.0
146
0.71
147
1.5
 71
     0
 72
     0
 73
     0
 74
     0
 75
     0
 76
     0
 77
     1
 78
     8
170
     0
171
     2
172
     1
173
     0
174
     0
175
     0
176
   256
177
   256
178
     2
  0
DIMSTYLE
  2
AM_ISO$SF
 70
     0
  3

  4
"
  5

  6

  7

 40
1.0
 41
2.5
 42
1.0
 43
10.0
 44
1.0
 45
0.0
 46
0.0
 47
0.1
 48
0.1
140
3.5
141
0.0
142
0.0
143
0.0393701
144
1.0
145
0.0
146
0.71
147
1.5
 71
     0
 72
     0
 73
     0
 74
     0
 75
     1
 76
     1
 77
     1
 78
     8
170
     0
171
     2
172
     1
173
     0
174
     0
175
     0
176
   256
177
   256
178
     2
  0
DIMSTYLE
  2
AM_ISO$SH
 70
     0
  3

  4
"
  5

  6

  7

 40
1.0
 41
2.5
 42
1.0
 43
10.0
 44
1.0
 45
0.0
 46
0.0
 47
0.1
 48
0.1
140
3.5
141
0.0
142
0.0
143
0.0393701
144
2.0
145
0.0
146
0.71
147
1.5
 71
     0
 72
     0
 73
     0
 74
     0
 75
     1
 76
     1
 77
     1
 78
     8
170
     0
171
     2
172
     1
173
     1
174
     0
175
     0
176
   256
177
   256
178
     2
  0
DIMSTYLE
  2
AM_ANSI
 70
     0
  3

  4
mm
  5

  6

  7

 40
1.0
 41
0.1
 42
0.05
 43
0.5
 44
0.1
 45
0.0
 46
0.0
 47
0.1
 48
0.1
140
0.12
141
0.0
142
0.0
143
25.399999999999999
144
1.0
145
0.0
146
0.71
147
0.06
 71
     0
 72
     0
 73
     1
 74
     1
 75
     0
 76
     0
 77
     0
 78
     7
170
     0
171
     2
172
     0
173
     0
174
     0
175
     0
176
   256
177
   256
178
     2
  0
DIMSTYLE
  2
AM_ANSI$3
 70
     0
  3

  4
mm
  5

  6

  7

 40
1.0
 41
0.1
 42
0.05
 43
0.5
 44
0.1
 45
0.0
 46
0.0
 47
0.1
 48
0.1
140
0.12
141
0.0
142
0.0
143
25.399999999999999
144
1.0
145
0.0
146
0.71
147
0.06
 71
     0
 72
     0
 73
     1
 74
     1
 75
     0
 76
     0
 77
     0
 78
     7
170
     0
171
     2
172
     0
173
     0
174
     0
175
     0
176
   256
177
   256
178
     2
  0
DIMSTYLE
  2
AM_ANSI$4
 70
     0
  3

  4
mm
  5

  6

  7

 40
1.0
 41
0.1
 42
0.05
 43
0.5
 44
0.1
 45
0.0
 46
0.0
 47
0.1
 48
0.1
140
0.12
141
0.0
142
0.0
143
25.399999999999999
144
1.0
145
0.0
146
0.71
147
0.06
 71
     0
 72
     0
 73
     1
 74
     1
 75
     0
 76
     0
 77
     0
 78
     7
170
     0
171
     2
172
     0
173
     0
174
     0
175
     0
176
   256
177
   256
178
     2
  0
DIMSTYLE
  2
AM_ANSI$7
 70
     0
  3

  4
mm
  5

  6

  7

 40
1.0
 41
0.1
 42
0.05
 43
0.5
 44
0.1
 45
0.0
 46
0.0
 47
0.1
 48
0.1
140
0.24
141
0.0
142
0.0
143
25.399999999999999
144
1.0
145
0.0
146
0.71
147
0.06
 71
     0
 72
     0
 73
     1
 74
     1
 75
     0
 76
     0
 77
     0
 78
     7
170
     0
171
     2
172
     0
173
     0
174
     0
175
     0
176
   256
177
   256
178
     2
  0
DIMSTYLE
  2
AM_ANSI$SF
 70
     0
  3

  4
mm
  5

  6

  7

 40
1.0
 41
0.1
 42
0.05
 43
0.5
 44
0.1
 45
0.0
 46
0.0
 47
0.1
 48
0.1
140
0.12
141
0.0
142
0.0
143
25.399999999999999
144
1.0
145
0.0
146
0.71
147
0.06
 71
     0
 72
     0
 73
     1
 74
     1
 75
     1
 76
     1
 77
     0
 78
     7
170
     0
171
     2
172
     0
173
     0
174
     0
175
     0
176
   256
177
   256
178
     2
  0
DIMSTYLE
  2
AM_ANSI$SH
 70
     0
  3

  4
mm
  5

  6

  7

 40
1.0
 41
0.1
 42
0.05
 43
0.5
 44
0.1
 45
0.0
 46
0.0
 47
0.1
 48
0.1
140
0.12
141
0.0
142
0.0
143
25.399999999999999
144
1.0
145
0.0
146
0.71
147
0.06
 71
     0
 72
     0
 73
     1
 74
     1
 75
     1
 76
     1
 77
     0
 78
     7
170
     0
171
     2
172
     0
173
     1
174
     0
175
     0
176
   256
177
   256
178
     2
  0
ENDTAB
  0
ENDSEC
  0
SECTION
  2
BLOCKS
  0
BLOCK
  8
0
  2
$MODEL_SPACE
 70
     0
 10
0.0
 20
0.0
 30
0.0
  3
$MODEL_SPACE
  1

  0
ENDBLK
  5
15EC
  8
0
  0
BLOCK
 67
     1
  8
0
  2
$PAPER_SPACE
 70
     0
 10
0.0
 20
0.0
 30
0.0
  3
$PAPER_SPACE
  1

  0
ENDBLK
  5
15E8
 67
     1
  8
0
  0
BLOCK
  8
0
  2
_OPEN
 70
     0
 10
0.0
 20
0.0
 30
0.0
  3
_OPEN
  1

  0
LINE
  5
595
  8
0
  6
BYBLOCK
 62
     0
 10
-1.0
 20
0.1666666666666666
 30
0.0
 11
0.0
 21
0.0
 31
0.0
  0
LINE
  5
596
  8
0
  6
BYBLOCK
 62
     0
 10
-1.0
 20
-0.1666666666666666
 30
0.0
 11
0.0
 21
0.0
 31
0.0
  0
LINE
  5
597
  8
0
  6
BYBLOCK
 62
     0
 10
0.0
 20
0.0
 30
0.0
 11
-1.0
 21
0.0
 31
0.0
  0
ENDBLK
  5
599
  8
0
  0
BLOCK
  8
0
  2
*U9
 70
     1
 10
0.0
 20
0.0
 30
0.0
  3
*U9
  1

  0
TEXT
  5
1578
  8
250
 10
5.9999999999999991
 20
-9.6907748719712714
 30
0.0
 40
2.799999999999998
  1
\U+2205
 50
90.0
  0
TEXT
  5
1579
  8
250
 10
5.9999999999999991
 20
-7.1574415386379373
 30
0.0
 40
2.799999999999998
  1
4.9ü`6.0
 50
90.0
  0
ENDBLK
  5
157B
  8
0
  0
BLOCK
  8
0
  2
_ACMFILLEDHALF
 70
     0
 10
0.0
 20
0.0
 30
0.0
  3
_ACMFILLEDHALF
  1

  0
TRACE
  5
16AE
  8
240
 62
     0
 10
-0.8
 20
0.0
 30
0.0
 11
-1.0
 21
0.166666666
 31
0.0
 12
0.0
 22
0.0
 32
0.0
 13
0.0
 23
0.0
 33
0.0
  0
LINE
  5
16AF
  8
240
 62
     0
 10
-1.0
 20
0.0
 30
0.0
 11
-0.8
 21
0.0
 31
0.0
  0
ENDBLK
  5
16AD
  8
0
  0
ENDSEC
  0
SECTION
  2
ENTITIES
  0
TEXT
  5
13C2
  8
241
  6
CONTINUOUS
 10
-49.000021908000008
 20
35.0
 30
0.0
 40
5.0
  1
ST7W-EB5-16
  7
YOKO
  0
LINE
  5
14B1
  8
250
  6
CONTINUOUS
 10
0.4500768310000005
 20
2.4499717670000001
 30
0.0
 11
8.0
 21
2.449971766999997
 31
0.0
  0
LINE
  5
14B2
  8
250
  6
CONTINUOUS
 10
7.0
 20
-9.8747115532702434
 30
0.0
 11
7.0000000000000009
 21
6.165323800091258
 31
0.0
  0
INSERT
  5
14B4
  8
250
  6
CONTINUOUS
  2
*U9
 10
0.0
 20
0.0
 30
0.0
  0
LINE
  5
14B5
  8
250
  6
CONTINUOUS
 10
-51.59998590699999
 20
3.7999999999999989
 30
0.0
 11
-51.59998590699999
 21
22.0
 31
0.0
  0
LINE
  5
14B6
  8
250
  6
CONTINUOUS
 10
0.0
 20
0.0
 30
0.0
 11
0.0000000000000013
 21
22.0
 31
0.0
  0
LINE
  5
14B7
  8
250
  6
CONTINUOUS
 10
-49.369985907
 20
21.0
 30
0.0
 11
-2.2299999999999982
 21
21.0
 31
0.0
  0
TEXT
  5
14C1
  8
250
  6
CONTINUOUS
 10
-28.46665962016667
 20
22.0
 30
0.0
 40
2.799999999999998
  1
52
  0
LINE
  5
14C2
  8
250
  6
CONTINUOUS
 10
-2.2299999999999982
 20
21.37166666666667
 30
0.0
 11
0.0000000000000013
 21
21.0
 31
0.0
  0
LINE
  5
14C3
  8
250
  6
CONTINUOUS
 10
-2.2299999999999982
 20
20.62833333333333
 30
0.0
 11
0.0000000000000013
 21
21.0
 31
0.0
  0
LINE
  5
14C4
  8
250
  6
CONTINUOUS
 10
0.0000000000000013
 20
21.0
 30
0.0
 11
-2.2299999999999982
 21
21.0
 31
0.0
  0
LINE
  5
14C5
  8
250
  6
CONTINUOUS
 10
-49.369985907
 20
20.62833333333333
 30
0.0
 11
-51.59998590699999
 21
21.0
 31
0.0
  0
LINE
  5
14C6
  8
250
  6
CONTINUOUS
 10
-49.369985907
 20
21.37166666666667
 30
0.0
 11
-51.59998590699999
 21
21.0
 31
0.0
  0
LINE
  5
14C7
  8
250
  6
CONTINUOUS
 10
-51.59998590699999
 20
21.0
 30
0.0
 11
-49.369985907
 21
21.0
 31
0.0
  0
LINE
  5
14D0
  8
250
  6
CONTINUOUS
 10
7.371666666666667
 20
4.6799717669999961
 30
0.0
 11
7.0
 21
2.449971766999997
 31
0.0
  0
LINE
  5
14D1
  8
250
  6
CONTINUOUS
 10
6.6283333333333321
 20
4.6799717669999961
 30
0.0
 11
7.0
 21
2.449971766999997
 31
0.0
  0
LINE
  5
14D2
  8
250
  6
CONTINUOUS
 10
7.0
 20
2.449971766999997
 30
0.0
 11
7.0
 21
4.6799717669999961
 31
0.0
  0
LINE
  5
1710
  8
245
  6
CENTER2
 10
-52.648473503000012
 20
0.0
 30
0.0
 11
0.8912118400000004
 21
0.0
 31
0.0
  0
LINE
  5
1711
  8
241
  6
CONTINUOUS
 10
-4.4857723449999991
 20
2.1492832900000001
 30
0.0
 11
-4.4857723449999991
 21
-2.1492832900000001
 31
0.0
  0
LINE
  5
1712
  8
240
  6
CONTINUOUS
 10
-0.7249859070000007
 20
-2.1000000000000001
 30
0.0
 11
-0.1822755369999989
 21
-2.1000000000000001
 31
0.0
  0
LINE
  5
1713
  8
240
  6
CONTINUOUS
 10
-0.052911795
 20
1.2889763540000001
 30
0.0
 11
0.0000034299999996
 21
2.4010324419999991
 31
0.0
  0
LINE
  5
1714
  8
240
  6
CONTINUOUS
 10
-0.3911355640000025
 20
2.2712495019999981
 30
0.0
 11
-0.0734594850000008
 21
2.4440754600000001
 31
0.0
  0
LINE
  5
1715
  8
240
  6
CONTINUOUS
 10
-0.001628451000002
 20
2.4127104849999981
 30
0.0
 11
0.0000034299999996
 21
2.4010324419999991
 31
0.0
  0
ARC
  5
1716
  8
240
  6
CONTINUOUS
 10
-0.0499231689999995
 20
2.4000485970000001
 30
0.0
 40
0.04992317
 50
23.25045270199999
 51
118.128509304
  0
LINE
  5
1717
  8
240
  6
CONTINUOUS
 10
-0.004054355000001
 20
2.4197558240000001
 30
0.0
 11
-0.001628451000002
 21
2.4127104849999981
 31
0.0
  0
LINE
  5
1718
  8
240
  6
CONTINUOUS
 10
-0.1822755369999989
 20
-2.1000000000000001
 30
0.0
 11
-0.1584673189999997
 21
-2.099959605
 31
0.0
  0
ARC
  5
1719
  8
240
  6
CONTINUOUS
 10
107.78810651800001
 20
-3.766070381
 30
0.0
 40
107.95943093699999
 50
177.31622537000001
 51
179.11573352600001
  0
LINE
  5
171A
  8
240
  6
CONTINUOUS
 10
-0.7207065700000011
 20
2.089953981999999
 30
0.0
 11
-0.3911355640000025
 21
2.2712495019999981
 31
0.0
  0
LINE
  5
171B
  8
240
  6
CONTINUOUS
 10
-0.7249859070000007
 20
-2.1000560149999981
 30
0.0
 11
-4.4857723449999991
 21
-2.1492832900000001
 31
0.0
  0
ARC
  5
171C
  8
241
  6
CONTINUOUS
 10
-3.968024447085313
 20
55.392934617442457
 30
0.0
 40
57.544547132427432
 50
268.78034831367529
 51
269.48448339432463
  0
ARC
  5
171D
  8
241
  6
CONTINUOUS
 10
-4.9284023169999998
 20
0.0
 30
0.0
 40
2.1548671370000001
 50
97.049951957000076
 51
262.95004804299992
  0
ARC
  5
171E
  8
241
  6
CONTINUOUS
 10
-4.7205005349999993
 20
-5.7027587400000002
 30
0.0
 40
7.8555497179999989
 50
88.287715408999986
 51
93.447452881999965
  0
LINE
  5
171F
  8
240
  6
CONTINUOUS
 10
-4.4857723449999991
 20
2.1492832900000001
 30
0.0
 11
-1.632561349999998
 21
2.1119358350000002
 31
0.0
  0
ARC
  5
1720
  8
240
  6
CONTINUOUS
 10
-0.0865982770000002
 20
47.317980857999999
 30
0.0
 40
45.232471836000002
 50
268.04135369900001
 51
269.19675141300002
  0
LINE
  5
1721
  8
241
  6
CONTINUOUS
 10
-19.599985907000001
 20
-3.5
 30
0.0
 11
-19.599985907000001
 21
3.5
 31
0.0
  0
LINE
  5
1723
  8
240
  6
CONTINUOUS
 10
-51.59998590699999
 20
-3.5
 30
0.0
 11
-51.59998590699999
 21
3.5
 31
0.0
  0
LINE
  5
1724
  8
240
  6
CONTINUOUS
 10
-4.4857723449999991
 20
2.1492832900000001
 30
0.0
 11
-15.999985906999999
 21
2.299999999999998
 31
0.0
  0
LINE
  5
1725
  8
240
  6
CONTINUOUS
 10
-15.999985906999999
 20
-2.299999999999998
 30
0.0
 11
-4.4860003319999997
 21
-2.1492862740000001
 31
0.0
  0
ARC
  5
1726
  8
240
  6
CONTINUOUS
 10
-15.999985906999999
 20
8.3000000000000007
 30
0.0
 40
6.0
 50
233.130102354
 51
270.0
  0
ARC
  5
1727
  8
240
  6
CONTINUOUS
 10
-15.999985906999999
 20
-8.3000000000000007
 30
0.0
 40
6.0
 50
90.0
 51
126.869897646
  0
LINE
  5
1728
  8
240
  6
CONTINUOUS
 10
-19.599985907000001
 20
3.5
 30
0.0
 11
-51.59998590699999
 21
3.5
 31
0.0
  0
LINE
  5
1729
  8
240
  6
CONTINUOUS
 10
-51.59998590699999
 20
-3.5
 30
0.0
 11
-19.599985907000001
 21
-3.5
 31
0.0
  0
LINE
  5
174F
  8
247
  6
CONTINUOUS
 10
-47.349985906999997
 20
-1.4999999999999989
 30
0.0
 11
-42.715370522669993
 21
-1.4999999999999989
 31
0.0
  0
LINE
  5
1750
  8
247
  6
CONTINUOUS
 10
-46.554879406987972
 20
0.9999999999999998
 30
0.0
 11
-47.157044717057339
 21
-1.0999999999160071
 31
0.0
  0
LINE
  5
1751
  8
247
  6
CONTINUOUS
 10
-45.925137310519041
 20
0.0038461538861156
 30
0.0
 11
-46.840521925867023
 21
0.0038461538861156
 31
0.0
  0
ARC
  5
1752
  8
247
  6
CONTINUOUS
 10
-45.687249308946811
 20
0.6152809327059005
 30
0.0
 40
0.3876715809326743
 50
342.99788967529508
 51
82.924166218513577
  0
ARC
  5
1753
  8
247
  6
CONTINUOUS
 10
-45.982463463804137
 20
0.6947768689719851
 30
0.0
 40
0.6933047965358767
 50
274.74293685219902
 51
343.84922627326659
1001
GENIUS_GENOBJ-N-FIL_13
1002
{
1000
OWNER
1000
GEN
1002
}
1001
GENIUS_GENODEF_13
1002
{
1000
HIER
1070
     0
1002
}
1002
{
1000
MANEDIT
1070
     0
1002
}
1002
{
1000
NOSEL
1070
     0
1002
}
1002
{
1000
BEHIND
1070
     0
1002
}
1002
{
1000
OTHER
1070
     0
1002
}
1002
{
1000
REACTOR
1002
}
  0
LINE
  5
1754
  8
247
  6
CONTINUOUS
 10
-46.241660101709357
 20
-1.0999999999160071
 30
0.0
 11
-47.157044717057339
 21
-1.0999999999160071
 31
0.0
  0
LINE
  5
1755
  8
247
  6
CONTINUOUS
 10
-46.554879406987972
 20
0.9999999999999998
 30
0.0
 11
-45.639494791639933
 21
0.9999999999999998
 31
0.0
  0
ARC
  5
1756
  8
247
  6
CONTINUOUS
 10
-45.97829238326684
 20
-0.3874169627679294
 30
0.0
 40
0.394857301075386
 50
335.9909416525216
 51
82.263443459069066
  0
ARC
  5
1757
  8
247
  6
CONTINUOUS
 10
-46.312432517426899
 20
-0.3912003273326263
 30
0.0
 40
0.7123241612361686
 50
275.70198516425648
 51
347.27733843682188
1001
GENIUS_GENOBJ-N-FIL_13
1002
{
1000
OWNER
1000
GEN
1002
}
1001
GENIUS_GENODEF_13
1002
{
1000
HIER
1070
     0
1002
}
1002
{
1000
MANEDIT
1070
     0
1002
}
1002
{
1000
NOSEL
1070
     0
1002
}
1002
{
1000
BEHIND
1070
     0
1002
}
1002
{
1000
OTHER
1070
     0
1002
}
1002
{
1000
REACTOR
1002
}
  0
LINE
  5
1758
  8
247
  6
CONTINUOUS
 10
-45.283967794063379
 20
-1.0999999999160071
 30
0.0
 11
-44.681802483993941
 21
0.9999999999999998
 31
0.0
  0
LINE
  5
1759
  8
247
  6
CONTINUOUS
 10
-43.185648637907967
 20
0.9999999999999998
 30
0.0
 11
-43.581664271303531
 21
0.9999999999999998
 31
0.0
  0
LINE
  5
175A
  8
247
  6
CONTINUOUS
 10
-44.208725560943968
 20
-1.0999999999160071
 30
0.0
 11
-43.77795633019192
 21
-1.0999999999160071
 31
0.0
  0
ARC
  5
175B
  8
247
  6
CONTINUOUS
 10
-42.981802484069959
 20
-0.4582995950834176
 30
0.0
 40
1.576855057639547
 50
112.3594881415293
 51
164.99324854284649
  0
ARC
  5
175C
  8
247
  6
CONTINUOUS
 10
-43.447497273133202
 20
0.4341811414619771
 30
0.0
 40
0.6234706797009447
 50
4.9945893190753488
 51
65.166328957308124
1001
GENIUS_GENOBJ-N-FIL_13
1002
{
1000
OWNER
1000
GEN
1002
}
1001
GENIUS_GENODEF_13
1002
{
1000
HIER
1070
     0
1002
}
1002
{
1000
MANEDIT
1070
     0
1002
}
1002
{
1000
NOSEL
1070
     0
1002
}
1002
{
1000
BEHIND
1070
     0
1002
}
1002
{
1000
OTHER
1070
     0
1002
}
1002
{
1000
REACTOR
1002
}
  0
ARC
  5
175D
  8
247
  6
CONTINUOUS
 10
-44.044169858032738
 20
-0.162102121969383
 30
0.0
 40
0.9749472149106983
 50
285.84609655578407
 51
352.3251370041624
  0
ARC
  5
175E
  8
247
  6
CONTINUOUS
 10
-43.635197545772229
 20
-0.3714704019710098
 30
0.0
 40
0.9271945638692009
 50
159.7136016704896
 51
231.78874565641519
1001
GENIUS_GENOBJ-N-FIL_13
1002
{
1000
OWNER
1000
GEN
1002
}
1001
GENIUS_GENODEF_13
1002
{
1000
HIER
1070
     0
1002
}
1002
{
1000
MANEDIT
1070
     0
1002
}
1002
{
1000
NOSEL
1070
     0
1002
}
1002
{
1000
BEHIND
1070
     0
1002
}
1002
{
1000
OTHER
1070
     0
1002
}
1002
{
1000
REACTOR
1002
}
  0
LINE
  5
175F
  8
247
  6
CONTINUOUS
 10
-43.562571714815959
 20
-0.2923076922559176
 30
0.0
 11
-43.077956330219969
 21
-0.2923076922559176
 31
0.0
  0
ARC
  5
1760
  8
247
  6
CONTINUOUS
 10
-47.349985906999997
 20
-0.25
 30
0.0
 40
1.25
 50
90.0
 51
270.0
  0
LINE
  5
1761
  8
247
  6
CONTINUOUS
 10
-47.349985906999997
 20
0.9999999999999998
 30
0.0
 11
-46.90383206091397
 21
0.9999999999999998
 31
0.0
  0
ARC
  5
1762
  8
247
  6
CONTINUOUS
 10
-42.715370522669993
 20
-0.25
 30
0.0
 40
1.25
 50
270.0
 51
90.0
  0
LINE
  5
1763
  8
250
  6
CONTINUOUS
 10
-55.611938274232791
 20
-11.92225881136414
 30
0.0
 11
-43.862209666810692
 21
-11.92225881136414
 31
0.0
  0
LINE
  5
1764
  8
250
  6
CONTINUOUS
 10
-43.862209666810692
 20
-11.92225881136414
 30
0.0
 11
-40.190653814276949
 21
-5.4403456717494691
 31
0.0
  0
LINE
  5
1765
  8
250
  6
CONTINUOUS
 10
-40.190653814276949
 20
-5.4403456717494691
 30
0.0
 11
-39.091582081348157
 21
-3.5
 31
0.0
  0
LINE
  5
1766
  8
250
  6
CONTINUOUS
 10
-39.935202461547973
 20
-5.5850412097717017
 30
0.0
 11
-39.091582081348157
 21
-3.5
 31
0.0
  0
LINE
  5
1767
  8
250
  6
CONTINUOUS
 10
-39.091582081348157
 20
-3.5
 30
0.0
 11
-40.446105167005932
 21
-5.2956501337272348
 31
0.0
  0
TEXT
  5
1768
  8
250
  6
CONTINUOUS
 10
-55.369127653933027
 20
-10.52225881136417
 30
0.0
 40
2.7999999999999989
  1
ST7W
  7
ACJISTS
  0
VIEWPORT
  5
22
 67
     1
  8
0
 10
261.51769911504419
 20
148.5
 30
0.0
 40
523.0353982300885
 41
297.0
 68
     1
 69
     1
1001
ACAD
1000
MVIEW
1002
{
1070
    16
1010
0.0
1020
0.0
1030
0.0
1010
0.0
1020
0.0
1030
1.0
1040
0.0
1040
297.0
1040
261.51769911504419
1040
148.5
1040
50.0
1040
0.0
1040
0.0
1070
     0
1070
   100
1070
     1
1070
     1
1070
     0
1070
     0
1070
     0
1070
     0
1040
0.0
1040
0.0
1040
0.0
1040
1.0
1040
1.0
1040
10.0
1040
10.0
1070
     0
1002
{
1002
}
1002
}
1001
GENIUS_GENODEF_13
1002
{
1000
HIER
1070
     0
1002
}
1002
{
1000
MANEDIT
1070
     0
1002
}
1002
{
1000
NOSEL
1070
     0
1002
}
1002
{
1000
BEHIND
1070
     0
1002
}
1002
{
1000
OTHER
1070
     0
1002
}
1002
{
1000
REACTOR
1002
}
1001
GENIUS_GENOBJ-N-SDF_13
1002
{
1000
OWNER
1000
GEN
1002
}
1001
GENIUS_GENSCREG_15
1000
PF
1040
1.0
1000
DF
1040
1.0
1000
MIN
1011
0.0
1021
0.0
1031
0.0
1021
0.0
1031
0.0
1000
MAX
1011
523.0353982300885
1021
0.0
1031
0.0
1021
297.0
1031
0.0
1000
FLAGS
1070
     4
  0
ENDSEC
  0
EOF
