  0
SECTION
  2
HEADER
  9
$ACADVER
  1
AC1009
  9
$INSBASE
 10
0.0
 20
0.0
 30
0.0
  9
$EXTMIN
 10
-66.799999999999983
 20
-11.92225881136414
 30
0.0
  9
$EXTMAX
 10
8.0
 20
40.0
 30
0.0
  9
$LIMMIN
 10
0.0
 20
0.0
  9
$LIMMAX
 10
297.0
 20
210.0
  9
$ORTHOMODE
 70
     1
  9
$REGENMODE
 70
     1
  9
$FILLMODE
 70
     1
  9
$QTEXTMODE
 70
     0
  9
$MIRRTEXT
 70
     1
  9
$DRAGMODE
 70
     2
  9
$LTSCALE
 40
10.0
  9
$OSMODE
 70
    45
  9
$ATTMODE
 70
     1
  9
$TEXTSIZE
 40
3.0
  9
$TRACEWID
 40
1.0
  9
$TEXTSTYLE
  7
YOKO
  9
$CLAYER
  8
240
  9
$CELTYPE
  6
BYLAYER
  9
$CECOLOR
 62
   256
  9
$DIMSCALE
 40
1.0
  9
$DIMASZ
 40
2.2299999999999991
  9
$DIMEXO
 40
0.5
  9
$DIMDLI
 40
7.0
  9
$DIMRND
 40
0.0
  9
$DIMDLE
 40
0.0
  9
$DIMEXE
 40
1.0
  9
$DIMTP
 40
0.0
  9
$DIMTM
 40
0.01
  9
$DIMTXT
 40
2.799999999999998
  9
$DIMCEN
 40
0.0
  9
$DIMTSZ
 40
0.0
  9
$DIMTOL
 70
     0
  9
$DIMLIM
 70
     0
  9
$DIMTIH
 70
     0
  9
$DIMTOH
 70
     0
  9
$DIMSE1
 70
     0
  9
$DIMSE2
 70
     0
  9
$DIMTAD
 70
     3
  9
$DIMZIN
 70
     9
  9
$DIMBLK
  1
OPEN
  9
$DIMASO
 70
     1
  9
$DIMSHO
 70
     1
  9
$DIMPOST
  1

  9
$DIMAPOST
  1

  9
$DIMALT
 70
     0
  9
$DIMALTD
 70
     2
  9
$DIMALTF
 40
25.399999999999999
  9
$DIMLFAC
 40
1.0
  9
$DIMTOFL
 70
     1
  9
$DIMTVP
 40
0.0
  9
$DIMTIX
 70
     1
  9
$DIMSOXD
 70
     0
  9
$DIMSAH
 70
     0
  9
$DIMBLK1
  1

  9
$DIMBLK2
  1

  9
$DIMSTYLE
  2
BIGT
  9
$DIMCLRD
 70
   256
  9
$DIMCLRE
 70
   256
  9
$DIMCLRT
 70
    40
  9
$DIMTFAC
 40
1.0
  9
$DIMGAP
 40
1.0
  9
$LUNITS
 70
     2
  9
$LUPREC
 70
     3
  9
$SKETCHINC
 40
1.0
  9
$FILLETRAD
 40
0.0
  9
$AUNITS
 70
     0
  9
$AUPREC
 70
     3
  9
$MENU
  1
.
  9
$ELEVATION
 40
0.0
  9
$PELEVATION
 40
0.0
  9
$THICKNESS
 40
0.0
  9
$LIMCHECK
 70
     0
  9
$BLIPMODE
 70
     0
  9
$CHAMFERA
 40
0.25
  9
$CHAMFERB
 40
0.25
  9
$SKPOLY
 70
     0
  9
$TDCREATE
 40
2454804.4756629281
  9
$TDUPDATE
 40
2457857.4415605669
  9
$TDINDWG
 40
0.0133887153
  9
$TDUSRTIMER
 40
0.0133887037
  9
$USRTIMER
 70
     1
  9
$ANGBASE
 50
0.0
  9
$ANGDIR
 70
     0
  9
$PDMODE
 70
     1
  9
$PDSIZE
 40
0.0
  9
$PLINEWID
 40
0.0
  9
$COORDS
 70
     1
  9
$SPLFRAME
 70
     0
  9
$SPLINETYPE
 70
     6
  9
$SPLINESEGS
 70
     4
  9
$ATTDIA
 70
     1
  9
$ATTREQ
 70
     1
  9
$HANDLING
 70
     1
  9
$HANDSEED
  5
1841
  9
$SURFTAB1
 70
     6
  9
$SURFTAB2
 70
     6
  9
$SURFTYPE
 70
     6
  9
$SURFU
 70
     6
  9
$SURFV
 70
     6
  9
$UCSNAME
  2

  9
$UCSORG
 10
0.0
 20
0.0
 30
0.0
  9
$UCSXDIR
 10
1.0
 20
0.0
 30
0.0
  9
$UCSYDIR
 10
0.0
 20
1.0
 30
0.0
  9
$PUCSNAME
  2

  9
$PUCSORG
 10
0.0
 20
0.0
 30
0.0
  9
$PUCSXDIR
 10
1.0
 20
0.0
 30
0.0
  9
$PUCSYDIR
 10
0.0
 20
1.0
 30
0.0
  9
$USERI1
 70
     1
  9
$USERI2
 70
     0
  9
$USERI3
 70
     0
  9
$USERI4
 70
     0
  9
$USERI5
 70
     0
  9
$USERR1
 40
0.0
  9
$USERR2
 40
0.0
  9
$USERR3
 40
0.0
  9
$USERR4
 40
0.0
  9
$USERR5
 40
0.0
  9
$WORLDVIEW
 70
     1
  9
$SHADEDGE
 70
     3
  9
$SHADEDIF
 70
    70
  9
$TILEMODE
 70
     1
  9
$MAXACTVP
 70
    16
  9
$PLIMCHECK
 70
     0
  9
$PEXTMIN
 10
1.0000000000000000E+020
 20
1.0000000000000000E+020
 30
1.0000000000000000E+020
  9
$PEXTMAX
 10
-1.0000000000000000E+020
 20
-1.0000000000000000E+020
 30
-1.0000000000000000E+020
  9
$PLIMMIN
 10
0.0
 20
0.0
  9
$PLIMMAX
 10
420.0
 20
297.0
  9
$UNITMODE
 70
     0
  9
$VISRETAIN
 70
     1
  9
$PLINEGEN
 70
     0
  9
$PSLTSCALE
 70
     1
  0
ENDSEC
  0
SECTION
  2
TABLES
  0
TABLE
  2
VPORT
 70
     1
  0
VPORT
  2
*ACTIVE
 70
     0
 10
0.0
 20
0.0
 11
1.0
 21
1.0
 12
-14.75177573149649
 22
14.936870612200799
 13
0.0
 23
0.0
 14
7.0
 24
7.0
 15
7.0
 25
7.0
 16
0.0
 26
0.0
 36
1.0
 17
0.0
 27
0.0
 37
0.0
 40
83.139871050827495
 41
1.6353340883352201
 42
50.0
 43
0.0
 44
0.0
 50
0.0
 51
0.0
 71
     0
 72
  2000
 73
     1
 74
     0
 75
     0
 76
     1
 77
     0
 78
     0
  0
ENDTAB
  0
TABLE
  2
LTYPE
 70
    21
  0
LTYPE
  2
CONTINUOUS
 70
     0
  3
Solid line
 72
    65
 73
     0
 40
0.0
  0
LTYPE
  2
CENTER2
 70
     0
  3
___ _ ___ _ ___ _ ___ _ ___ _ ___ _ ___ _ ___ _
 72
    65
 73
     4
 40
1.125
 49
0.75
 49
-0.125
 49
0.125
 49
-0.125
  0
LTYPE
  2
HIDDEN2
 70
     0
  3
_ _ _ _ _ _ _ _ _ _ _ _ _ _ _ _ _ _ _ _ _ _ _ _
 72
    65
 73
     2
 40
0.1875
 49
0.125
 49
-0.0625
  0
LTYPE
  2
PHANTOM2
 70
     0
  3
___ _ _ ___ _ _ ___ _ _ ___ _ _ ___ _ _ ___ _ _
 72
    65
 73
     6
 40
1.25
 49
0.625
 49
-0.125
 49
0.125
 49
-0.125
 49
0.125
 49
-0.125
  0
LTYPE
  2
CENTER
 70
     0
  3
____ _ ____ _ ____ _ ____ _ ____ _ ____ _ ____ 
 72
    65
 73
     4
 40
2.0
 49
1.25
 49
-0.25
 49
0.25
 49
-0.25
  0
LTYPE
  2
AMCONSTR
 70
     0
  3
_______________________
 72
    65
 73
     2
 40
9999.0
 49
9999.0
 49
0.0
  0
LTYPE
  2
HIDDEN
 70
     0
  3
Hidden __ __ __ __ __ __ __ __ __ __ __ __ __ _
 72
    65
 73
     2
 40
9.5249999999999986
 49
6.3499999999999979
 49
-3.174999999999998
  0
LTYPE
  2
ACANSTGB
 70
     0
  3
__ . . __ . .
 72
    65
 73
     6
 40
0.35433070866
 49
0.15748031496
 49
-0.03937007874
 49
0.03937007874
 49
-0.03937007874
 49
0.03937007874
 49
-0.03937007874
  0
LTYPE
  2
ACANSTGL
 70
     0
  3
_ _ _ _ _
 72
    65
 73
     2
 40
0.11811023622
 49
0.07874015748
 49
-0.03937007874
  0
LTYPE
  2
AMZIGZAG2
 70
     0
  3
/\/-/\/-/\/-/\/-/\/-/\/
 72
    65
 73
     2
 40
0.4401
 49
0.0001
 49
-0.4400000000000001
  0
ENDTAB
  0
TABLE
  2
LAYER
 70
     8
  0
LAYER
  2
0
 70
     0
 62
     7
  6
CONTINUOUS
  0
LAYER
  2
240
 70
     0
 62
     4
  6
CONTINUOUS
  0
LAYER
  2
DEFPOINTS
 70
     0
 62
     7
  6
CONTINUOUS
  0
LAYER
  2
245
 70
     0
 62
     2
  6
CENTER2
  0
LAYER
  2
241
 70
     0
 62
   211
  6
CONTINUOUS
  0
LAYER
  2
247
 70
     0
 62
    60
  6
CONTINUOUS
  0
LAYER
  2
250
 70
     0
 62
     3
  6
CONTINUOUS
  0
ENDTAB
  0
TABLE
  2
STYLE
 70
    10
  0
STYLE
  2
STANDARD
 70
     0
 40
0.0
 41
1.0
 50
0.0
 71
     0
 42
3.0
  3
romans.shx
  4
extfont.shx
  0
STYLE
  2
YOKO
 70
     0
 40
0.0
 41
1.0
 50
0.0
 71
     0
 42
3.0
  3
romans.shx
  4
extfont.shx
  0
STYLE
  2
ACJISTS
 70
     0
 40
1.0
 41
1.0
 50
0.0
 71
     0
 42
3.0
  3
amgdt.shx
  4
extfont.shx
  0
STYLE
  2
ACANSGDT
 70
     0
 40
0.0
 41
1.0
 50
0.0
 71
     0
 42
0.2
  3
amgdt.shx
  4

  0
STYLE
  2

 70
     1
 40
0.0
 41
1.0
 50
0.0
 71
     0
 42
3.0
  3
genltshp.shx
  4

  0
ENDTAB
  0
TABLE
  2
VIEW
 70
     0
  0
ENDTAB
  0
TABLE
  2
UCS
 70
     0
  0
ENDTAB
  0
TABLE
  2
APPID
 70
    33
  0
APPID
  2
ACAD
 70
     0
  0
APPID
  2
ACADANNOTATIVE
 70
     0
  0
APPID
  2
GLOBAL
 70
     0
  0
APPID
  2
DETAIL
 70
     0
  0
APPID
  2
GRPNAME
 70
     0
  0
APPID
  2
GPARA
 70
     0
  0
APPID
  2
MCAD_NO_VIS
 70
     0
  0
APPID
  2
ACAD_TEMP_GRAPHIC
 70
     0
  0
APPID
  2
ACATTRIBSERVICES
 70
     0
  0
APPID
  2
GENIUS_GENSCREG_15
 70
     0
  0
APPID
  2
GENIUS_GENODEF_13
 70
     0
  0
APPID
  2
GENIUS_GENOBJ-N-SDF_13
 70
     0
  0
APPID
  2
GENIUS_GENREC_14
 70
     0
  0
APPID
  2
GENIUS_GENOBJ-N-REC_13
 70
     0
  0
APPID
  2
GENIUS_GENDIMSH_14
 70
     0
  0
APPID
  2
GENIUS_GENOBJ-N-DIM_13
 70
     0
  0
APPID
  2
GENIUS_GENDIM_13
 70
     0
  0
APPID
  2
GENIUS_GENDTOL_13
 70
     0
  0
APPID
  2
GENIUS_GENOLIS_13
 70
     0
  0
APPID
  2
GENIUS_GENOENT_13
 70
     0
  0
APPID
  2
GENIUS_GENOBJ-F-FEM_13
 70
     0
  0
APPID
  2
GENIUS_GENOREF_13
 70
     0
  0
APPID
  2
GENIUS_GEFFEM_13
 70
     0
  0
APPID
  2
GENIUS_GEFFEMP_13
 70
     0
  0
APPID
  2
AD_DRAW
 70
     0
  0
APPID
  2
DESIGNERASSEMBLIES
 70
     0
  0
APPID
  2
ACADM_DIM_EDIT
 70
     0
  0
APPID
  2
AMDT_DM_ADJ
 70
     0
  0
APPID
  2
ACAD_DSTYLE_DIMBREAK
 70
     0
  0
APPID
  2
ACAD_DSTYLE_DIMJAG
 70
     0
  0
APPID
  2
ACAD_NAV_VCDISPLAY
 70
     0
  0
APPID
  2
GENIUS_GENOBJ-N-FIL_13
 70
     0
  0
APPID
  2
ACAD_MLEADERVER
 70
     0
  0
ENDTAB
  0
TABLE
  2
DIMSTYLE
 70
    31
  0
DIMSTYLE
  2
STANDARD
 70
     0
  3

  4

  5

  6

  7

 40
1.0
 41
0.18
 42
0.0625
 43
0.38
 44
0.18
 45
0.0
 46
0.0
 47
0.0
 48
0.0
140
0.18
141
0.09
142
0.0
143
25.399999999999999
144
1.0
145
0.0
146
1.0
147
0.09
 71
     0
 72
     0
 73
     1
 74
     1
 75
     0
 76
     0
 77
     0
 78
     0
170
     0
171
     2
172
     0
173
     0
174
     0
175
     0
176
     0
177
     0
178
     0
  0
DIMSTYLE
  2
BIGT
 70
     0
  3

  4

  5

  6

  7

 40
1.0
 41
2.2299999999999991
 42
0.5
 43
7.0
 44
1.0
 45
0.0
 46
0.0
 47
0.0
 48
0.01
140
2.799999999999998
141
0.0
142
0.0
143
25.399999999999999
144
1.0
145
0.0
146
1.0
147
1.0
 71
     0
 72
     0
 73
     0
 74
     0
 75
     0
 76
     0
 77
     3
 78
     9
170
     0
171
     2
172
     1
173
     0
174
     1
175
     0
176
   256
177
   256
178
    40
  0
DIMSTYLE
  2
AM_ANSI
 70
     0
  3

  4
mm
  5

  6

  7

 40
1.0
 41
0.1
 42
0.05
 43
0.5
 44
0.1
 45
0.0
 46
0.0
 47
0.1
 48
0.1
140
0.12
141
0.0
142
0.0
143
25.399999999999999
144
1.0
145
0.0
146
0.71
147
0.06
 71
     0
 72
     0
 73
     1
 74
     1
 75
     0
 76
     0
 77
     0
 78
     7
170
     0
171
     2
172
     0
173
     0
174
     0
175
     0
176
   256
177
   256
178
     2
  0
DIMSTYLE
  2
AM_ANSI$3
 70
     0
  3

  4
mm
  5

  6

  7

 40
1.0
 41
0.1
 42
0.05
 43
0.5
 44
0.1
 45
0.0
 46
0.0
 47
0.1
 48
0.1
140
0.12
141
0.0
142
0.0
143
25.399999999999999
144
1.0
145
0.0
146
0.71
147
0.06
 71
     0
 72
     0
 73
     1
 74
     1
 75
     0
 76
     0
 77
     0
 78
     7
170
     0
171
     2
172
     0
173
     0
174
     0
175
     0
176
   256
177
   256
178
     2
  0
DIMSTYLE
  2
AM_ANSI$4
 70
     0
  3

  4
mm
  5

  6

  7

 40
1.0
 41
0.1
 42
0.05
 43
0.5
 44
0.1
 45
0.0
 46
0.0
 47
0.1
 48
0.1
140
0.12
141
0.0
142
0.0
143
25.399999999999999
144
1.0
145
0.0
146
0.71
147
0.06
 71
     0
 72
     0
 73
     1
 74
     1
 75
     0
 76
     0
 77
     0
 78
     7
170
     0
171
     2
172
     0
173
     0
174
     0
175
     0
176
   256
177
   256
178
     2
  0
DIMSTYLE
  2
AM_ANSI$7
 70
     0
  3

  4
mm
  5

  6

  7

 40
1.0
 41
0.1
 42
0.05
 43
0.5
 44
0.1
 45
0.0
 46
0.0
 47
0.1
 48
0.1
140
0.24
141
0.0
142
0.0
143
25.399999999999999
144
1.0
145
0.0
146
0.71
147
0.06
 71
     0
 72
     0
 73
     1
 74
     1
 75
     0
 76
     0
 77
     0
 78
     7
170
     0
171
     2
172
     0
173
     0
174
     0
175
     0
176
   256
177
   256
178
     2
  0
DIMSTYLE
  2
AM_ANSI$SF
 70
     0
  3

  4
mm
  5

  6

  7

 40
1.0
 41
0.1
 42
0.05
 43
0.5
 44
0.1
 45
0.0
 46
0.0
 47
0.1
 48
0.1
140
0.12
141
0.0
142
0.0
143
25.399999999999999
144
1.0
145
0.0
146
0.71
147
0.06
 71
     0
 72
     0
 73
     1
 74
     1
 75
     1
 76
     1
 77
     0
 78
     7
170
     0
171
     2
172
     0
173
     0
174
     0
175
     0
176
   256
177
   256
178
     2
  0
DIMSTYLE
  2
AM_ANSI$SH
 70
     0
  3

  4
mm
  5

  6

  7

 40
1.0
 41
0.1
 42
0.05
 43
0.5
 44
0.1
 45
0.0
 46
0.0
 47
0.1
 48
0.1
140
0.12
141
0.0
142
0.0
143
25.399999999999999
144
1.0
145
0.0
146
0.71
147
0.06
 71
     0
 72
     0
 73
     1
 74
     1
 75
     1
 76
     1
 77
     0
 78
     7
170
     0
171
     2
172
     0
173
     1
174
     0
175
     0
176
   256
177
   256
178
     2
  0
ENDTAB
  0
ENDSEC
  0
SECTION
  2
BLOCKS
  0
BLOCK
  8
0
  2
$MODEL_SPACE
 70
     0
 10
0.0
 20
0.0
 30
0.0
  3
$MODEL_SPACE
  1

  0
ENDBLK
  5
16A7
  8
0
  0
BLOCK
 67
     1
  8
0
  2
$PAPER_SPACE
 70
     0
 10
0.0
 20
0.0
 30
0.0
  3
$PAPER_SPACE
  1

  0
ENDBLK
  5
16A3
 67
     1
  8
0
  0
BLOCK
  8
0
  2
_OPEN
 70
     0
 10
0.0
 20
0.0
 30
0.0
  3
_OPEN
  1

  0
LINE
  5
595
  8
0
  6
BYBLOCK
 62
     0
 10
-1.0
 20
0.1666666666666666
 30
0.0
 11
0.0
 21
0.0
 31
0.0
  0
LINE
  5
596
  8
0
  6
BYBLOCK
 62
     0
 10
-1.0
 20
-0.1666666666666666
 30
0.0
 11
0.0
 21
0.0
 31
0.0
  0
LINE
  5
597
  8
0
  6
BYBLOCK
 62
     0
 10
0.0
 20
0.0
 30
0.0
 11
-1.0
 21
0.0
 31
0.0
  0
ENDBLK
  5
599
  8
0
  0
BLOCK
  8
0
  2
*U9
 70
     1
 10
0.0
 20
0.0
 30
0.0
  3
*U9
  1

  0
TEXT
  5
162F
  8
250
 10
6.0
 20
-10.42457071855088
 30
0.0
 40
2.799999999999998
  1
\U+2205
 50
90.0
  0
TEXT
  5
1630
  8
250
 10
6.0
 20
-7.8912373852175612
 30
0.0
 40
2.799999999999998
  1
2.9ü`4.0
 50
90.0
  0
ENDBLK
  5
1632
  8
0
  0
BLOCK
  8
0
  2
_ACMFILLEDHALF
 70
     0
 10
0.0
 20
0.0
 30
0.0
  3
_ACMFILLEDHALF
  1

  0
TRACE
  5
176C
  8
240
 62
     0
 10
-0.8
 20
0.0
 30
0.0
 11
-1.0
 21
0.166666666
 31
0.0
 12
0.0
 22
0.0
 32
0.0
 13
0.0
 23
0.0
 33
0.0
  0
LINE
  5
176D
  8
240
 62
     0
 10
-1.0
 20
0.0
 30
0.0
 11
-0.8
 21
0.0
 31
0.0
  0
ENDBLK
  5
176B
  8
0
  0
ENDSEC
  0
SECTION
  2
ENTITIES
  0
TEXT
  5
1414
  8
241
  6
CONTINUOUS
 10
-49.000012141999989
 20
35.0
 30
0.0
 40
5.0
  1
ST7W-EB3-10
  7
YOKO
  0
LINE
  5
158A
  8
250
  6
CONTINUOUS
 10
0.4501299900000008
 20
1.449952278999999
 30
0.0
 11
8.0
 21
1.4499522789999959
 31
0.0
  0
LINE
  5
158B
  8
250
  6
CONTINUOUS
 10
7.0
 20
3.679952278999997
 30
0.0
 11
7.0
 21
5.9099522789999961
 31
0.0
  0
LINE
  5
158C
  8
250
  6
CONTINUOUS
 10
7.0
 20
5.0424694506847203
 30
0.0
 11
7.0
 21
1.449952278999997
 31
0.0
  0
INSERT
  5
158D
  8
250
  6
CONTINUOUS
  2
*U9
 10
0.0
 20
0.0
 30
0.0
  0
LINE
  5
158E
  8
250
  6
CONTINUOUS
 10
7.0
 20
-10.8649089766794
 30
0.0
 11
7.0
 21
1.449952278999997
 31
0.0
  0
LINE
  5
15A0
  8
250
  6
CONTINUOUS
 10
-51.599976140999992
 20
3.7999999999999989
 30
0.0
 11
-51.599976140999992
 21
22.0
 31
0.0
  0
LINE
  5
15A1
  8
250
  6
CONTINUOUS
 10
0.0000131950000011
 20
0.0
 30
0.0
 11
0.0000131950000024
 21
22.0
 31
0.0
  0
LINE
  5
15A2
  8
250
  6
CONTINUOUS
 10
-49.369976141000002
 20
21.0
 30
0.0
 11
-2.2299868049999958
 21
21.0
 31
0.0
  0
LINE
  5
15A6
  8
250
  6
CONTINUOUS
 10
7.371666666666667
 20
3.679952278999997
 30
0.0
 11
7.0
 21
1.449952278999997
 31
0.0
  0
LINE
  5
15A7
  8
250
  6
CONTINUOUS
 10
6.6283333333333321
 20
3.679952278999997
 30
0.0
 11
7.0
 21
1.449952278999997
 31
0.0
  0
LINE
  5
15A8
  8
250
  6
CONTINUOUS
 10
7.0
 20
1.449952278999997
 30
0.0
 11
7.0
 21
3.679952278999997
 31
0.0
  0
TEXT
  5
15B7
  8
250
  6
CONTINUOUS
 10
-28.46664813966667
 20
22.0
 30
0.0
 40
2.799999999999998
  1
52
  0
LINE
  5
15B8
  8
250
  6
CONTINUOUS
 10
-2.2299868049999958
 20
21.37166666666667
 30
0.0
 11
0.0000131950000024
 21
21.0
 31
0.0
  0
LINE
  5
15B9
  8
250
  6
CONTINUOUS
 10
-2.2299868049999958
 20
20.62833333333333
 30
0.0
 11
0.0000131950000024
 21
21.0
 31
0.0
  0
LINE
  5
15BA
  8
250
  6
CONTINUOUS
 10
0.0000131950000024
 20
21.0
 30
0.0
 11
-2.2299868049999958
 21
21.0
 31
0.0
  0
LINE
  5
15BB
  8
250
  6
CONTINUOUS
 10
-49.369976141000002
 20
20.62833333333333
 30
0.0
 11
-51.599976140999992
 21
21.0
 31
0.0
  0
LINE
  5
15BC
  8
250
  6
CONTINUOUS
 10
-49.369976141000002
 20
21.37166666666667
 30
0.0
 11
-51.599976140999992
 21
21.0
 31
0.0
  0
LINE
  5
15BD
  8
250
  6
CONTINUOUS
 10
-51.599976140999992
 20
21.0
 30
0.0
 11
-49.369976141000002
 21
21.0
 31
0.0
  0
LINE
  5
178E
  8
240
  6
CONTINUOUS
 10
-51.599976140999992
 20
-3.5
 30
0.0
 11
-51.599976140999992
 21
3.5
 31
0.0
  0
LINE
  5
1790
  8
245
  6
CENTER2
 10
-52.751260586000001
 20
0.0
 30
0.0
 11
0.7411379910000023
 21
0.0
 31
0.0
  0
LINE
  5
1791
  8
240
  6
CONTINUOUS
 10
-51.599976140999992
 20
-3.5
 30
0.0
 11
-14.643250847999999
 21
-3.5
 31
0.0
  0
LINE
  5
1792
  8
240
  6
CONTINUOUS
 10
-14.643250847999999
 20
3.5
 30
0.0
 11
-51.599976140999992
 21
3.5
 31
0.0
  0
ARC
  5
1793
  8
240
  6
CONTINUOUS
 10
-9.9999761409999994
 20
-7.2999999999999989
 30
0.0
 40
6.0
 50
90.0
 51
140.70351976099991
  0
ARC
  5
1794
  8
240
  6
CONTINUOUS
 10
-9.9999761409999994
 20
7.2999999999999989
 30
0.0
 40
6.0
 50
219.29648023900009
 51
270.0
  0
LINE
  5
1795
  8
240
  6
CONTINUOUS
 10
-9.9999761409999994
 20
-1.3
 30
0.0
 11
-2.4860290819999982
 21
-1.179755243
 31
0.0
  0
LINE
  5
1796
  8
240
  6
CONTINUOUS
 10
-2.485762578999998
 20
1.179750979
 30
0.0
 11
-9.9999761409999994
 21
1.3
 31
0.0
  0
LINE
  5
1797
  8
241
  6
CONTINUOUS
 10
-14.643250847999999
 20
-3.5
 30
0.0
 11
-14.643250847999999
 21
3.5
 31
0.0
  0
LINE
  5
1798
  8
240
  6
CONTINUOUS
 10
-0.9706764999999995
 20
1.1555052450000001
 30
0.0
 11
-0.6266604809999983
 21
1.1449347469999991
 31
0.0
  0
LINE
  5
1799
  8
240
  6
CONTINUOUS
 10
-2.485762578999998
 20
1.179750979
 30
0.0
 11
-0.9706764999999995
 21
1.1555052450000001
 31
0.0
  0
ARC
  5
179A
  8
241
  6
CONTINUOUS
 10
-2.6442265509999991
 20
-4.2944255609999988
 30
0.0
 40
5.4764696309999987
 50
88.341890873999944
 51
95.749641769000064
  0
ARC
  5
179B
  8
241
  6
CONTINUOUS
 10
-2.9191535109999962
 20
0.0
 30
0.0
 40
1.1864964650000001
 50
103.3378461929999
 51
256.6621538070001
  0
ARC
  5
179C
  8
241
  6
CONTINUOUS
 10
-2.4937892894228271
 20
8.5059314891068478
 30
0.0
 40
9.6856857936087781
 50
265.86098525717489
 51
270.04748210082488
  0
LINE
  5
179D
  8
240
  6
CONTINUOUS
 10
-0.6349761409999993
 20
-1.1501330739999991
 30
0.0
 11
-2.485762578999998
 21
-1.179750979
 31
0.0
  0
ARC
  5
179E
  8
240
  6
CONTINUOUS
 10
-10.481308198000001
 20
19.899707849999999
 30
0.0
 40
21.186212398999999
 50
297.71956673900007
 51
298.98352099499988
  0
ARC
  5
179F
  8
240
  6
CONTINUOUS
 10
72.343407972999984
 20
-2.5680740310000001
 30
0.0
 40
72.450304551000002
 50
177.318464444
 51
178.877968772
  0
LINE
  5
17A0
  8
240
  6
CONTINUOUS
 10
-0.1768273809999989
 20
-1.149999999999999
 30
0.0
 11
-0.093004698999998
 21
-1.1493603119999991
 31
0.0
  0
ARC
  5
17A1
  8
240
  6
CONTINUOUS
 10
-0.0498700099999994
 20
1.4000822690000001
 30
0.0
 40
0.04987001
 50
23.234588559999981
 51
118.2177273839999
  0
LINE
  5
17A2
  8
240
  6
CONTINUOUS
 10
-0.0040445899999995
 20
1.4197558240000001
 30
0.0
 11
-0.0016186850000004
 21
1.4127104850000001
 31
0.0
  0
LINE
  5
17A3
  8
240
  6
CONTINUOUS
 10
-0.0016186850000004
 20
1.4127104850000001
 30
0.0
 11
0.0000131950000011
 21
1.401032418
 31
0.0
  0
LINE
  5
17A4
  8
240
  6
CONTINUOUS
 10
-0.0275637739999972
 20
0.8214801900000001
 30
0.0
 11
0.0000131950000011
 21
1.401032418
 31
0.0
  0
LINE
  5
17A5
  8
240
  6
CONTINUOUS
 10
-0.215358467999998
 20
1.3668755809999991
 30
0.0
 11
-0.0734497189999992
 21
1.444025587999999
 31
0.0
  0
LINE
  5
17A6
  8
240
  6
CONTINUOUS
 10
-0.6266604809999983
 20
-1.149999999999999
 30
0.0
 11
-0.1768273809999989
 21
-1.149999999999999
 31
0.0
  0
LINE
  5
17A7
  8
240
  6
CONTINUOUS
 10
-0.6349761409999993
 20
-1.149999999999999
 30
0.0
 11
-0.6266604809999983
 21
-1.149999999999999
 31
0.0
  0
LINE
  5
17A8
  8
241
  6
CONTINUOUS
 10
-2.485762578999998
 20
1.179750979
 30
0.0
 11
-2.485762578999998
 21
-1.179750979
 31
0.0
  0
LINE
  5
17CB
  8
247
  6
CONTINUOUS
 10
-47.349976140999992
 20
-1.5
 30
0.0
 11
-42.715360756669988
 21
-1.5
 31
0.0
  0
LINE
  5
17CC
  8
247
  6
CONTINUOUS
 10
-46.55486964098796
 20
1.0
 30
0.0
 11
-47.157034951057341
 21
-1.0999999999160071
 31
0.0
  0
LINE
  5
17CD
  8
247
  6
CONTINUOUS
 10
-45.925127544519022
 20
0.0038461538861156
 30
0.0
 11
-46.840512159867018
 21
0.0038461538861156
 31
0.0
  0
ARC
  5
17CE
  8
247
  6
CONTINUOUS
 10
-45.687239542946777
 20
0.6152809327059005
 30
0.0
 40
0.3876715809326743
 50
342.99788967529508
 51
82.924166218513577
  0
ARC
  5
17CF
  8
247
  6
CONTINUOUS
 10
-45.982453697804111
 20
0.6947768689719851
 30
0.0
 40
0.6933047965358768
 50
274.74293685219902
 51
343.84922627326671
1001
GENIUS_GENOBJ-N-FIL_13
1002
{
1000
OWNER
1000
GEN
1002
}
1001
GENIUS_GENODEF_13
1002
{
1000
HIER
1070
     0
1002
}
1002
{
1000
MANEDIT
1070
     0
1002
}
1002
{
1000
NOSEL
1070
     0
1002
}
1002
{
1000
BEHIND
1070
     0
1002
}
1002
{
1000
OTHER
1070
     0
1002
}
1002
{
1000
REACTOR
1002
}
  0
LINE
  5
17D0
  8
247
  6
CONTINUOUS
 10
-46.241650335709352
 20
-1.0999999999160071
 30
0.0
 11
-47.157034951057341
 21
-1.0999999999160071
 31
0.0
  0
LINE
  5
17D1
  8
247
  6
CONTINUOUS
 10
-46.55486964098796
 20
1.0
 30
0.0
 11
-45.639485025639907
 21
1.0
 31
0.0
  0
ARC
  5
17D2
  8
247
  6
CONTINUOUS
 10
-45.978282617266842
 20
-0.3874169627679293
 30
0.0
 40
0.394857301075386
 50
335.99094165252183
 51
82.263443459069066
  0
ARC
  5
17D3
  8
247
  6
CONTINUOUS
 10
-46.312422751426901
 20
-0.3912003273326263
 30
0.0
 40
0.7123241612361686
 50
275.70198516425648
 51
347.27733843682188
1001
GENIUS_GENOBJ-N-FIL_13
1002
{
1000
OWNER
1000
GEN
1002
}
1001
GENIUS_GENODEF_13
1002
{
1000
HIER
1070
     0
1002
}
1002
{
1000
MANEDIT
1070
     0
1002
}
1002
{
1000
NOSEL
1070
     0
1002
}
1002
{
1000
BEHIND
1070
     0
1002
}
1002
{
1000
OTHER
1070
     0
1002
}
1002
{
1000
REACTOR
1002
}
  0
LINE
  5
17D4
  8
247
  6
CONTINUOUS
 10
-45.283958028063388
 20
-1.0999999999160071
 30
0.0
 11
-44.681792717993929
 21
1.0
 31
0.0
  0
LINE
  5
17D5
  8
247
  6
CONTINUOUS
 10
-43.185638871907969
 20
1.0
 30
0.0
 11
-43.581654505303533
 21
1.0
 31
0.0
  0
LINE
  5
17D6
  8
247
  6
CONTINUOUS
 10
-44.208715794943977
 20
-1.0999999999160071
 30
0.0
 11
-43.777946564191922
 21
-1.0999999999160071
 31
0.0
  0
ARC
  5
17D7
  8
247
  6
CONTINUOUS
 10
-42.981792718069961
 20
-0.4582995950834177
 30
0.0
 40
1.576855057639547
 50
112.3594881415293
 51
164.9932485428464
  0
ARC
  5
17D8
  8
247
  6
CONTINUOUS
 10
-43.447487507133218
 20
0.4341811414619772
 30
0.0
 40
0.6234706797009447
 50
4.9945893190753479
 51
65.166328957308124
1001
GENIUS_GENOBJ-N-FIL_13
1002
{
1000
OWNER
1000
GEN
1002
}
1001
GENIUS_GENODEF_13
1002
{
1000
HIER
1070
     0
1002
}
1002
{
1000
MANEDIT
1070
     0
1002
}
1002
{
1000
NOSEL
1070
     0
1002
}
1002
{
1000
BEHIND
1070
     0
1002
}
1002
{
1000
OTHER
1070
     0
1002
}
1002
{
1000
REACTOR
1002
}
  0
ARC
  5
17D9
  8
247
  6
CONTINUOUS
 10
-44.04416009203274
 20
-0.162102121969383
 30
0.0
 40
0.9749472149106983
 50
285.84609655578407
 51
352.3251370041624
  0
ARC
  5
17DA
  8
247
  6
CONTINUOUS
 10
-43.635187779772217
 20
-0.3714704019710098
 30
0.0
 40
0.9271945638692009
 50
159.7136016704896
 51
231.78874565641519
1001
GENIUS_GENOBJ-N-FIL_13
1002
{
1000
OWNER
1000
GEN
1002
}
1001
GENIUS_GENODEF_13
1002
{
1000
HIER
1070
     0
1002
}
1002
{
1000
MANEDIT
1070
     0
1002
}
1002
{
1000
NOSEL
1070
     0
1002
}
1002
{
1000
BEHIND
1070
     0
1002
}
1002
{
1000
OTHER
1070
     0
1002
}
1002
{
1000
REACTOR
1002
}
  0
LINE
  5
17DB
  8
247
  6
CONTINUOUS
 10
-43.562561948815961
 20
-0.2923076922559176
 30
0.0
 11
-43.077946564219971
 21
-0.2923076922559176
 31
0.0
  0
ARC
  5
17DC
  8
247
  6
CONTINUOUS
 10
-47.349976140999992
 20
-0.25
 30
0.0
 40
1.25
 50
90.0
 51
270.0
  0
LINE
  5
17DD
  8
247
  6
CONTINUOUS
 10
-47.349976140999992
 20
1.0
 30
0.0
 11
-46.903822294913958
 21
1.0
 31
0.0
  0
ARC
  5
17DE
  8
247
  6
CONTINUOUS
 10
-42.715360756669988
 20
-0.25
 30
0.0
 40
1.25
 50
270.0
 51
90.0
  0
LINE
  5
17DF
  8
250
  6
CONTINUOUS
 10
-55.611928508232779
 20
-11.92225881136414
 30
0.0
 11
-43.862199900810687
 21
-11.92225881136414
 31
0.0
  0
LINE
  5
17E0
  8
250
  6
CONTINUOUS
 10
-43.862199900810687
 20
-11.92225881136414
 30
0.0
 11
-40.190644048276937
 21
-5.4403456717494691
 31
0.0
  0
LINE
  5
17E1
  8
250
  6
CONTINUOUS
 10
-40.190644048276937
 20
-5.4403456717494691
 30
0.0
 11
-39.091572315348152
 21
-3.5
 31
0.0
  0
LINE
  5
17E2
  8
250
  6
CONTINUOUS
 10
-39.935192695547961
 20
-5.5850412097717008
 30
0.0
 11
-39.091572315348152
 21
-3.5
 31
0.0
  0
LINE
  5
17E3
  8
250
  6
CONTINUOUS
 10
-39.091572315348152
 20
-3.5
 30
0.0
 11
-40.44609540100592
 21
-5.2956501337272339
 31
0.0
  0
TEXT
  5
17E4
  8
250
  6
CONTINUOUS
 10
-55.369117887933022
 20
-10.52225881136417
 30
0.0
 40
2.799999999999998
  1
ST7W
  7
ACJISTS
  0
VIEWPORT
  5
22
 67
     1
  8
0
 10
261.51769911504419
 20
148.5
 30
0.0
 40
523.0353982300885
 41
297.0
 68
     1
 69
     1
1001
ACAD
1000
MVIEW
1002
{
1070
    16
1010
0.0
1020
0.0
1030
0.0
1010
0.0
1020
0.0
1030
1.0
1040
0.0
1040
297.0
1040
261.51769911504419
1040
148.5
1040
50.0
1040
0.0
1040
0.0
1070
     0
1070
   100
1070
     1
1070
     1
1070
     0
1070
     0
1070
     0
1070
     0
1040
0.0
1040
0.0
1040
0.0
1040
1.0
1040
1.0
1040
10.0
1040
10.0
1070
     0
1002
{
1002
}
1002
}
1001
GENIUS_GENODEF_13
1002
{
1000
HIER
1070
     0
1002
}
1002
{
1000
MANEDIT
1070
     0
1002
}
1002
{
1000
NOSEL
1070
     0
1002
}
1002
{
1000
BEHIND
1070
     0
1002
}
1002
{
1000
OTHER
1070
     0
1002
}
1002
{
1000
REACTOR
1002
}
1001
GENIUS_GENOBJ-N-SDF_13
1002
{
1000
OWNER
1000
GEN
1002
}
1001
GENIUS_GENSCREG_15
1000
PF
1040
1.0
1000
DF
1040
1.0
1000
MIN
1011
0.0
1021
0.0
1031
-0.0
1021
0.0
1031
0.0
1000
MAX
1011
523.0353982300885
1021
0.0
1031
-0.0
1021
297.0
1031
0.0
1000
FLAGS
1070
     4
  0
ENDSEC
  0
EOF
