  0
SECTION
  2
HEADER
  9
$ACADVER
  1
AC1009
  9
$INSBASE
 10
0.0
 20
0.0
 30
0.0
  9
$EXTMIN
 10
-66.799999999999983
 20
-12.2171732348683
 30
0.0
  9
$EXTMAX
 10
8.8242989360514041
 20
40.0
 30
0.0
  9
$LIMMIN
 10
0.0
 20
0.0
  9
$LIMMAX
 10
297.0
 20
210.0
  9
$ORTHOMODE
 70
     1
  9
$REGENMODE
 70
     1
  9
$FILLMODE
 70
     1
  9
$QTEXTMODE
 70
     0
  9
$MIRRTEXT
 70
     1
  9
$DRAGMODE
 70
     2
  9
$LTSCALE
 40
10.0
  9
$OSMODE
 70
    45
  9
$ATTMODE
 70
     1
  9
$TEXTSIZE
 40
3.0
  9
$TRACEWID
 40
1.0
  9
$TEXTSTYLE
  7
YOKO
  9
$CLAYER
  8
240
  9
$CELTYPE
  6
BYLAYER
  9
$CECOLOR
 62
   256
  9
$DIMSCALE
 40
1.0
  9
$DIMASZ
 40
2.2299999999999991
  9
$DIMEXO
 40
0.5
  9
$DIMDLI
 40
7.0
  9
$DIMRND
 40
0.0
  9
$DIMDLE
 40
0.0
  9
$DIMEXE
 40
1.0
  9
$DIMTP
 40
0.0
  9
$DIMTM
 40
0.01
  9
$DIMTXT
 40
2.799999999999998
  9
$DIMCEN
 40
0.0
  9
$DIMTSZ
 40
0.0
  9
$DIMTOL
 70
     0
  9
$DIMLIM
 70
     0
  9
$DIMTIH
 70
     0
  9
$DIMTOH
 70
     0
  9
$DIMSE1
 70
     0
  9
$DIMSE2
 70
     0
  9
$DIMTAD
 70
     3
  9
$DIMZIN
 70
     9
  9
$DIMBLK
  1
OPEN
  9
$DIMASO
 70
     1
  9
$DIMSHO
 70
     1
  9
$DIMPOST
  1

  9
$DIMAPOST
  1

  9
$DIMALT
 70
     0
  9
$DIMALTD
 70
     2
  9
$DIMALTF
 40
25.399999999999999
  9
$DIMLFAC
 40
1.0
  9
$DIMTOFL
 70
     1
  9
$DIMTVP
 40
0.0
  9
$DIMTIX
 70
     1
  9
$DIMSOXD
 70
     0
  9
$DIMSAH
 70
     0
  9
$DIMBLK1
  1

  9
$DIMBLK2
  1

  9
$DIMSTYLE
  2
BIGT
  9
$DIMCLRD
 70
   256
  9
$DIMCLRE
 70
   256
  9
$DIMCLRT
 70
    40
  9
$DIMTFAC
 40
1.0
  9
$DIMGAP
 40
1.0
  9
$LUNITS
 70
     2
  9
$LUPREC
 70
     3
  9
$SKETCHINC
 40
1.0
  9
$FILLETRAD
 40
0.0
  9
$AUNITS
 70
     0
  9
$AUPREC
 70
     3
  9
$MENU
  1
.
  9
$ELEVATION
 40
0.0
  9
$PELEVATION
 40
0.0
  9
$THICKNESS
 40
0.0
  9
$LIMCHECK
 70
     0
  9
$BLIPMODE
 70
     0
  9
$CHAMFERA
 40
0.25
  9
$CHAMFERB
 40
0.25
  9
$SKPOLY
 70
     0
  9
$TDCREATE
 40
2454805.4347097459
  9
$TDUPDATE
 40
2457856.7147730561
  9
$TDINDWG
 40
0.0104650579
  9
$TDUSRTIMER
 40
0.0104650347
  9
$USRTIMER
 70
     1
  9
$ANGBASE
 50
0.0
  9
$ANGDIR
 70
     0
  9
$PDMODE
 70
     1
  9
$PDSIZE
 40
0.0
  9
$PLINEWID
 40
0.0
  9
$COORDS
 70
     1
  9
$SPLFRAME
 70
     0
  9
$SPLINETYPE
 70
     6
  9
$SPLINESEGS
 70
     4
  9
$ATTDIA
 70
     1
  9
$ATTREQ
 70
     1
  9
$HANDLING
 70
     1
  9
$HANDSEED
  5
1915
  9
$SURFTAB1
 70
     6
  9
$SURFTAB2
 70
     6
  9
$SURFTYPE
 70
     6
  9
$SURFU
 70
     6
  9
$SURFV
 70
     6
  9
$UCSNAME
  2

  9
$UCSORG
 10
0.0
 20
0.0
 30
0.0
  9
$UCSXDIR
 10
1.0
 20
0.0
 30
0.0
  9
$UCSYDIR
 10
0.0
 20
1.0
 30
0.0
  9
$PUCSNAME
  2

  9
$PUCSORG
 10
0.0
 20
0.0
 30
0.0
  9
$PUCSXDIR
 10
1.0
 20
0.0
 30
0.0
  9
$PUCSYDIR
 10
0.0
 20
1.0
 30
0.0
  9
$USERI1
 70
     1
  9
$USERI2
 70
     0
  9
$USERI3
 70
     0
  9
$USERI4
 70
     0
  9
$USERI5
 70
     0
  9
$USERR1
 40
0.0
  9
$USERR2
 40
0.0
  9
$USERR3
 40
0.0
  9
$USERR4
 40
0.0
  9
$USERR5
 40
0.0
  9
$WORLDVIEW
 70
     1
  9
$SHADEDGE
 70
     3
  9
$SHADEDIF
 70
    70
  9
$TILEMODE
 70
     1
  9
$MAXACTVP
 70
    16
  9
$PLIMCHECK
 70
     0
  9
$PEXTMIN
 10
1.0000000000000000E+020
 20
1.0000000000000000E+020
 30
1.0000000000000000E+020
  9
$PEXTMAX
 10
-1.0000000000000000E+020
 20
-1.0000000000000000E+020
 30
-1.0000000000000000E+020
  9
$PLIMMIN
 10
0.0
 20
0.0
  9
$PLIMMAX
 10
420.0
 20
297.0
  9
$UNITMODE
 70
     0
  9
$VISRETAIN
 70
     1
  9
$PLINEGEN
 70
     0
  9
$PSLTSCALE
 70
     1
  0
ENDSEC
  0
SECTION
  2
TABLES
  0
TABLE
  2
VPORT
 70
     1
  0
VPORT
  2
*ACTIVE
 70
     0
 10
0.0
 20
0.0
 11
1.0
 21
1.0
 12
-30.941555314798151
 22
13.099180620041089
 13
0.0
 23
0.0
 14
7.0
 24
7.0
 15
7.0
 25
7.0
 16
0.0
 26
0.0
 36
1.0
 17
0.0
 27
0.0
 37
0.0
 40
61.371688393105089
 41
1.6353340883352201
 42
50.0
 43
0.0
 44
0.0
 50
0.0
 51
0.0
 71
     0
 72
  2000
 73
     1
 74
     0
 75
     0
 76
     1
 77
     0
 78
     0
  0
ENDTAB
  0
TABLE
  2
LTYPE
 70
    19
  0
LTYPE
  2
CONTINUOUS
 70
     0
  3
Solid line
 72
    65
 73
     0
 40
0.0
  0
LTYPE
  2
CENTER2
 70
     0
  3
___ _ ___ _ ___ _ ___ _ ___ _ ___ _ ___ _ ___ _
 72
    65
 73
     4
 40
1.125
 49
0.75
 49
-0.125
 49
0.125
 49
-0.125
  0
LTYPE
  2
HIDDEN2
 70
     0
  3
_ _ _ _ _ _ _ _ _ _ _ _ _ _ _ _ _ _ _ _ _ _ _ _
 72
    65
 73
     2
 40
0.1875
 49
0.125
 49
-0.0625
  0
LTYPE
  2
PHANTOM2
 70
     0
  3
___ _ _ ___ _ _ ___ _ _ ___ _ _ ___ _ _ ___ _ _
 72
    65
 73
     6
 40
1.25
 49
0.625
 49
-0.125
 49
0.125
 49
-0.125
 49
0.125
 49
-0.125
  0
LTYPE
  2
CENTER
 70
     0
  3
____ _ ____ _ ____ _ ____ _ ____ _ ____ _ ____ 
 72
    65
 73
     4
 40
2.0
 49
1.25
 49
-0.25
 49
0.25
 49
-0.25
  0
LTYPE
  2
AMCONSTR
 70
     0
  3
_______________________
 72
    65
 73
     2
 40
9999.0
 49
9999.0
 49
0.0
  0
LTYPE
  2
HIDDEN
 70
     0
  3
Hidden __ __ __ __ __ __ __ __ __ __ __ __ __ _
 72
    65
 73
     2
 40
9.5249999999999986
 49
6.349999999999997
 49
-3.174999999999998
  0
LTYPE
  2
ACANSTGB
 70
     0
  3
__ . . __ . .
 72
    65
 73
     6
 40
0.35433070866
 49
0.15748031496
 49
-0.03937007874
 49
0.03937007874
 49
-0.03937007874
 49
0.03937007874
 49
-0.03937007874
  0
LTYPE
  2
ACANSTGL
 70
     0
  3
_ _ _ _ _
 72
    65
 73
     2
 40
0.11811023622
 49
0.07874015748
 49
-0.03937007874
  0
LTYPE
  2
AMZIGZAG2
 70
     0
  3
/\/-/\/-/\/-/\/-/\/-/\/
 72
    65
 73
     2
 40
0.4401
 49
0.0001
 49
-0.4400000000000002
  0
ENDTAB
  0
TABLE
  2
LAYER
 70
     8
  0
LAYER
  2
0
 70
     0
 62
     7
  6
CONTINUOUS
  0
LAYER
  2
240
 70
     0
 62
     4
  6
CONTINUOUS
  0
LAYER
  2
245
 70
     0
 62
     2
  6
CENTER2
  0
LAYER
  2
DEFPOINTS
 70
     0
 62
     7
  6
CONTINUOUS
  0
LAYER
  2
241
 70
     0
 62
   211
  6
CONTINUOUS
  0
LAYER
  2
247
 70
     0
 62
    60
  6
CONTINUOUS
  0
LAYER
  2
250
 70
     0
 62
     3
  6
CONTINUOUS
  0
LAYER
  2
AM_5
 70
     0
 62
     3
  6
CONTINUOUS
  0
ENDTAB
  0
TABLE
  2
STYLE
 70
     8
  0
STYLE
  2
STANDARD
 70
     0
 40
0.0
 41
1.0
 50
0.0
 71
     0
 42
3.0
  3
romans.shx
  4
extfont.shx
  0
STYLE
  2
YOKO
 70
     0
 40
0.0
 41
1.0
 50
0.0
 71
     0
 42
3.0
  3
romans.shx
  4
extfont.shx
  0
STYLE
  2
ACANSGDT
 70
     0
 40
0.0
 41
1.0
 50
0.0
 71
     0
 42
0.2
  3
amgdt.shx
  4

  0
STYLE
  2
ACJISTS
 70
     0
 40
1.0
 41
1.0
 50
0.0
 71
     0
 42
3.0
  3
amgdt.shx
  4
extfont.shx
  0
ENDTAB
  0
TABLE
  2
VIEW
 70
     0
  0
ENDTAB
  0
TABLE
  2
UCS
 70
     0
  0
ENDTAB
  0
TABLE
  2
APPID
 70
    33
  0
APPID
  2
ACAD
 70
     0
  0
APPID
  2
ACADANNOTATIVE
 70
     0
  0
APPID
  2
GLOBAL
 70
     0
  0
APPID
  2
DETAIL
 70
     0
  0
APPID
  2
GRPNAME
 70
     0
  0
APPID
  2
GPARA
 70
     0
  0
APPID
  2
MCAD_NO_VIS
 70
     0
  0
APPID
  2
ACAD_TEMP_GRAPHIC
 70
     0
  0
APPID
  2
ACATTRIBSERVICES
 70
     0
  0
APPID
  2
GENIUS_GENSCREG_15
 70
     0
  0
APPID
  2
GENIUS_GENODEF_13
 70
     0
  0
APPID
  2
GENIUS_GENOBJ-N-SDF_13
 70
     0
  0
APPID
  2
GENIUS_GENREC_14
 70
     0
  0
APPID
  2
GENIUS_GENOBJ-N-REC_13
 70
     0
  0
APPID
  2
GENIUS_GENDIMSH_14
 70
     0
  0
APPID
  2
GENIUS_GENOBJ-N-DIM_13
 70
     0
  0
APPID
  2
GENIUS_GENDIM_13
 70
     0
  0
APPID
  2
GENIUS_GENDTOL_13
 70
     0
  0
APPID
  2
GENIUS_GENOLIS_13
 70
     0
  0
APPID
  2
GENIUS_GENOENT_13
 70
     0
  0
APPID
  2
GENIUS_GENOBJ-F-FEM_13
 70
     0
  0
APPID
  2
GENIUS_GENOREF_13
 70
     0
  0
APPID
  2
GENIUS_GEFFEM_13
 70
     0
  0
APPID
  2
GENIUS_GEFFEMP_13
 70
     0
  0
APPID
  2
AD_DRAW
 70
     0
  0
APPID
  2
DESIGNERASSEMBLIES
 70
     0
  0
APPID
  2
ACADM_DIM_EDIT
 70
     0
  0
APPID
  2
AMDT_DM_ADJ
 70
     0
  0
APPID
  2
ACAD_DSTYLE_DIMBREAK
 70
     0
  0
APPID
  2
ACAD_DSTYLE_DIMJAG
 70
     0
  0
APPID
  2
ACAD_NAV_VCDISPLAY
 70
     0
  0
APPID
  2
GENIUS_GENOBJ-N-FIL_13
 70
     0
  0
APPID
  2
ACAD_MLEADERVER
 70
     0
  0
ENDTAB
  0
TABLE
  2
DIMSTYLE
 70
    16
  0
DIMSTYLE
  2
STANDARD
 70
     0
  3

  4

  5

  6

  7

 40
1.0
 41
0.18
 42
0.0625
 43
0.38
 44
0.18
 45
0.0
 46
0.0
 47
0.0
 48
0.0
140
0.18
141
0.09
142
0.0
143
25.399999999999999
144
1.0
145
0.0
146
1.0
147
0.09
 71
     0
 72
     0
 73
     1
 74
     1
 75
     0
 76
     0
 77
     0
 78
     0
170
     0
171
     2
172
     0
173
     0
174
     0
175
     0
176
     0
177
     0
178
     0
  0
DIMSTYLE
  2
BIGT
 70
     0
  3

  4

  5

  6

  7

 40
1.0
 41
2.2299999999999991
 42
0.5
 43
7.0
 44
1.0
 45
0.0
 46
0.0
 47
0.0
 48
0.01
140
2.799999999999998
141
0.0
142
0.0
143
25.399999999999999
144
1.0
145
0.0
146
1.0
147
1.0
 71
     0
 72
     0
 73
     0
 74
     0
 75
     0
 76
     0
 77
     3
 78
     9
170
     0
171
     2
172
     1
173
     0
174
     1
175
     0
176
   256
177
   256
178
    40
  0
DIMSTYLE
  2
AM_ANSI
 70
     0
  3

  4
mm
  5

  6

  7

 40
1.0
 41
0.1
 42
0.05
 43
0.5
 44
0.1
 45
0.0
 46
0.0
 47
0.1
 48
0.1
140
0.12
141
0.0
142
0.0
143
25.399999999999999
144
1.0
145
0.0
146
0.71
147
0.06
 71
     0
 72
     0
 73
     1
 74
     1
 75
     0
 76
     0
 77
     0
 78
     7
170
     0
171
     2
172
     0
173
     0
174
     0
175
     0
176
   256
177
   256
178
     2
  0
DIMSTYLE
  2
AM_ANSI$3
 70
     0
  3

  4
mm
  5

  6

  7

 40
1.0
 41
0.1
 42
0.05
 43
0.5
 44
0.1
 45
0.0
 46
0.0
 47
0.1
 48
0.1
140
0.12
141
0.0
142
0.0
143
25.399999999999999
144
1.0
145
0.0
146
0.71
147
0.06
 71
     0
 72
     0
 73
     1
 74
     1
 75
     0
 76
     0
 77
     0
 78
     7
170
     0
171
     2
172
     0
173
     0
174
     0
175
     0
176
   256
177
   256
178
     2
  0
DIMSTYLE
  2
AM_ANSI$4
 70
     0
  3

  4
mm
  5

  6

  7

 40
1.0
 41
0.1
 42
0.05
 43
0.5
 44
0.1
 45
0.0
 46
0.0
 47
0.1
 48
0.1
140
0.12
141
0.0
142
0.0
143
25.399999999999999
144
1.0
145
0.0
146
0.71
147
0.06
 71
     0
 72
     0
 73
     1
 74
     1
 75
     0
 76
     0
 77
     0
 78
     7
170
     0
171
     2
172
     0
173
     0
174
     0
175
     0
176
   256
177
   256
178
     2
  0
DIMSTYLE
  2
AM_ANSI$7
 70
     0
  3

  4
mm
  5

  6

  7

 40
1.0
 41
0.1
 42
0.05
 43
0.5
 44
0.1
 45
0.0
 46
0.0
 47
0.1
 48
0.1
140
0.24
141
0.0
142
0.0
143
25.399999999999999
144
1.0
145
0.0
146
0.71
147
0.06
 71
     0
 72
     0
 73
     1
 74
     1
 75
     0
 76
     0
 77
     0
 78
     7
170
     0
171
     2
172
     0
173
     0
174
     0
175
     0
176
   256
177
   256
178
     2
  0
DIMSTYLE
  2
AM_ANSI$SF
 70
     0
  3

  4
mm
  5

  6

  7

 40
1.0
 41
0.1
 42
0.05
 43
0.5
 44
0.1
 45
0.0
 46
0.0
 47
0.1
 48
0.1
140
0.12
141
0.0
142
0.0
143
25.399999999999999
144
1.0
145
0.0
146
0.71
147
0.06
 71
     0
 72
     0
 73
     1
 74
     1
 75
     1
 76
     1
 77
     0
 78
     7
170
     0
171
     2
172
     0
173
     0
174
     0
175
     0
176
   256
177
   256
178
     2
  0
DIMSTYLE
  2
AM_ANSI$SH
 70
     0
  3

  4
mm
  5

  6

  7

 40
1.0
 41
0.1
 42
0.05
 43
0.5
 44
0.1
 45
0.0
 46
0.0
 47
0.1
 48
0.1
140
0.12
141
0.0
142
0.0
143
25.399999999999999
144
1.0
145
0.0
146
0.71
147
0.06
 71
     0
 72
     0
 73
     1
 74
     1
 75
     1
 76
     1
 77
     0
 78
     7
170
     0
171
     2
172
     0
173
     1
174
     0
175
     0
176
   256
177
   256
178
     2
  0
ENDTAB
  0
ENDSEC
  0
SECTION
  2
BLOCKS
  0
BLOCK
  8
0
  2
$MODEL_SPACE
 70
     0
 10
0.0
 20
0.0
 30
0.0
  3
$MODEL_SPACE
  1

  0
ENDBLK
  5
17DD
  8
0
  0
BLOCK
 67
     1
  8
0
  2
$PAPER_SPACE
 70
     0
 10
0.0
 20
0.0
 30
0.0
  3
$PAPER_SPACE
  1

  0
ENDBLK
  5
17D9
 67
     1
  8
0
  0
BLOCK
  8
0
  2
_OPEN
 70
     0
 10
0.0
 20
0.0
 30
0.0
  3
_OPEN
  1

  0
LINE
  5
595
  8
0
  6
BYBLOCK
 62
     0
 10
-1.0
 20
0.1666666666666666
 30
0.0
 11
0.0
 21
0.0
 31
0.0
  0
LINE
  5
596
  8
0
  6
BYBLOCK
 62
     0
 10
-1.0
 20
-0.1666666666666666
 30
0.0
 11
0.0
 21
0.0
 31
0.0
  0
LINE
  5
597
  8
0
  6
BYBLOCK
 62
     0
 10
0.0
 20
0.0
 30
0.0
 11
-1.0
 21
0.0
 31
0.0
  0
ENDBLK
  5
599
  8
0
  0
BLOCK
  8
0
  2
_ACMFILLEDHALF
 70
     0
 10
0.0
 20
0.0
 30
0.0
  3
_ACMFILLEDHALF
  1

  0
TRACE
  5
168D
  8
245
 62
     0
 10
-0.8
 20
0.0
 30
0.0
 11
-1.0
 21
0.166666666
 31
0.0
 12
0.0
 22
0.0
 32
0.0
 13
0.0
 23
0.0
 33
0.0
  0
LINE
  5
168E
  8
245
 62
     0
 10
-1.0
 20
0.0
 30
0.0
 11
-0.8
 21
0.0
 31
0.0
  0
ENDBLK
  5
168C
  8
0
  0
ENDSEC
  0
SECTION
  2
ENTITIES
  0
LINE
  5
1395
  8
245
  6
CENTER2
 10
-52.751248443999998
 20
0.0
 30
0.0
 11
0.7411501330000017
 21
0.0
 31
0.0
  0
LINE
  5
1396
  8
241
  6
CONTINUOUS
 10
-1.4857504370000001
 20
0.7659596520000001
 30
0.0
 11
-1.4857504370000001
 21
-0.7659596520000001
 31
0.0
  0
LINE
  5
1397
  8
240
  6
CONTINUOUS
 10
-0.4449639989999988
 20
-0.75
 30
0.0
 11
-0.4385756920000007
 21
-0.75
 31
0.0
  0
LINE
  5
1398
  8
240
  6
CONTINUOUS
 10
-0.4385756920000007
 20
-0.75
 30
0.0
 11
-0.2751659849999974
 21
-0.75
 31
0.0
  0
LINE
  5
1399
  8
240
  6
CONTINUOUS
 10
-0.108910796
 20
0.9247427909999995
 30
0.0
 11
-0.073437577
 21
0.9439608209999999
 31
0.0
  0
LINE
  5
139A
  8
240
  6
CONTINUOUS
 10
-0.0122103210000013
 20
0.6439042210000001
 30
0.0
 11
0.0000251330000012
 21
0.9010421409999999
 31
0.0
  0
LINE
  5
139B
  8
240
  6
CONTINUOUS
 10
-0.0016739759999993
 20
0.9129643229999999
 30
0.0
 11
0.0000251330000012
 21
0.9010421409999999
 31
0.0
  0
ARC
  5
139C
  8
240
  6
CONTINUOUS
 10
-0.0498016919999991
 20
0.900125294
 30
0.0
 40
0.049801692
 50
22.91243547599997
 51
118.333312056
  0
LINE
  5
139D
  8
240
  6
CONTINUOUS
 10
-0.003929308
 20
0.919514281
 30
0.0
 11
-0.0016739759999993
 21
0.9129643229999999
 31
0.0
  0
LINE
  5
139E
  8
240
  6
CONTINUOUS
 10
-0.2751659849999974
 20
-0.75
 30
0.0
 11
-0.0639693450000003
 21
-0.747444475
 31
0.0
  0
ARC
  5
139F
  8
240
  6
CONTINUOUS
 10
71.107830833000008
 20
-2.6984419539999971
 30
0.0
 40
71.198536023000003
 50
177.309316357
 51
178.42977227099999
  0
LINE
  5
13A0
  8
240
  6
CONTINUOUS
 10
-0.1379859339999996
 20
0.9088704189999999
 30
0.0
 11
-0.108910796
 21
0.9247427909999995
 31
0.0
  0
LINE
  5
13A1
  8
240
  6
CONTINUOUS
 10
-0.4385756920000007
 20
0.745850506
 30
0.0
 11
-0.1379859339999996
 21
0.9088704189999999
 31
0.0
  0
LINE
  5
13A2
  8
240
  6
CONTINUOUS
 10
-0.4449639989999988
 20
-0.750097362
 30
0.0
 11
-1.4857504370000001
 21
-0.7659596520000001
 31
0.0
  0
ARC
  5
13A3
  8
241
  6
CONTINUOUS
 10
-1.471656679754523
 20
4.8405454552504379
 30
0.0
 40
5.6065228214859451
 50
262.60922226544648
 51
269.85596889755328
  0
ARC
  5
13A4
  8
241
  6
CONTINUOUS
 10
-1.9118586699999951
 20
0.0
 30
0.0
 40
0.7723297490000001
 50
111.335741208
 51
248.664258792
  0
ARC
  5
13A5
  8
241
  6
CONTINUOUS
 10
-1.6335048069999949
 20
-2.382660553
 30
0.0
 40
3.1520851109999981
 50
87.313268880000024
 51
100.221539957
  0
LINE
  5
13A6
  8
240
  6
CONTINUOUS
 10
-1.4857504370000001
 20
0.7659596520000001
 30
0.0
 11
-0.7935200770000002
 21
0.755409593
 31
0.0
  0
LINE
  5
13A7
  8
240
  6
CONTINUOUS
 10
-0.7935200770000002
 20
0.755409593
 30
0.0
 11
-0.4385756920000007
 21
0.745850506
 31
0.0
  0
LINE
  5
13C5
  8
241
  6
CONTINUOUS
 10
-11.977664271
 20
-3.5
 30
0.0
 11
-11.977664271
 21
3.5
 31
0.0
  0
LINE
  5
13C9
  8
240
  6
CONTINUOUS
 10
-51.599963998999989
 20
-3.5
 30
0.0
 11
-51.599963998999989
 21
3.5
 31
0.0
  0
LINE
  5
13CA
  8
240
  6
CONTINUOUS
 10
-1.4857504370000001
 20
0.7659596520000001
 30
0.0
 11
-6.9999639990000002
 21
0.85
 31
0.0
  0
LINE
  5
13CB
  8
240
  6
CONTINUOUS
 10
-6.9999639990000002
 20
-0.85
 30
0.0
 11
-1.485999088999999
 21
-0.765963442
 31
0.0
  0
ARC
  5
13CC
  8
240
  6
CONTINUOUS
 10
-6.9999639990000002
 20
6.849999999999997
 30
0.0
 40
6.0
 50
213.940614826
 51
270.0
  0
ARC
  5
13CD
  8
240
  6
CONTINUOUS
 10
-6.9999639990000002
 20
-6.849999999999997
 30
0.0
 40
6.0
 50
90.0
 51
146.059385174
  0
LINE
  5
13CE
  8
240
  6
CONTINUOUS
 10
-11.977664271
 20
3.5
 30
0.0
 11
-51.599963998999989
 21
3.5
 31
0.0
  0
LINE
  5
13D1
  8
240
  6
CONTINUOUS
 10
-51.599963998999989
 20
-3.5
 30
0.0
 11
-11.977664270999989
 21
-3.5
 31
0.0
  0
TEXT
  5
13FB
  8
241
  6
CONTINUOUS
 10
-49.0
 20
35.0
 30
0.0
 40
5.0
  1
ST7W-EB2-7
  7
YOKO
  0
LINE
  5
1511
  8
250
  6
CONTINUOUS
 10
-51.599963998999989
 20
3.7999999999999989
 30
0.0
 11
-51.599963998999989
 21
22.0
 31
0.0
  0
LINE
  5
1512
  8
250
  6
CONTINUOUS
 10
0.0
 20
0.0
 30
0.0
 11
0.0000000000000013
 21
22.0
 31
0.0
  0
LINE
  5
1513
  8
250
  6
CONTINUOUS
 10
-49.369963998999992
 20
21.0
 30
0.0
 11
-2.2299999999999982
 21
21.0
 31
0.0
  0
LINE
  5
151D
  8
250
  6
CONTINUOUS
 10
0.4501983080000012
 20
0.9499269859999998
 30
0.0
 11
8.8242989360514041
 21
0.9499269859999978
 31
0.0
  0
LINE
  5
151E
  8
AM_5
 10
7.8242989360514059
 20
5.409926985999995
 30
0.0
 11
7.8242989360514059
 21
3.1799269859999981
 31
0.0
  0
LINE
  5
151F
  8
250
  6
CONTINUOUS
 10
7.824298936051405
 20
-12.2171732348683
 30
0.0
 11
7.8242989360514059
 21
5.409926985999995
 31
0.0
  0
TEXT
  5
1522
  8
250
  6
CONTINUOUS
 10
-28.466648666166659
 20
22.0
 30
0.0
 40
2.799999999999998
  1
52
  0
LINE
  5
1523
  8
250
  6
CONTINUOUS
 10
-2.2299999999999982
 20
21.37166666666667
 30
0.0
 11
0.0000000000000013
 21
21.0
 31
0.0
  0
LINE
  5
1524
  8
250
  6
CONTINUOUS
 10
-2.2299999999999982
 20
20.62833333333333
 30
0.0
 11
0.0000000000000013
 21
21.0
 31
0.0
  0
LINE
  5
1525
  8
250
  6
CONTINUOUS
 10
0.0000000000000013
 20
21.0
 30
0.0
 11
-2.2299999999999982
 21
21.0
 31
0.0
  0
LINE
  5
1526
  8
250
  6
CONTINUOUS
 10
-49.369963998999992
 20
20.62833333333333
 30
0.0
 11
-51.599963998999989
 21
21.0
 31
0.0
  0
LINE
  5
1527
  8
250
  6
CONTINUOUS
 10
-49.369963998999992
 20
21.37166666666667
 30
0.0
 11
-51.599963998999989
 21
21.0
 31
0.0
  0
LINE
  5
1528
  8
250
  6
CONTINUOUS
 10
-51.599963998999989
 20
21.0
 30
0.0
 11
-49.369963998999992
 21
21.0
 31
0.0
  0
LINE
  5
1531
  8
250
  6
CONTINUOUS
 10
8.1959656027180721
 20
3.1799269859999981
 30
0.0
 11
7.824298936051405
 21
0.9499269859999984
 31
0.0
  0
LINE
  5
1532
  8
250
  6
CONTINUOUS
 10
7.4526322693847371
 20
3.1799269859999981
 30
0.0
 11
7.824298936051405
 21
0.9499269859999984
 31
0.0
  0
LINE
  5
1533
  8
250
  6
CONTINUOUS
 10
7.824298936051405
 20
0.9499269859999984
 30
0.0
 11
7.824298936051405
 21
3.1799269859999981
 31
0.0
  0
TEXT
  5
1534
  8
250
  6
CONTINUOUS
 10
6.5161147584967667
 20
-11.976240405764431
 30
0.0
 40
2.799999999999998
  1
\U+2205
 50
90.0
  0
TEXT
  5
1535
  8
250
  6
CONTINUOUS
 10
6.5161147584967667
 20
-9.4429070724310957
 30
0.0
 40
2.799999999999998
  1
1.9ü`3.0
 50
90.0
  0
LINE
  5
16F8
  8
247
  6
CONTINUOUS
 10
-47.349963998999989
 20
-1.5
 30
0.0
 11
-42.715348614669992
 21
-1.5
 31
0.0
  0
LINE
  5
16F9
  8
247
  6
CONTINUOUS
 10
-46.554857498987957
 20
1.0
 30
0.0
 11
-47.157022809057352
 21
-1.0999999999160071
 31
0.0
  0
LINE
  5
16FA
  8
247
  6
CONTINUOUS
 10
-45.925115402519033
 20
0.0038461538861156
 30
0.0
 11
-46.840500017867029
 21
0.0038461538861156
 31
0.0
  0
ARC
  5
16FB
  8
247
  6
CONTINUOUS
 10
-45.687227400946789
 20
0.6152809327059005
 30
0.0
 40
0.3876715809326743
 50
342.9978896752952
 51
82.924166218513577
  0
ARC
  5
16FC
  8
247
  6
CONTINUOUS
 10
-45.982441555804122
 20
0.6947768689719851
 30
0.0
 40
0.6933047965358767
 50
274.74293685219902
 51
343.84922627326682
1001
GENIUS_GENOBJ-N-FIL_13
1002
{
1000
OWNER
1000
GEN
1002
}
1001
GENIUS_GENODEF_13
1002
{
1000
HIER
1070
     0
1002
}
1002
{
1000
MANEDIT
1070
     0
1002
}
1002
{
1000
NOSEL
1070
     0
1002
}
1002
{
1000
BEHIND
1070
     0
1002
}
1002
{
1000
OTHER
1070
     0
1002
}
1002
{
1000
REACTOR
1002
}
  0
LINE
  5
16FD
  8
247
  6
CONTINUOUS
 10
-46.241638193709363
 20
-1.0999999999160071
 30
0.0
 11
-47.157022809057352
 21
-1.0999999999160071
 31
0.0
  0
LINE
  5
16FE
  8
247
  6
CONTINUOUS
 10
-46.554857498987957
 20
1.0
 30
0.0
 11
-45.639472883639911
 21
1.0
 31
0.0
  0
ARC
  5
16FF
  8
247
  6
CONTINUOUS
 10
-45.978270475266839
 20
-0.3874169627679293
 30
0.0
 40
0.394857301075386
 50
335.99094165252171
 51
82.263443459069066
  0
ARC
  5
1700
  8
247
  6
CONTINUOUS
 10
-46.312410609426912
 20
-0.3912003273326263
 30
0.0
 40
0.7123241612361686
 50
275.70198516425648
 51
347.27733843682199
1001
GENIUS_GENOBJ-N-FIL_13
1002
{
1000
OWNER
1000
GEN
1002
}
1001
GENIUS_GENODEF_13
1002
{
1000
HIER
1070
     0
1002
}
1002
{
1000
MANEDIT
1070
     0
1002
}
1002
{
1000
NOSEL
1070
     0
1002
}
1002
{
1000
BEHIND
1070
     0
1002
}
1002
{
1000
OTHER
1070
     0
1002
}
1002
{
1000
REACTOR
1002
}
  0
LINE
  5
1701
  8
247
  6
CONTINUOUS
 10
-45.283945886063393
 20
-1.0999999999160071
 30
0.0
 11
-44.68178057599394
 21
1.0
 31
0.0
  0
LINE
  5
1702
  8
247
  6
CONTINUOUS
 10
-43.18562672990798
 20
1.0
 30
0.0
 11
-43.581642363303523
 21
1.0
 31
0.0
  0
LINE
  5
1703
  8
247
  6
CONTINUOUS
 10
-44.208703652943981
 20
-1.0999999999160071
 30
0.0
 11
-43.777934422191919
 21
-1.0999999999160071
 31
0.0
  0
ARC
  5
1704
  8
247
  6
CONTINUOUS
 10
-42.981780576069958
 20
-0.4582995950834176
 30
0.0
 40
1.576855057639547
 50
112.3594881415293
 51
164.9932485428464
  0
ARC
  5
1705
  8
247
  6
CONTINUOUS
 10
-43.447475365133229
 20
0.4341811414619771
 30
0.0
 40
0.6234706797009447
 50
4.9945893190753239
 51
65.166328957308139
1001
GENIUS_GENOBJ-N-FIL_13
1002
{
1000
OWNER
1000
GEN
1002
}
1001
GENIUS_GENODEF_13
1002
{
1000
HIER
1070
     0
1002
}
1002
{
1000
MANEDIT
1070
     0
1002
}
1002
{
1000
NOSEL
1070
     0
1002
}
1002
{
1000
BEHIND
1070
     0
1002
}
1002
{
1000
OTHER
1070
     0
1002
}
1002
{
1000
REACTOR
1002
}
  0
ARC
  5
1706
  8
247
  6
CONTINUOUS
 10
-44.044147950032752
 20
-0.162102121969383
 30
0.0
 40
0.9749472149106983
 50
285.84609655578407
 51
352.3251370041624
  0
ARC
  5
1707
  8
247
  6
CONTINUOUS
 10
-43.635175637772221
 20
-0.3714704019710098
 30
0.0
 40
0.9271945638692009
 50
159.71360167048971
 51
231.78874565641519
1001
GENIUS_GENOBJ-N-FIL_13
1002
{
1000
OWNER
1000
GEN
1002
}
1001
GENIUS_GENODEF_13
1002
{
1000
HIER
1070
     0
1002
}
1002
{
1000
MANEDIT
1070
     0
1002
}
1002
{
1000
NOSEL
1070
     0
1002
}
1002
{
1000
BEHIND
1070
     0
1002
}
1002
{
1000
OTHER
1070
     0
1002
}
1002
{
1000
REACTOR
1002
}
  0
LINE
  5
1708
  8
247
  6
CONTINUOUS
 10
-43.562549806815973
 20
-0.2923076922559176
 30
0.0
 11
-43.077934422219968
 21
-0.2923076922559176
 31
0.0
  0
ARC
  5
1709
  8
247
  6
CONTINUOUS
 10
-47.349963998999989
 20
-0.25
 30
0.0
 40
1.25
 50
90.0
 51
270.0
  0
LINE
  5
170A
  8
247
  6
CONTINUOUS
 10
-47.349963998999989
 20
1.0
 30
0.0
 11
-46.903810152913962
 21
1.0
 31
0.0
  0
ARC
  5
170B
  8
247
  6
CONTINUOUS
 10
-42.715348614669992
 20
-0.25
 30
0.0
 40
1.25
 50
270.0
 51
90.0
  0
LINE
  5
18AF
  8
250
  6
CONTINUOUS
 10
-55.611916366232791
 20
-11.92225881136414
 30
0.0
 11
-43.862187758810691
 21
-11.92225881136414
 31
0.0
  0
LINE
  5
18B0
  8
250
  6
CONTINUOUS
 10
-43.862187758810691
 20
-11.92225881136414
 30
0.0
 11
-40.190631906276948
 21
-5.4403456717494691
 31
0.0
  0
LINE
  5
18B1
  8
250
  6
CONTINUOUS
 10
-40.190631906276948
 20
-5.4403456717494691
 30
0.0
 11
-39.091560173348157
 21
-3.5
 31
0.0
  0
LINE
  5
18B2
  8
250
  6
CONTINUOUS
 10
-39.935180553547973
 20
-5.5850412097717017
 30
0.0
 11
-39.091560173348157
 21
-3.5
 31
0.0
  0
LINE
  5
18B3
  8
250
  6
CONTINUOUS
 10
-39.091560173348157
 20
-3.5
 30
0.0
 11
-40.446083259005917
 21
-5.2956501337272348
 31
0.0
  0
TEXT
  5
18B4
  8
250
  6
CONTINUOUS
 10
-55.369105745933027
 20
-10.52225881136417
 30
0.0
 40
2.7999999999999989
  1
ST7W
  7
ACJISTS
  0
VIEWPORT
  5
22
 67
     1
  8
0
 10
261.51769911504419
 20
148.5
 30
0.0
 40
523.0353982300885
 41
297.0
 68
     1
 69
     1
1001
ACAD
1000
MVIEW
1002
{
1070
    16
1010
0.0
1020
0.0
1030
0.0
1010
0.0
1020
0.0
1030
1.0
1040
0.0
1040
297.0
1040
261.51769911504419
1040
148.5
1040
50.0
1040
0.0
1040
0.0
1070
     0
1070
   100
1070
     1
1070
     1
1070
     0
1070
     0
1070
     0
1070
     0
1040
0.0
1040
0.0
1040
0.0
1040
1.0
1040
1.0
1040
10.0
1040
10.0
1070
     0
1002
{
1002
}
1002
}
1001
GENIUS_GENODEF_13
1002
{
1000
HIER
1070
     0
1002
}
1002
{
1000
MANEDIT
1070
     0
1002
}
1002
{
1000
NOSEL
1070
     0
1002
}
1002
{
1000
BEHIND
1070
     0
1002
}
1002
{
1000
OTHER
1070
     0
1002
}
1002
{
1000
REACTOR
1002
}
1001
GENIUS_GENOBJ-N-SDF_13
1002
{
1000
OWNER
1000
GEN
1002
}
1001
GENIUS_GENSCREG_15
1000
PF
1040
1.0
1000
DF
1040
1.0
1000
MIN
1011
0.0
1021
0.0
1031
0.0
1021
0.0
1031
0.0
1000
MAX
1011
523.0353982300885
1021
0.0
1031
0.0
1021
297.0
1031
0.0
1000
FLAGS
1070
     4
  0
ENDSEC
  0
EOF
