  0
SECTION
  2
HEADER
  9
$ACADVER
  1
AC1009
  9
$INSBASE
 10
0.0
 20
0.0
 30
0.0
  9
$EXTMIN
 10
-61.102995813346901
 20
-11.92225881136414
 30
0.0
  9
$EXTMAX
 10
9.8856782847143112
 20
40.0
 30
0.0
  9
$LIMMIN
 10
0.0
 20
0.0
  9
$LIMMAX
 10
297.0
 20
210.0
  9
$ORTHOMODE
 70
     1
  9
$REGENMODE
 70
     1
  9
$FILLMODE
 70
     1
  9
$QTEXTMODE
 70
     0
  9
$MIRRTEXT
 70
     1
  9
$DRAGMODE
 70
     2
  9
$LTSCALE
 40
10.0
  9
$OSMODE
 70
    45
  9
$ATTMODE
 70
     1
  9
$TEXTSIZE
 40
3.0
  9
$TRACEWID
 40
1.0
  9
$TEXTSTYLE
  7
YOKO
  9
$CLAYER
  8
240
  9
$CELTYPE
  6
BYLAYER
  9
$CECOLOR
 62
   256
  9
$DIMSCALE
 40
1.0
  9
$DIMASZ
 40
2.2299999999999991
  9
$DIMEXO
 40
0.5
  9
$DIMDLI
 40
7.0
  9
$DIMRND
 40
0.0
  9
$DIMDLE
 40
0.0
  9
$DIMEXE
 40
1.0
  9
$DIMTP
 40
0.0
  9
$DIMTM
 40
0.01
  9
$DIMTXT
 40
2.799999999999998
  9
$DIMCEN
 40
0.0
  9
$DIMTSZ
 40
0.0
  9
$DIMTOL
 70
     0
  9
$DIMLIM
 70
     0
  9
$DIMTIH
 70
     0
  9
$DIMTOH
 70
     0
  9
$DIMSE1
 70
     0
  9
$DIMSE2
 70
     0
  9
$DIMTAD
 70
     3
  9
$DIMZIN
 70
     9
  9
$DIMBLK
  1
OPEN
  9
$DIMASO
 70
     1
  9
$DIMSHO
 70
     1
  9
$DIMPOST
  1

  9
$DIMAPOST
  1

  9
$DIMALT
 70
     0
  9
$DIMALTD
 70
     2
  9
$DIMALTF
 40
25.399999999999999
  9
$DIMLFAC
 40
1.0
  9
$DIMTOFL
 70
     1
  9
$DIMTVP
 40
0.0
  9
$DIMTIX
 70
     1
  9
$DIMSOXD
 70
     0
  9
$DIMSAH
 70
     0
  9
$DIMBLK1
  1

  9
$DIMBLK2
  1

  9
$DIMSTYLE
  2
BIGT
  9
$DIMCLRD
 70
   256
  9
$DIMCLRE
 70
   256
  9
$DIMCLRT
 70
    40
  9
$DIMTFAC
 40
1.0
  9
$DIMGAP
 40
1.0
  9
$LUNITS
 70
     2
  9
$LUPREC
 70
     3
  9
$SKETCHINC
 40
1.0
  9
$FILLETRAD
 40
0.0
  9
$AUNITS
 70
     0
  9
$AUPREC
 70
     3
  9
$MENU
  1
.
  9
$ELEVATION
 40
0.0
  9
$PELEVATION
 40
0.0
  9
$THICKNESS
 40
0.0
  9
$LIMCHECK
 70
     0
  9
$BLIPMODE
 70
     0
  9
$CHAMFERA
 40
0.25
  9
$CHAMFERB
 40
0.25
  9
$SKPOLY
 70
     0
  9
$TDCREATE
 40
2456393.35215066
  9
$TDUPDATE
 40
2457857.4392292709
  9
$TDINDWG
 40
0.0736971296
  9
$TDUSRTIMER
 40
0.0736971181
  9
$USRTIMER
 70
     1
  9
$ANGBASE
 50
0.0
  9
$ANGDIR
 70
     0
  9
$PDMODE
 70
     1
  9
$PDSIZE
 40
0.0
  9
$PLINEWID
 40
0.0
  9
$COORDS
 70
     1
  9
$SPLFRAME
 70
     0
  9
$SPLINETYPE
 70
     6
  9
$SPLINESEGS
 70
     4
  9
$ATTDIA
 70
     1
  9
$ATTREQ
 70
     1
  9
$HANDLING
 70
     1
  9
$HANDSEED
  5
198E
  9
$SURFTAB1
 70
     6
  9
$SURFTAB2
 70
     6
  9
$SURFTYPE
 70
     6
  9
$SURFU
 70
     6
  9
$SURFV
 70
     6
  9
$UCSNAME
  2

  9
$UCSORG
 10
0.0
 20
0.0
 30
0.0
  9
$UCSXDIR
 10
1.0
 20
0.0
 30
0.0
  9
$UCSYDIR
 10
0.0
 20
1.0
 30
0.0
  9
$PUCSNAME
  2

  9
$PUCSORG
 10
0.0
 20
0.0
 30
0.0
  9
$PUCSXDIR
 10
1.0
 20
0.0
 30
0.0
  9
$PUCSYDIR
 10
0.0
 20
1.0
 30
0.0
  9
$USERI1
 70
     1
  9
$USERI2
 70
     0
  9
$USERI3
 70
     0
  9
$USERI4
 70
     0
  9
$USERI5
 70
     0
  9
$USERR1
 40
0.0
  9
$USERR2
 40
0.0
  9
$USERR3
 40
0.0
  9
$USERR4
 40
0.0
  9
$USERR5
 40
0.0
  9
$WORLDVIEW
 70
     1
  9
$SHADEDGE
 70
     3
  9
$SHADEDIF
 70
    70
  9
$TILEMODE
 70
     1
  9
$MAXACTVP
 70
    16
  9
$PLIMCHECK
 70
     0
  9
$PEXTMIN
 10
1.0000000000000000E+020
 20
1.0000000000000000E+020
 30
1.0000000000000000E+020
  9
$PEXTMAX
 10
-1.0000000000000000E+020
 20
-1.0000000000000000E+020
 30
-1.0000000000000000E+020
  9
$PLIMMIN
 10
0.0
 20
0.0
  9
$PLIMMAX
 10
420.0
 20
297.0
  9
$UNITMODE
 70
     0
  9
$VISRETAIN
 70
     1
  9
$PLINEGEN
 70
     0
  9
$PSLTSCALE
 70
     1
  0
ENDSEC
  0
SECTION
  2
TABLES
  0
TABLE
  2
VPORT
 70
     1
  0
VPORT
  2
*ACTIVE
 70
     0
 10
0.0
 20
0.0
 11
1.0
 21
1.0
 12
-10.19995447534504
 22
9.1843593395383731
 13
0.0
 23
0.0
 14
7.0
 24
7.0
 15
7.0
 25
7.0
 16
0.0
 26
0.0
 36
1.0
 17
0.0
 27
0.0
 37
0.0
 40
83.189223887541814
 41
1.635334088335221
 42
50.0
 43
0.0
 44
0.0
 50
0.0
 51
0.0
 71
     0
 72
  2000
 73
     1
 74
     0
 75
     0
 76
     1
 77
     0
 78
     0
  0
ENDTAB
  0
TABLE
  2
LTYPE
 70
    24
  0
LTYPE
  2
CONTINUOUS
 70
     0
  3
Solid line
 72
    65
 73
     0
 40
0.0
  0
LTYPE
  2
CENTER2
 70
     0
  3
___ _ ___ _ ___ _ ___ _ ___ _ ___ _ ___ _ ___ _
 72
    65
 73
     4
 40
1.125
 49
0.75
 49
-0.125
 49
0.125
 49
-0.125
  0
LTYPE
  2
HIDDEN2
 70
     0
  3
_ _ _ _ _ _ _ _ _ _ _ _ _ _ _ _ _ _ _ _ _ _ _ _
 72
    65
 73
     2
 40
0.1875
 49
0.125
 49
-0.0625
  0
LTYPE
  2
PHANTOM2
 70
     0
  3
___ _ _ ___ _ _ ___ _ _ ___ _ _ ___ _ _ ___ _ _
 72
    65
 73
     6
 40
1.25
 49
0.625
 49
-0.125
 49
0.125
 49
-0.125
 49
0.125
 49
-0.125
  0
LTYPE
  2
CENTER
 70
     0
  3
____ _ ____ _ ____ _ ____ _ ____ _ ____ _ ____ 
 72
    65
 73
     4
 40
2.0
 49
1.25
 49
-0.25
 49
0.25
 49
-0.25
  0
LTYPE
  2
AMCONSTR
 70
     0
  3
_______________________
 72
    65
 73
     2
 40
9999.0
 49
9999.0
 49
0.0
  0
LTYPE
  2
HIDDEN
 70
     0
  3
Hidden __ __ __ __ __ __ __ __ __ __ __ __ __ _
 72
    65
 73
     2
 40
9.5249999999999986
 49
6.3499999999999979
 49
-3.174999999999998
  0
LTYPE
  2
AMZIGZAG2
 70
     0
  3
/\/-/\/-/\/-/\/-/\/-/\/
 72
    65
 73
     2
 40
0.4401
 49
0.0001
 49
-0.4400000000000002
  0
LTYPE
  2
ACANSTGB
 70
     0
  3
__ . . __ . .
 72
    65
 73
     6
 40
0.35433070866
 49
0.15748031496
 49
-0.03937007874
 49
0.03937007874
 49
-0.03937007874
 49
0.03937007874
 49
-0.03937007874
  0
LTYPE
  2
ACANSTGL
 70
     0
  3
_ _ _ _ _
 72
    65
 73
     2
 40
0.11811023622
 49
0.07874015748
 49
-0.03937007874
  0
ENDTAB
  0
TABLE
  2
LAYER
 70
    17
  0
LAYER
  2
0
 70
     0
 62
     7
  6
CONTINUOUS
  0
LAYER
  2
240
 70
     0
 62
     4
  6
CONTINUOUS
  0
LAYER
  2
DEFPOINTS
 70
     0
 62
     7
  6
CONTINUOUS
  0
LAYER
  2
245
 70
     0
 62
     2
  6
CENTER2
  0
LAYER
  2
241
 70
     0
 62
   211
  6
CONTINUOUS
  0
LAYER
  2
246
 70
     0
 62
     3
  6
PHANTOM2
  0
LAYER
  2
247
 70
     0
 62
    60
  6
CONTINUOUS
  0
LAYER
  2
250
 70
     0
 62
     3
  6
CONTINUOUS
  0
ENDTAB
  0
TABLE
  2
STYLE
 70
    11
  0
STYLE
  2
STANDARD
 70
     0
 40
0.0
 41
1.0
 50
0.0
 71
     0
 42
3.0
  3
romans.shx
  4
extfont.shx
  0
STYLE
  2
YOKO
 70
     0
 40
0.0
 41
1.0
 50
0.0
 71
     0
 42
3.0
  3
romans.shx
  4
extfont.shx
  0
STYLE
  2
ACJISTS
 70
     0
 40
1.0
 41
1.0
 50
0.0
 71
     0
 42
3.0
  3
amgdt.shx
  4
extfont.shx
  0
STYLE
  2
ACANSGDT
 70
     0
 40
0.0
 41
1.0
 50
0.0
 71
     0
 42
0.2
  3
amgdt.shx
  4

  0
ENDTAB
  0
TABLE
  2
VIEW
 70
     0
  0
ENDTAB
  0
TABLE
  2
UCS
 70
     0
  0
ENDTAB
  0
TABLE
  2
APPID
 70
    33
  0
APPID
  2
ACAD
 70
     0
  0
APPID
  2
ACADANNOTATIVE
 70
     0
  0
APPID
  2
GLOBAL
 70
     0
  0
APPID
  2
DETAIL
 70
     0
  0
APPID
  2
GRPNAME
 70
     0
  0
APPID
  2
GPARA
 70
     0
  0
APPID
  2
MCAD_NO_VIS
 70
     0
  0
APPID
  2
ACAD_TEMP_GRAPHIC
 70
     0
  0
APPID
  2
ACATTRIBSERVICES
 70
     0
  0
APPID
  2
GENIUS_GENSCREG_15
 70
     0
  0
APPID
  2
GENIUS_GENODEF_13
 70
     0
  0
APPID
  2
GENIUS_GENOBJ-N-SDF_13
 70
     0
  0
APPID
  2
GENIUS_GENREC_14
 70
     0
  0
APPID
  2
GENIUS_GENOBJ-N-REC_13
 70
     0
  0
APPID
  2
GENIUS_GENDIMSH_14
 70
     0
  0
APPID
  2
GENIUS_GENOBJ-N-DIM_13
 70
     0
  0
APPID
  2
GENIUS_GENDIM_13
 70
     0
  0
APPID
  2
GENIUS_GENDTOL_13
 70
     0
  0
APPID
  2
GENIUS_GENOLIS_13
 70
     0
  0
APPID
  2
GENIUS_GENOENT_13
 70
     0
  0
APPID
  2
GENIUS_GENOBJ-F-FEM_13
 70
     0
  0
APPID
  2
GENIUS_GENOREF_13
 70
     0
  0
APPID
  2
GENIUS_GEFFEM_13
 70
     0
  0
APPID
  2
GENIUS_GEFFEMP_13
 70
     0
  0
APPID
  2
AD_DRAW
 70
     0
  0
APPID
  2
DESIGNERASSEMBLIES
 70
     0
  0
APPID
  2
ACADM_DIM_EDIT
 70
     0
  0
APPID
  2
AMDT_DM_ADJ
 70
     0
  0
APPID
  2
ACAD_DSTYLE_DIMBREAK
 70
     0
  0
APPID
  2
ACAD_DSTYLE_DIMJAG
 70
     0
  0
APPID
  2
ACAD_NAV_VCDISPLAY
 70
     0
  0
APPID
  2
GENIUS_GENOBJ-N-FIL_13
 70
     0
  0
APPID
  2
ACAD_MLEADERVER
 70
     0
  0
ENDTAB
  0
TABLE
  2
DIMSTYLE
 70
    32
  0
DIMSTYLE
  2
STANDARD
 70
     0
  3

  4

  5

  6

  7

 40
1.0
 41
0.18
 42
0.0625
 43
0.38
 44
0.18
 45
0.0
 46
0.0
 47
0.0
 48
0.0
140
0.18
141
0.09
142
0.0
143
25.399999999999999
144
1.0
145
0.0
146
1.0
147
0.09
 71
     0
 72
     0
 73
     1
 74
     1
 75
     0
 76
     0
 77
     0
 78
     0
170
     0
171
     2
172
     0
173
     0
174
     0
175
     0
176
     0
177
     0
178
     0
  0
DIMSTYLE
  2
BIGT
 70
     0
  3

  4

  5

  6

  7

 40
1.0
 41
2.2299999999999991
 42
0.5
 43
7.0
 44
1.0
 45
0.0
 46
0.0
 47
0.0
 48
0.01
140
2.799999999999998
141
0.0
142
0.0
143
25.399999999999999
144
1.0
145
0.0
146
1.0
147
1.0
 71
     0
 72
     0
 73
     0
 74
     0
 75
     0
 76
     0
 77
     3
 78
     9
170
     0
171
     2
172
     1
173
     0
174
     1
175
     0
176
   256
177
   256
178
    40
  0
DIMSTYLE
  2
AM_ANSI
 70
     0
  3

  4
mm
  5

  6

  7

 40
1.0
 41
0.1
 42
0.05
 43
0.5
 44
0.1
 45
0.0
 46
0.0
 47
0.1
 48
0.1
140
0.12
141
0.0
142
0.0
143
25.399999999999999
144
1.0
145
0.0
146
0.71
147
0.06
 71
     0
 72
     0
 73
     1
 74
     1
 75
     0
 76
     0
 77
     0
 78
     7
170
     0
171
     2
172
     0
173
     0
174
     0
175
     0
176
   256
177
   256
178
     2
  0
DIMSTYLE
  2
AM_ANSI$3
 70
     0
  3

  4
mm
  5

  6

  7

 40
1.0
 41
0.1
 42
0.05
 43
0.5
 44
0.1
 45
0.0
 46
0.0
 47
0.1
 48
0.1
140
0.12
141
0.0
142
0.0
143
25.399999999999999
144
1.0
145
0.0
146
0.71
147
0.06
 71
     0
 72
     0
 73
     1
 74
     1
 75
     0
 76
     0
 77
     0
 78
     7
170
     0
171
     2
172
     0
173
     0
174
     0
175
     0
176
   256
177
   256
178
     2
  0
DIMSTYLE
  2
AM_ANSI$4
 70
     0
  3

  4
mm
  5

  6

  7

 40
1.0
 41
0.1
 42
0.05
 43
0.5
 44
0.1
 45
0.0
 46
0.0
 47
0.1
 48
0.1
140
0.12
141
0.0
142
0.0
143
25.399999999999999
144
1.0
145
0.0
146
0.71
147
0.06
 71
     0
 72
     0
 73
     1
 74
     1
 75
     0
 76
     0
 77
     0
 78
     7
170
     0
171
     2
172
     0
173
     0
174
     0
175
     0
176
   256
177
   256
178
     2
  0
DIMSTYLE
  2
AM_ANSI$7
 70
     0
  3

  4
mm
  5

  6

  7

 40
1.0
 41
0.1
 42
0.05
 43
0.5
 44
0.1
 45
0.0
 46
0.0
 47
0.1
 48
0.1
140
0.24
141
0.0
142
0.0
143
25.399999999999999
144
1.0
145
0.0
146
0.71
147
0.06
 71
     0
 72
     0
 73
     1
 74
     1
 75
     0
 76
     0
 77
     0
 78
     7
170
     0
171
     2
172
     0
173
     0
174
     0
175
     0
176
   256
177
   256
178
     2
  0
DIMSTYLE
  2
AM_ANSI$SF
 70
     0
  3

  4
mm
  5

  6

  7

 40
1.0
 41
0.1
 42
0.05
 43
0.5
 44
0.1
 45
0.0
 46
0.0
 47
0.1
 48
0.1
140
0.12
141
0.0
142
0.0
143
25.399999999999999
144
1.0
145
0.0
146
0.71
147
0.06
 71
     0
 72
     0
 73
     1
 74
     1
 75
     1
 76
     1
 77
     0
 78
     7
170
     0
171
     2
172
     0
173
     0
174
     0
175
     0
176
   256
177
   256
178
     2
  0
DIMSTYLE
  2
AM_ANSI$SH
 70
     0
  3

  4
mm
  5

  6

  7

 40
1.0
 41
0.1
 42
0.05
 43
0.5
 44
0.1
 45
0.0
 46
0.0
 47
0.1
 48
0.1
140
0.12
141
0.0
142
0.0
143
25.399999999999999
144
1.0
145
0.0
146
0.71
147
0.06
 71
     0
 72
     0
 73
     1
 74
     1
 75
     1
 76
     1
 77
     0
 78
     7
170
     0
171
     2
172
     0
173
     1
174
     0
175
     0
176
   256
177
   256
178
     2
  0
ENDTAB
  0
ENDSEC
  0
SECTION
  2
BLOCKS
  0
BLOCK
  8
0
  2
$MODEL_SPACE
 70
     0
 10
0.0
 20
0.0
 30
0.0
  3
$MODEL_SPACE
  1

  0
ENDBLK
  5
172E
  8
0
  0
BLOCK
 67
     1
  8
0
  2
$PAPER_SPACE
 70
     0
 10
0.0
 20
0.0
 30
0.0
  3
$PAPER_SPACE
  1

  0
ENDBLK
  5
172A
 67
     1
  8
0
  0
BLOCK
  8
0
  2
_OPEN
 70
     0
 10
0.0
 20
0.0
 30
0.0
  3
_OPEN
  1

  0
LINE
  5
1644
  8
0
  6
BYBLOCK
 62
     0
 10
-1.0
 20
0.1666666666666666
 30
0.0
 11
0.0
 21
0.0
 31
0.0
  0
LINE
  5
1645
  8
0
  6
BYBLOCK
 62
     0
 10
-1.0
 20
-0.1666666666666666
 30
0.0
 11
0.0
 21
0.0
 31
0.0
  0
LINE
  5
1646
  8
0
  6
BYBLOCK
 62
     0
 10
0.0
 20
0.0
 30
0.0
 11
-1.0
 21
0.0
 31
0.0
  0
ENDBLK
  5
1647
  8
0
  0
BLOCK
  8
0
  2
_ACMFILLEDHALF
 70
     0
 10
0.0
 20
0.0
 30
0.0
  3
_ACMFILLEDHALF
  1

  0
TRACE
  5
17FC
  8
240
 62
     0
 10
-0.8
 20
0.0
 30
0.0
 11
-1.0
 21
0.166666666
 31
0.0
 12
0.0
 22
0.0
 32
0.0
 13
0.0
 23
0.0
 33
0.0
  0
LINE
  5
17FD
  8
240
 62
     0
 10
-1.0
 20
0.0
 30
0.0
 11
-0.8
 21
0.0
 31
0.0
  0
ENDBLK
  5
17FB
  8
0
  0
ENDSEC
  0
SECTION
  2
ENTITIES
  0
LINE
  5
13FC
  8
240
  6
CONTINUOUS
 10
-14.00004461
 20
3.4999999999999969
 30
0.0
 11
-52.0
 21
3.4999999999999978
 31
0.0
  0
LINE
  5
1401
  8
240
  6
CONTINUOUS
 10
-52.0
 20
-3.5
 30
0.0
 11
-52.0
 21
3.4999999999999978
 31
0.0
  0
LINE
  5
1403
  8
240
  6
CONTINUOUS
 10
-52.0
 20
-3.5
 30
0.0
 11
-14.000044609999989
 21
-3.5
 31
0.0
  0
LINE
  5
1404
  8
245
  6
CENTER2
 10
-52.864461901999988
 20
-0.0000000000000018
 30
0.0
 11
0.3340185379999987
 21
-0.0000000000000018
 31
0.0
  0
LINE
  5
140B
  8
240
  6
CONTINUOUS
 10
-12.00004461
 20
5.4999999999999982
 30
0.0
 11
-14.00004461
 21
3.4999999999999969
 31
0.0
  0
LINE
  5
140C
  8
240
  6
CONTINUOUS
 10
-14.00004461
 20
-3.5
 30
0.0
 11
-12.00004461
 21
-5.5
 31
0.0
  0
LINE
  5
140D
  8
240
  6
CONTINUOUS
 10
-12.00004461
 20
-5.5
 30
0.0
 11
-0.8717331746325046
 21
-5.500000000000453
 31
0.0
  0
LINE
  5
140E
  8
240
  6
CONTINUOUS
 10
-1.416467610673279
 20
5.4999999999999982
 30
0.0
 11
-12.00004461
 21
5.4999999999999982
 31
0.0
  0
ARC
  5
1410
  8
240
  6
CONTINUOUS
 10
-0.2693719220000013
 20
5.4822689609999982
 30
0.0
 40
0.269371922
 50
356.71607377499998
 51
116.85469609399991
  0
LINE
  5
1411
  8
240
  6
CONTINUOUS
 10
-0.000442329000002
 20
5.466838272999996
 30
0.0
 11
-0.3416898669999995
 21
-0.8285138840000016
 31
0.0
  0
ARC
  5
1412
  8
241
  6
CONTINUOUS
 10
-0.6105832512105688
 20
-0.8149358654946169
 30
0.0
 40
0.2690256162043102
 50
236.8637199285354
 51
263.49043367136812
  0
LINE
  5
1413
  8
241
  6
CONTINUOUS
 10
-0.7576413429999998
 20
-1.040210586000001
 30
0.0
 11
-6.0182062089999988
 21
2.4041234019999962
 31
0.0
  0
ARC
  5
1414
  8
241
  6
CONTINUOUS
 10
-5.869510427999999
 20
2.6305415719999981
 30
0.0
 40
0.270762657
 50
116.97362156999991
 51
236.70586198500001
  0
LINE
  5
1415
  8
240
  6
CONTINUOUS
 10
-1.216258179343044
 20
5.3026069547253059
 30
0.0
 11
-0.3910551449999993
 21
5.7225904659999971
 31
0.0
  0
LINE
  5
1416
  8
241
  6
CONTINUOUS
 10
-12.00004461
 20
1.7048702086497911
 30
0.0
 11
-12.00004461
 21
-5.5
 31
0.0
  0
LINE
  5
141B
  8
241
  6
CONTINUOUS
 10
-14.00004461
 20
3.4999999999999969
 30
0.0
 11
-14.00004461
 21
-3.5
 31
0.0
  0
ARC
  5
1422
  8
240
  6
CONTINUOUS
 10
-2.861314645999999
 20
3.834308494999997
 30
0.0
 40
2.2050195339999989
 50
41.750570441999983
 51
49.06111631561842
  0
LINE
  5
142C
  8
240
  6
CONTINUOUS
 10
-0.8717331746325046
 20
-5.500000000000453
 30
0.0
 11
-0.6410824439638116
 21
-1.082227057671816
 31
0.0
  0
LINE
  5
146A
  8
241
  6
CONTINUOUS
 10
-1.2162581789358651
 20
5.3026069542691081
 30
0.0
 11
-5.9923230191457799
 21
2.8718494332100271
 31
0.0
  0
ARC
  5
146B
  8
240
  6
CONTINUOUS
 10
-0.6105268170000003
 20
-0.8147793100000018
 30
0.0
 40
0.269187563
 50
263.48227698490359
 51
357.07536652499999
  0
CIRCLE
  5
149E
  8
246
  6
PHANTOM2
 10
-2.254232028238166
 20
2.433380573226791
 30
0.0
 40
2.086294430748671
  0
TEXT
  5
14E4
  8
241
  6
CONTINUOUS
 10
-49.400036000999989
 20
35.0
 30
0.0
 40
5.0
  1
ST7W-EB12-30
  7
YOKO
  0
LINE
  5
159C
  8
250
  6
CONTINUOUS
 10
0.2306280779999987
 20
5.7516408829999968
 30
0.0
 11
8.0
 21
5.7516408829999941
 31
0.0
  0
LINE
  5
159D
  8
250
  6
CONTINUOUS
 10
7.0
 20
3.521640882999995
 30
0.0
 11
6.9999999999999956
 21
-8.3404143257932724
 31
0.0
  0
LINE
  5
15A0
  8
250
  6
CONTINUOUS
 10
-52.0
 20
3.799999999999998
 30
0.0
 11
-52.0
 21
22.0
 31
0.0
  0
LINE
  5
15A1
  8
250
  6
CONTINUOUS
 10
-0.0000000000000012
 20
5.9822689609999982
 30
0.0
 11
-0.0000000000000003
 21
22.0
 31
0.0
  0
LINE
  5
15A2
  8
250
  6
CONTINUOUS
 10
-49.770000000000003
 20
21.0
 30
0.0
 11
-2.2299999999999991
 21
21.0
 31
0.0
  0
LINE
  5
15A6
  8
250
  6
CONTINUOUS
 10
6.6283333333333321
 20
3.521640882999995
 30
0.0
 11
7.0
 21
5.7516408829999941
 31
0.0
  0
LINE
  5
15A7
  8
250
  6
CONTINUOUS
 10
7.3716666666666653
 20
3.521640882999995
 30
0.0
 11
7.0
 21
5.7516408829999941
 31
0.0
  0
LINE
  5
15A8
  8
250
  6
CONTINUOUS
 10
7.0
 20
5.7516408829999941
 30
0.0
 11
7.0
 21
3.521640882999995
 31
0.0
  0
TEXT
  5
15A9
  8
250
  6
CONTINUOUS
 10
5.8041361326647767
 20
-9.5469973692972125
 30
0.0
 40
2.799999999999998
  1
\U+220511.8~15.0
 50
90.0
  0
TEXT
  5
15AA
  8
250
  6
CONTINUOUS
 10
-28.666666666666671
 20
22.0
 30
0.0
 40
2.799999999999998
  1
52
  0
LINE
  5
15AB
  8
250
  6
CONTINUOUS
 10
-2.2299999999999991
 20
21.37166666666667
 30
0.0
 11
-0.0000000000000003
 21
21.0
 31
0.0
  0
LINE
  5
15AC
  8
250
  6
CONTINUOUS
 10
-2.2299999999999991
 20
20.62833333333333
 30
0.0
 11
-0.0000000000000003
 21
21.0
 31
0.0
  0
LINE
  5
15AD
  8
250
  6
CONTINUOUS
 10
-0.0000000000000003
 20
21.0
 30
0.0
 11
-2.2299999999999991
 21
21.0
 31
0.0
  0
LINE
  5
15AE
  8
250
  6
CONTINUOUS
 10
-49.770000000000003
 20
20.62833333333333
 30
0.0
 11
-52.0
 21
21.0
 31
0.0
  0
LINE
  5
15AF
  8
250
  6
CONTINUOUS
 10
-49.770000000000003
 20
21.37166666666667
 30
0.0
 11
-52.0
 21
21.0
 31
0.0
  0
LINE
  5
15B0
  8
250
  6
CONTINUOUS
 10
-52.0
 20
21.0
 30
0.0
 11
-49.770000000000003
 21
21.0
 31
0.0
  0
LINE
  5
183B
  8
247
  6
CONTINUOUS
 10
-47.750000000000007
 20
-1.4999999999999989
 30
0.0
 11
-43.115384615669988
 21
-1.4999999999999989
 31
0.0
  0
LINE
  5
183C
  8
247
  6
CONTINUOUS
 10
-46.954893499987961
 20
0.999999999999998
 30
0.0
 11
-47.557058810057342
 21
-1.0999999999160091
 31
0.0
  0
LINE
  5
183D
  8
247
  6
CONTINUOUS
 10
-46.325151403519037
 20
0.0038461538861138
 30
0.0
 11
-47.240536018867033
 21
0.0038461538861138
 31
0.0
  0
ARC
  5
183E
  8
247
  6
CONTINUOUS
 10
-46.087263401946821
 20
0.6152809327058987
 30
0.0
 40
0.3876715809326743
 50
342.99788967529503
 51
82.924166218513577
  0
ARC
  5
183F
  8
247
  6
CONTINUOUS
 10
-46.38247755680414
 20
0.6947768689719834
 30
0.0
 40
0.693304796535877
 50
274.74293685219902
 51
343.8492262732662
1001
GENIUS_GENOBJ-N-FIL_13
1002
{
1000
OWNER
1000
GEN
1002
}
1001
GENIUS_GENODEF_13
1002
{
1000
HIER
1070
     0
1002
}
1002
{
1000
MANEDIT
1070
     0
1002
}
1002
{
1000
NOSEL
1070
     0
1002
}
1002
{
1000
BEHIND
1070
     0
1002
}
1002
{
1000
OTHER
1070
     0
1002
}
1002
{
1000
REACTOR
1002
}
  0
LINE
  5
1840
  8
247
  6
CONTINUOUS
 10
-46.641674194709367
 20
-1.0999999999160091
 30
0.0
 11
-47.557058810057342
 21
-1.0999999999160091
 31
0.0
  0
LINE
  5
1841
  8
247
  6
CONTINUOUS
 10
-46.954893499987961
 20
0.999999999999998
 30
0.0
 11
-46.039508884639929
 21
0.999999999999998
 31
0.0
  0
ARC
  5
1842
  8
247
  6
CONTINUOUS
 10
-46.378306476266822
 20
-0.3874169627679312
 30
0.0
 40
0.394857301075386
 50
335.9909416525216
 51
82.263443459069066
  0
ARC
  5
1843
  8
247
  6
CONTINUOUS
 10
-46.712446610426881
 20
-0.3912003273326281
 30
0.0
 40
0.7123241612361686
 50
275.70198516425648
 51
347.27733843682182
1001
GENIUS_GENOBJ-N-FIL_13
1002
{
1000
OWNER
1000
GEN
1002
}
1001
GENIUS_GENODEF_13
1002
{
1000
HIER
1070
     0
1002
}
1002
{
1000
MANEDIT
1070
     0
1002
}
1002
{
1000
NOSEL
1070
     0
1002
}
1002
{
1000
BEHIND
1070
     0
1002
}
1002
{
1000
OTHER
1070
     0
1002
}
1002
{
1000
REACTOR
1002
}
  0
LINE
  5
1844
  8
247
  6
CONTINUOUS
 10
-45.683981887063382
 20
-1.0999999999160091
 30
0.0
 11
-45.081816576993923
 21
0.999999999999998
 31
0.0
  0
LINE
  5
1845
  8
247
  6
CONTINUOUS
 10
-43.585662730907963
 20
0.999999999999998
 30
0.0
 11
-43.981678364303519
 21
0.999999999999998
 31
0.0
  0
LINE
  5
1846
  8
247
  6
CONTINUOUS
 10
-44.608739653943978
 20
-1.0999999999160091
 30
0.0
 11
-44.177970423191923
 21
-1.0999999999160091
 31
0.0
  0
ARC
  5
1847
  8
247
  6
CONTINUOUS
 10
-43.381816577069962
 20
-0.4582995950834195
 30
0.0
 40
1.576855057639547
 50
112.3594881415293
 51
164.99324854284649
  0
ARC
  5
1848
  8
247
  6
CONTINUOUS
 10
-43.847511366133212
 20
0.4341811414619755
 30
0.0
 40
0.6234706797009447
 50
4.9945893190753967
 51
65.166328957308124
1001
GENIUS_GENOBJ-N-FIL_13
1002
{
1000
OWNER
1000
GEN
1002
}
1001
GENIUS_GENODEF_13
1002
{
1000
HIER
1070
     0
1002
}
1002
{
1000
MANEDIT
1070
     0
1002
}
1002
{
1000
NOSEL
1070
     0
1002
}
1002
{
1000
BEHIND
1070
     0
1002
}
1002
{
1000
OTHER
1070
     0
1002
}
1002
{
1000
REACTOR
1002
}
  0
ARC
  5
1849
  8
247
  6
CONTINUOUS
 10
-44.444183951032727
 20
-0.1621021219693848
 30
0.0
 40
0.9749472149106983
 50
285.84609655578407
 51
352.3251370041624
  0
ARC
  5
184A
  8
247
  6
CONTINUOUS
 10
-44.035211638772211
 20
-0.3714704019710115
 30
0.0
 40
0.9271945638692009
 50
159.7136016704896
 51
231.78874565641519
1001
GENIUS_GENOBJ-N-FIL_13
1002
{
1000
OWNER
1000
GEN
1002
}
1001
GENIUS_GENODEF_13
1002
{
1000
HIER
1070
     0
1002
}
1002
{
1000
MANEDIT
1070
     0
1002
}
1002
{
1000
NOSEL
1070
     0
1002
}
1002
{
1000
BEHIND
1070
     0
1002
}
1002
{
1000
OTHER
1070
     0
1002
}
1002
{
1000
REACTOR
1002
}
  0
LINE
  5
184B
  8
247
  6
CONTINUOUS
 10
-43.962585807815969
 20
-0.2923076922559193
 30
0.0
 11
-43.477970423219958
 21
-0.2923076922559193
 31
0.0
  0
ARC
  5
184C
  8
247
  6
CONTINUOUS
 10
-47.750000000000007
 20
-0.2500000000000018
 30
0.0
 40
1.25
 50
90.0
 51
270.0
  0
LINE
  5
184D
  8
247
  6
CONTINUOUS
 10
-47.750000000000007
 20
0.999999999999998
 30
0.0
 11
-47.303846153913959
 21
0.999999999999998
 31
0.0
  0
ARC
  5
184E
  8
247
  6
CONTINUOUS
 10
-43.115384615669988
 20
-0.2500000000000018
 30
0.0
 40
1.25
 50
270.0
 51
90.0
  0
LINE
  5
184F
  8
250
  6
CONTINUOUS
 10
-56.011952367232787
 20
-11.92225881136414
 30
0.0
 11
-44.262223759810681
 21
-11.92225881136414
 31
0.0
  0
LINE
  5
1850
  8
250
  6
CONTINUOUS
 10
-44.262223759810681
 20
-11.92225881136414
 30
0.0
 11
-40.590667907276959
 21
-5.44034567174947
 31
0.0
  0
LINE
  5
1851
  8
250
  6
CONTINUOUS
 10
-40.590667907276959
 20
-5.44034567174947
 30
0.0
 11
-39.49159617434816
 21
-3.5000000000000009
 31
0.0
  0
LINE
  5
1852
  8
250
  6
CONTINUOUS
 10
-40.335216554547948
 20
-5.5850412097717017
 30
0.0
 11
-39.49159617434816
 21
-3.5000000000000009
 31
0.0
  0
LINE
  5
1853
  8
250
  6
CONTINUOUS
 10
-39.49159617434816
 20
-3.5000000000000009
 30
0.0
 11
-40.846119260005928
 21
-5.2956501337272348
 31
0.0
  0
TEXT
  5
1854
  8
250
  6
CONTINUOUS
 10
-55.76914174693303
 20
-10.52225881136417
 30
0.0
 40
2.799999999999998
  1
ST7W
  7
ACJISTS
  0
ARC
  5
1881
  8
241
  6
CONTINUOUS
 10
1.8382804695408941
 20
14.30058653904484
 30
0.0
 40
20.146578006763971
 50
242.30724319260571
 51
259.36608502836617
  0
LINE
  5
1882
  8
241
  6
CONTINUOUS
 10
-6.102658906632592
 20
2.4926850742087061
 30
0.0
 11
-8.6320945438304282
 21
5.507149081664898
 31
0.0
  0
LINE
  5
1883
  8
241
  6
CONTINUOUS
 10
-0.7852899672143493
 20
-3.8443084629613979
 30
0.0
 11
-4.7324662208304238
 21
0.859753017664901
 31
0.0
  0
ARC
  5
1884
  8
241
  6
CONTINUOUS
 10
-4.468139422882909
 20
3.6024351043248952
 30
0.0
 40
7.7672613114932458
 50
165.8593556733305
 51
246.8284730779576
  0
ARC
  5
1887
  8
241
  6
CONTINUOUS
 10
-6.2605491323979052
 20
1.2540359739372831
 30
0.0
 40
1.0
 50
116.68476568598849
 51
296.68476568598851
  0
LINE
  5
1888
  8
241
  6
CONTINUOUS
 10
-6.7096305775634848
 20
2.147526799636124
 30
0.0
 11
-6.082232213435641
 21
2.4628663151109218
 31
0.0
  0
LINE
  5
1889
  8
241
  6
CONTINUOUS
 10
-4.1627014062354171
 20
1.1892389891978501
 30
0.0
 11
-5.8114676872323292
 21
0.360545148238443
 31
0.0
  0
VIEWPORT
  5
22
 67
     1
  8
0
 10
261.51769911504419
 20
148.5
 30
0.0
 40
523.0353982300885
 41
297.0
 68
     1
 69
     1
1001
ACAD
1000
MVIEW
1002
{
1070
    16
1010
0.0
1020
0.0
1030
0.0
1010
0.0
1020
0.0
1030
1.0
1040
0.0
1040
297.0
1040
261.51769911504419
1040
148.5
1040
50.0
1040
0.0
1040
0.0
1070
     0
1070
   100
1070
     1
1070
     1
1070
     0
1070
     0
1070
     0
1070
     0
1040
0.0
1040
0.0
1040
0.0
1040
1.0
1040
1.0
1040
10.0
1040
10.0
1070
     0
1002
{
1002
}
1002
}
1001
GENIUS_GENODEF_13
1002
{
1000
HIER
1070
     0
1002
}
1002
{
1000
MANEDIT
1070
     0
1002
}
1002
{
1000
NOSEL
1070
     0
1002
}
1002
{
1000
BEHIND
1070
     0
1002
}
1002
{
1000
OTHER
1070
     0
1002
}
1002
{
1000
REACTOR
1002
}
1001
GENIUS_GENOBJ-N-SDF_13
1002
{
1000
OWNER
1000
GEN
1002
}
1001
GENIUS_GENSCREG_15
1000
PF
1040
1.0
1000
DF
1040
1.0
1000
MIN
1011
0.0
1021
0.0
1031
0.0
1021
0.0
1031
0.0
1000
MAX
1011
523.0353982300885
1021
0.0
1031
0.0
1021
297.0
1031
0.0
1000
FLAGS
1070
     4
  0
ENDSEC
  0
EOF
