  0
SECTION
  2
HEADER
  9
$ACADVER
  1
AC1009
  9
$INSBASE
 10
0.0
 20
0.0
 30
0.0
  9
$EXTMIN
 10
-61.002995811346899
 20
-11.92225881136414
 30
0.0
  9
$EXTMAX
 10
9.9856782867143146
 20
40.0
 30
0.0
  9
$LIMMIN
 10
0.0
 20
0.0
  9
$LIMMAX
 10
297.0
 20
210.0
  9
$ORTHOMODE
 70
     1
  9
$REGENMODE
 70
     1
  9
$FILLMODE
 70
     1
  9
$QTEXTMODE
 70
     0
  9
$MIRRTEXT
 70
     1
  9
$DRAGMODE
 70
     2
  9
$LTSCALE
 40
10.0
  9
$OSMODE
 70
    45
  9
$ATTMODE
 70
     1
  9
$TEXTSIZE
 40
3.0
  9
$TRACEWID
 40
1.0
  9
$TEXTSTYLE
  7
YOKO
  9
$CLAYER
  8
240
  9
$CELTYPE
  6
BYLAYER
  9
$CECOLOR
 62
   256
  9
$DIMSCALE
 40
1.0
  9
$DIMASZ
 40
2.2299999999999991
  9
$DIMEXO
 40
0.5
  9
$DIMDLI
 40
7.0
  9
$DIMRND
 40
0.0
  9
$DIMDLE
 40
0.0
  9
$DIMEXE
 40
1.0
  9
$DIMTP
 40
0.0
  9
$DIMTM
 40
0.01
  9
$DIMTXT
 40
2.799999999999998
  9
$DIMCEN
 40
0.0
  9
$DIMTSZ
 40
0.0
  9
$DIMTOL
 70
     0
  9
$DIMLIM
 70
     0
  9
$DIMTIH
 70
     0
  9
$DIMTOH
 70
     0
  9
$DIMSE1
 70
     0
  9
$DIMSE2
 70
     0
  9
$DIMTAD
 70
     3
  9
$DIMZIN
 70
     9
  9
$DIMBLK
  1
OPEN
  9
$DIMASO
 70
     1
  9
$DIMSHO
 70
     1
  9
$DIMPOST
  1

  9
$DIMAPOST
  1

  9
$DIMALT
 70
     0
  9
$DIMALTD
 70
     2
  9
$DIMALTF
 40
25.399999999999999
  9
$DIMLFAC
 40
1.0
  9
$DIMTOFL
 70
     1
  9
$DIMTVP
 40
0.0
  9
$DIMTIX
 70
     1
  9
$DIMSOXD
 70
     0
  9
$DIMSAH
 70
     0
  9
$DIMBLK1
  1

  9
$DIMBLK2
  1

  9
$DIMSTYLE
  2
BIGT
  9
$DIMCLRD
 70
   256
  9
$DIMCLRE
 70
   256
  9
$DIMCLRT
 70
    40
  9
$DIMTFAC
 40
1.0
  9
$DIMGAP
 40
1.0
  9
$LUNITS
 70
     2
  9
$LUPREC
 70
     3
  9
$SKETCHINC
 40
1.0
  9
$FILLETRAD
 40
0.0
  9
$AUNITS
 70
     0
  9
$AUPREC
 70
     3
  9
$MENU
  1
.
  9
$ELEVATION
 40
0.0
  9
$PELEVATION
 40
0.0
  9
$THICKNESS
 40
0.0
  9
$LIMCHECK
 70
     0
  9
$BLIPMODE
 70
     0
  9
$CHAMFERA
 40
0.25
  9
$CHAMFERB
 40
0.25
  9
$SKPOLY
 70
     0
  9
$TDCREATE
 40
2454805.6345319678
  9
$TDUPDATE
 40
2457857.404020695
  9
$TDINDWG
 40
0.0307142824
  9
$TDUSRTIMER
 40
0.0307142593
  9
$USRTIMER
 70
     1
  9
$ANGBASE
 50
0.0
  9
$ANGDIR
 70
     0
  9
$PDMODE
 70
     1
  9
$PDSIZE
 40
0.0
  9
$PLINEWID
 40
0.0
  9
$COORDS
 70
     1
  9
$SPLFRAME
 70
     0
  9
$SPLINETYPE
 70
     6
  9
$SPLINESEGS
 70
     4
  9
$ATTDIA
 70
     1
  9
$ATTREQ
 70
     1
  9
$HANDLING
 70
     1
  9
$HANDSEED
  5
1A30
  9
$SURFTAB1
 70
     6
  9
$SURFTAB2
 70
     6
  9
$SURFTYPE
 70
     6
  9
$SURFU
 70
     6
  9
$SURFV
 70
     6
  9
$UCSNAME
  2

  9
$UCSORG
 10
0.0
 20
0.0
 30
0.0
  9
$UCSXDIR
 10
1.0
 20
0.0
 30
0.0
  9
$UCSYDIR
 10
0.0
 20
1.0
 30
0.0
  9
$PUCSNAME
  2

  9
$PUCSORG
 10
0.0
 20
0.0
 30
0.0
  9
$PUCSXDIR
 10
1.0
 20
0.0
 30
0.0
  9
$PUCSYDIR
 10
0.0
 20
1.0
 30
0.0
  9
$USERI1
 70
     1
  9
$USERI2
 70
     0
  9
$USERI3
 70
     0
  9
$USERI4
 70
     0
  9
$USERI5
 70
     0
  9
$USERR1
 40
0.0
  9
$USERR2
 40
0.0
  9
$USERR3
 40
0.0
  9
$USERR4
 40
0.0
  9
$USERR5
 40
0.0
  9
$WORLDVIEW
 70
     1
  9
$SHADEDGE
 70
     3
  9
$SHADEDIF
 70
    70
  9
$TILEMODE
 70
     1
  9
$MAXACTVP
 70
    16
  9
$PLIMCHECK
 70
     0
  9
$PEXTMIN
 10
1.0000000000000000E+020
 20
1.0000000000000000E+020
 30
1.0000000000000000E+020
  9
$PEXTMAX
 10
-1.0000000000000000E+020
 20
-1.0000000000000000E+020
 30
-1.0000000000000000E+020
  9
$PLIMMIN
 10
0.0
 20
0.0
  9
$PLIMMAX
 10
420.0
 20
297.0
  9
$UNITMODE
 70
     0
  9
$VISRETAIN
 70
     1
  9
$PLINEGEN
 70
     0
  9
$PSLTSCALE
 70
     1
  0
ENDSEC
  0
SECTION
  2
TABLES
  0
TABLE
  2
VPORT
 70
     1
  0
VPORT
  2
*ACTIVE
 70
     0
 10
0.0
 20
0.0
 11
1.0
 21
1.0
 12
-21.096681479275532
 22
17.49755993991959
 13
0.0
 23
0.0
 14
7.0
 24
7.0
 15
7.0
 25
7.0
 16
0.0
 26
0.0
 36
1.0
 17
0.0
 27
0.0
 37
0.0
 40
87.112199592576971
 41
1.6353340883352201
 42
50.0
 43
0.0
 44
0.0
 50
0.0
 51
0.0
 71
     0
 72
  2000
 73
     1
 74
     0
 75
     0
 76
     1
 77
     0
 78
     0
  0
ENDTAB
  0
TABLE
  2
LTYPE
 70
    22
  0
LTYPE
  2
CONTINUOUS
 70
     0
  3
Solid line
 72
    65
 73
     0
 40
0.0
  0
LTYPE
  2
CENTER2
 70
     0
  3
___ _ ___ _ ___ _ ___ _ ___ _ ___ _ ___ _ ___ _
 72
    65
 73
     4
 40
1.125
 49
0.75
 49
-0.125
 49
0.125
 49
-0.125
  0
LTYPE
  2
HIDDEN2
 70
     0
  3
_ _ _ _ _ _ _ _ _ _ _ _ _ _ _ _ _ _ _ _ _ _ _ _
 72
    65
 73
     2
 40
0.1875
 49
0.125
 49
-0.0625
  0
LTYPE
  2
PHANTOM2
 70
     0
  3
___ _ _ ___ _ _ ___ _ _ ___ _ _ ___ _ _ ___ _ _
 72
    65
 73
     6
 40
1.25
 49
0.625
 49
-0.125
 49
0.125
 49
-0.125
 49
0.125
 49
-0.125
  0
LTYPE
  2
CENTER
 70
     0
  3
____ _ ____ _ ____ _ ____ _ ____ _ ____ _ ____ 
 72
    65
 73
     4
 40
2.0
 49
1.25
 49
-0.25
 49
0.25
 49
-0.25
  0
LTYPE
  2
AMCONSTR
 70
     0
  3
_______________________
 72
    65
 73
     2
 40
9999.0
 49
9999.0
 49
0.0
  0
LTYPE
  2
HIDDEN
 70
     0
  3
Hidden __ __ __ __ __ __ __ __ __ __ __ __ __ _
 72
    65
 73
     2
 40
9.5249999999999986
 49
6.3499999999999979
 49
-3.174999999999998
  0
LTYPE
  2
ACANSTGB
 70
     0
  3
__ . . __ . .
 72
    65
 73
     6
 40
0.35433070866
 49
0.15748031496
 49
-0.03937007874
 49
0.03937007874
 49
-0.03937007874
 49
0.03937007874
 49
-0.03937007874
  0
LTYPE
  2
ACANSTGL
 70
     0
  3
_ _ _ _ _
 72
    65
 73
     2
 40
0.11811023622
 49
0.07874015748
 49
-0.03937007874
  0
LTYPE
  2
AMZIGZAG2
 70
     0
  3
/\/-/\/-/\/-/\/-/\/-/\/
 72
    65
 73
     2
 40
0.4401
 49
0.0001
 49
-0.4400000000000001
  0
ENDTAB
  0
TABLE
  2
LAYER
 70
    10
  0
LAYER
  2
0
 70
     0
 62
     7
  6
CONTINUOUS
  0
LAYER
  2
240
 70
     0
 62
     4
  6
CONTINUOUS
  0
LAYER
  2
DEFPOINTS
 70
     0
 62
     7
  6
CONTINUOUS
  0
LAYER
  2
245
 70
     0
 62
     2
  6
CENTER2
  0
LAYER
  2
241
 70
     0
 62
   211
  6
CONTINUOUS
  0
LAYER
  2
246
 70
     0
 62
     3
  6
PHANTOM2
  0
LAYER
  2
247
 70
     0
 62
    60
  6
CONTINUOUS
  0
LAYER
  2
250
 70
     0
 62
     3
  6
CONTINUOUS
  0
ENDTAB
  0
TABLE
  2
STYLE
 70
    10
  0
STYLE
  2
STANDARD
 70
     0
 40
0.0
 41
1.0
 50
0.0
 71
     0
 42
3.0
  3
romans.shx
  4
extfont.shx
  0
STYLE
  2
YOKO
 70
     0
 40
0.0
 41
1.0
 50
0.0
 71
     0
 42
3.0
  3
romans.shx
  4
extfont.shx
  0
STYLE
  2
ACJISTS
 70
     0
 40
1.0
 41
1.0
 50
0.0
 71
     0
 42
3.0
  3
amgdt.shx
  4
extfont.shx
  0
STYLE
  2
ACANSGDT
 70
     0
 40
0.0
 41
1.0
 50
0.0
 71
     0
 42
0.2
  3
amgdt.shx
  4

  0
STYLE
  2

 70
     1
 40
0.0
 41
1.0
 50
0.0
 71
     0
 42
3.0
  3
genltshp.shx
  4

  0
ENDTAB
  0
TABLE
  2
VIEW
 70
     0
  0
ENDTAB
  0
TABLE
  2
UCS
 70
     0
  0
ENDTAB
  0
TABLE
  2
APPID
 70
    33
  0
APPID
  2
ACAD
 70
     0
  0
APPID
  2
ACADANNOTATIVE
 70
     0
  0
APPID
  2
GLOBAL
 70
     0
  0
APPID
  2
DETAIL
 70
     0
  0
APPID
  2
GRPNAME
 70
     0
  0
APPID
  2
GPARA
 70
     0
  0
APPID
  2
MCAD_NO_VIS
 70
     0
  0
APPID
  2
ACAD_TEMP_GRAPHIC
 70
     0
  0
APPID
  2
ACATTRIBSERVICES
 70
     0
  0
APPID
  2
GENIUS_GENSCREG_15
 70
     0
  0
APPID
  2
GENIUS_GENODEF_13
 70
     0
  0
APPID
  2
GENIUS_GENOBJ-N-SDF_13
 70
     0
  0
APPID
  2
GENIUS_GENREC_14
 70
     0
  0
APPID
  2
GENIUS_GENOBJ-N-REC_13
 70
     0
  0
APPID
  2
GENIUS_GENDIMSH_14
 70
     0
  0
APPID
  2
GENIUS_GENOBJ-N-DIM_13
 70
     0
  0
APPID
  2
GENIUS_GENDIM_13
 70
     0
  0
APPID
  2
GENIUS_GENDTOL_13
 70
     0
  0
APPID
  2
GENIUS_GENOLIS_13
 70
     0
  0
APPID
  2
GENIUS_GENOENT_13
 70
     0
  0
APPID
  2
GENIUS_GENOBJ-F-FEM_13
 70
     0
  0
APPID
  2
GENIUS_GENOREF_13
 70
     0
  0
APPID
  2
GENIUS_GEFFEM_13
 70
     0
  0
APPID
  2
GENIUS_GEFFEMP_13
 70
     0
  0
APPID
  2
AD_DRAW
 70
     0
  0
APPID
  2
DESIGNERASSEMBLIES
 70
     0
  0
APPID
  2
ACADM_DIM_EDIT
 70
     0
  0
APPID
  2
AMDT_DM_ADJ
 70
     0
  0
APPID
  2
ACAD_DSTYLE_DIMBREAK
 70
     0
  0
APPID
  2
ACAD_DSTYLE_DIMJAG
 70
     0
  0
APPID
  2
ACAD_NAV_VCDISPLAY
 70
     0
  0
APPID
  2
GENIUS_GENOBJ-N-FIL_13
 70
     0
  0
APPID
  2
ACAD_MLEADERVER
 70
     0
  0
ENDTAB
  0
TABLE
  2
DIMSTYLE
 70
    32
  0
DIMSTYLE
  2
STANDARD
 70
     0
  3

  4

  5

  6

  7

 40
1.0
 41
0.18
 42
0.0625
 43
0.38
 44
0.18
 45
0.0
 46
0.0
 47
0.0
 48
0.0
140
0.18
141
0.09
142
0.0
143
25.399999999999999
144
1.0
145
0.0
146
1.0
147
0.09
 71
     0
 72
     0
 73
     1
 74
     1
 75
     0
 76
     0
 77
     0
 78
     0
170
     0
171
     2
172
     0
173
     0
174
     0
175
     0
176
     0
177
     0
178
     0
  0
DIMSTYLE
  2
BIGT
 70
     0
  3

  4

  5

  6

  7

 40
1.0
 41
2.2299999999999991
 42
0.5
 43
7.0
 44
1.0
 45
0.0
 46
0.0
 47
0.0
 48
0.01
140
2.799999999999998
141
0.0
142
0.0
143
25.399999999999999
144
1.0
145
0.0
146
1.0
147
1.0
 71
     0
 72
     0
 73
     0
 74
     0
 75
     0
 76
     0
 77
     3
 78
     9
170
     0
171
     2
172
     1
173
     0
174
     1
175
     0
176
   256
177
   256
178
    40
  0
DIMSTYLE
  2
AM_ANSI
 70
     0
  3

  4
mm
  5

  6

  7

 40
1.0
 41
0.1
 42
0.05
 43
0.5
 44
0.1
 45
0.0
 46
0.0
 47
0.1
 48
0.1
140
0.12
141
0.0
142
0.0
143
25.399999999999999
144
1.0
145
0.0
146
0.71
147
0.06
 71
     0
 72
     0
 73
     1
 74
     1
 75
     0
 76
     0
 77
     0
 78
     7
170
     0
171
     2
172
     0
173
     0
174
     0
175
     0
176
   256
177
   256
178
     2
  0
DIMSTYLE
  2
AM_ANSI$3
 70
     0
  3

  4
mm
  5

  6

  7

 40
1.0
 41
0.1
 42
0.05
 43
0.5
 44
0.1
 45
0.0
 46
0.0
 47
0.1
 48
0.1
140
0.12
141
0.0
142
0.0
143
25.399999999999999
144
1.0
145
0.0
146
0.71
147
0.06
 71
     0
 72
     0
 73
     1
 74
     1
 75
     0
 76
     0
 77
     0
 78
     7
170
     0
171
     2
172
     0
173
     0
174
     0
175
     0
176
   256
177
   256
178
     2
  0
DIMSTYLE
  2
AM_ANSI$4
 70
     0
  3

  4
mm
  5

  6

  7

 40
1.0
 41
0.1
 42
0.05
 43
0.5
 44
0.1
 45
0.0
 46
0.0
 47
0.1
 48
0.1
140
0.12
141
0.0
142
0.0
143
25.399999999999999
144
1.0
145
0.0
146
0.71
147
0.06
 71
     0
 72
     0
 73
     1
 74
     1
 75
     0
 76
     0
 77
     0
 78
     7
170
     0
171
     2
172
     0
173
     0
174
     0
175
     0
176
   256
177
   256
178
     2
  0
DIMSTYLE
  2
AM_ANSI$7
 70
     0
  3

  4
mm
  5

  6

  7

 40
1.0
 41
0.1
 42
0.05
 43
0.5
 44
0.1
 45
0.0
 46
0.0
 47
0.1
 48
0.1
140
0.24
141
0.0
142
0.0
143
25.399999999999999
144
1.0
145
0.0
146
0.71
147
0.06
 71
     0
 72
     0
 73
     1
 74
     1
 75
     0
 76
     0
 77
     0
 78
     7
170
     0
171
     2
172
     0
173
     0
174
     0
175
     0
176
   256
177
   256
178
     2
  0
DIMSTYLE
  2
AM_ANSI$SF
 70
     0
  3

  4
mm
  5

  6

  7

 40
1.0
 41
0.1
 42
0.05
 43
0.5
 44
0.1
 45
0.0
 46
0.0
 47
0.1
 48
0.1
140
0.12
141
0.0
142
0.0
143
25.399999999999999
144
1.0
145
0.0
146
0.71
147
0.06
 71
     0
 72
     0
 73
     1
 74
     1
 75
     1
 76
     1
 77
     0
 78
     7
170
     0
171
     2
172
     0
173
     0
174
     0
175
     0
176
   256
177
   256
178
     2
  0
DIMSTYLE
  2
AM_ANSI$SH
 70
     0
  3

  4
mm
  5

  6

  7

 40
1.0
 41
0.1
 42
0.05
 43
0.5
 44
0.1
 45
0.0
 46
0.0
 47
0.1
 48
0.1
140
0.12
141
0.0
142
0.0
143
25.399999999999999
144
1.0
145
0.0
146
0.71
147
0.06
 71
     0
 72
     0
 73
     1
 74
     1
 75
     1
 76
     1
 77
     0
 78
     7
170
     0
171
     2
172
     0
173
     1
174
     0
175
     0
176
   256
177
   256
178
     2
  0
ENDTAB
  0
ENDSEC
  0
SECTION
  2
BLOCKS
  0
BLOCK
  8
0
  2
$MODEL_SPACE
 70
     0
 10
0.0
 20
0.0
 30
0.0
  3
$MODEL_SPACE
  1

  0
ENDBLK
  5
184C
  8
0
  0
BLOCK
 67
     1
  8
0
  2
$PAPER_SPACE
 70
     0
 10
0.0
 20
0.0
 30
0.0
  3
$PAPER_SPACE
  1

  0
ENDBLK
  5
1848
 67
     1
  8
0
  0
BLOCK
  8
0
  2
_OPEN
 70
     0
 10
0.0
 20
0.0
 30
0.0
  3
_OPEN
  1

  0
LINE
  5
595
  8
0
  6
BYBLOCK
 62
     0
 10
-1.0
 20
0.1666666666666666
 30
0.0
 11
0.0
 21
0.0
 31
0.0
  0
LINE
  5
596
  8
0
  6
BYBLOCK
 62
     0
 10
-1.0
 20
-0.1666666666666666
 30
0.0
 11
0.0
 21
0.0
 31
0.0
  0
LINE
  5
597
  8
0
  6
BYBLOCK
 62
     0
 10
0.0
 20
0.0
 30
0.0
 11
-1.0
 21
0.0
 31
0.0
  0
ENDBLK
  5
599
  8
0
  0
BLOCK
  8
0
  2
_ACMFILLEDHALF
 70
     0
 10
0.0
 20
0.0
 30
0.0
  3
_ACMFILLEDHALF
  1

  0
TRACE
  5
190F
  8
240
 62
     0
 10
-0.8
 20
0.0
 30
0.0
 11
-1.0
 21
0.166666666
 31
0.0
 12
0.0
 22
0.0
 32
0.0
 13
0.0
 23
0.0
 33
0.0
  0
LINE
  5
1910
  8
240
 62
     0
 10
-1.0
 20
0.0
 30
0.0
 11
-0.8
 21
0.0
 31
0.0
  0
ENDBLK
  5
190E
  8
0
  0
ENDSEC
  0
SECTION
  2
ENTITIES
  0
TEXT
  5
160B
  8
241
  6
CONTINUOUS
 10
-49.300035999000002
 20
35.0
 30
0.0
 40
5.0
  1
ST7W-EB10-20
  7
YOKO
  0
LINE
  5
171E
  8
250
  6
CONTINUOUS
 10
0.2306929570000022
 20
4.7516533790000004
 30
0.0
 11
8.0183818465296781
 21
4.751653378999996
 31
0.0
  0
LINE
  5
171F
  8
250
  6
CONTINUOUS
 10
7.0183818465296781
 20
2.521653378999996
 30
0.0
 11
7.0183818465296772
 21
-11.792374840877869
 31
0.0
  0
LINE
  5
1722
  8
250
  6
CONTINUOUS
 10
-51.899999997999998
 20
3.7999999999999989
 30
0.0
 11
-51.899999997999998
 21
22.0
 31
0.0
  0
LINE
  5
1723
  8
250
  6
CONTINUOUS
 10
0.0
 20
0.5
 30
0.0
 11
0.0000000000000013
 21
22.0
 31
0.0
  0
LINE
  5
1724
  8
250
  6
CONTINUOUS
 10
-49.669999998000002
 20
21.0
 30
0.0
 11
-2.2299999999999982
 21
21.0
 31
0.0
  0
TEXT
  5
1736
  8
250
  6
CONTINUOUS
 10
-28.61666666566666
 20
22.0
 30
0.0
 40
2.799999999999998
  1
52
  0
LINE
  5
1737
  8
250
  6
CONTINUOUS
 10
-2.2299999999999982
 20
21.37166666666667
 30
0.0
 11
0.0000000000000013
 21
21.0
 31
0.0
  0
LINE
  5
1738
  8
250
  6
CONTINUOUS
 10
-2.2299999999999982
 20
20.62833333333333
 30
0.0
 11
0.0000000000000013
 21
21.0
 31
0.0
  0
LINE
  5
1739
  8
250
  6
CONTINUOUS
 10
0.0000000000000013
 20
21.0
 30
0.0
 11
-2.2299999999999982
 21
21.0
 31
0.0
  0
LINE
  5
173A
  8
250
  6
CONTINUOUS
 10
-49.669999998000002
 20
20.62833333333333
 30
0.0
 11
-51.899999997999998
 21
21.0
 31
0.0
  0
LINE
  5
173B
  8
250
  6
CONTINUOUS
 10
-49.669999998000002
 20
21.37166666666667
 30
0.0
 11
-51.899999997999998
 21
21.0
 31
0.0
  0
LINE
  5
173C
  8
250
  6
CONTINUOUS
 10
-51.899999997999998
 20
21.0
 30
0.0
 11
-49.669999998000002
 21
21.0
 31
0.0
  0
LINE
  5
173D
  8
250
  6
CONTINUOUS
 10
6.6467151798630111
 20
2.521653378999996
 30
0.0
 11
7.0183818465296781
 21
4.751653378999996
 31
0.0
  0
LINE
  5
173E
  8
250
  6
CONTINUOUS
 10
7.3900485131963443
 20
2.521653378999996
 30
0.0
 11
7.0183818465296781
 21
4.751653378999996
 31
0.0
  0
LINE
  5
173F
  8
250
  6
CONTINUOUS
 10
7.0183818465296781
 20
4.751653378999996
 30
0.0
 11
7.0183818465296781
 21
2.521653378999996
 31
0.0
  0
TEXT
  5
1740
  8
250
  6
CONTINUOUS
 10
6.0015497192904572
 20
-10.15943188710918
 30
0.0
 40
2.799999999999998
  1
\U+2205
 50
90.0
  0
TEXT
  5
1741
  8
250
  6
CONTINUOUS
 10
6.0015497192904572
 20
-7.6260985537758499
 30
0.0
 40
2.799999999999998
  1
9.8ü`12.0
 50
90.0
  0
LINE
  5
192F
  8
241
  6
CONTINUOUS
 10
-0.6410534679999991
 20
-2.082363916999999
 30
0.0
 11
-0.7575967309999996
 21
-2.0402105860000002
 31
0.0
  0
LINE
  5
1930
  8
240
  6
CONTINUOUS
 10
-1.2250628411616931
 20
4.2981031550532212
 30
0.0
 11
-0.3910105329999993
 21
4.7225904659999989
 31
0.0
  0
CIRCLE
  5
1931
  8
246
  6
PHANTOM2
 10
-2.254187416407742
 20
1.4333805735618881
 30
0.0
 40
2.0862944309361362
  0
LINE
  5
1935
  8
240
  6
CONTINUOUS
 10
-51.899999997999998
 20
-3.5
 30
0.0
 11
-51.899999997999998
 21
3.5
 31
0.0
  0
LINE
  5
1936
  8
240
  6
CONTINUOUS
 10
-13.999999998
 20
3.5
 30
0.0
 11
-51.899999997999998
 21
3.5
 31
0.0
  0
LINE
  5
1937
  8
245
  6
CENTER2
 10
-52.764461899999993
 20
0.0
 30
0.0
 11
1.014146136462392
 21
0.0
 31
0.0
  0
LINE
  5
1938
  8
240
  6
CONTINUOUS
 10
-12.999999998
 20
4.5
 30
0.0
 11
-13.999999998
 21
3.5
 31
0.0
  0
LINE
  5
1939
  8
240
  6
CONTINUOUS
 10
-13.999999998
 20
-3.5
 30
0.0
 11
-12.999999998
 21
-4.5
 31
0.0
  0
LINE
  5
193A
  8
240
  6
CONTINUOUS
 10
-12.999999998
 20
-4.5
 30
0.0
 11
-0.7672967779999989
 21
-4.5
 31
0.0
  0
LINE
  5
193B
  8
240
  6
CONTINUOUS
 10
-1.474197200156365
 20
4.5
 30
0.0
 11
-12.999999998
 21
4.5
 31
0.0
  0
ARC
  5
193C
  8
240
  6
CONTINUOUS
 10
-0.2693070429999977
 20
4.4822999159999988
 30
0.0
 40
0.269353463
 50
356.70925307300001
 51
116.861516788
  0
LINE
  5
193D
  8
240
  6
CONTINUOUS
 10
-0.0003977169999985
 20
4.4668382729999987
 30
0.0
 11
-0.3416452549999995
 21
-1.828513883999999
 31
0.0
  0
ARC
  5
193E
  8
240
  6
CONTINUOUS
 10
-0.6104576070000009
 20
-1.814827640999999
 30
0.0
 40
0.269160535
 50
263.47433734006358
 51
357.08537420699997
  0
LINE
  5
193F
  8
241
  6
CONTINUOUS
 10
-0.7575967309999996
 20
-2.0402105860000002
 30
0.0
 11
-6.0181615969999971
 21
1.4041234019999991
 31
0.0
  0
ARC
  5
1940
  8
241
  6
CONTINUOUS
 10
-5.869375103999996
 20
1.6305547049999991
 30
0.0
 40
0.270940133
 50
116.97362156999991
 51
236.69135213599989
  0
LINE
  5
1941
  8
241
  6
CONTINUOUS
 10
-5.9922010489999948
 20
1.871888805
 30
0.0
 11
-1.2250628411616931
 21
4.2981031550532212
 31
0.0
  0
LINE
  5
1942
  8
241
  6
CONTINUOUS
 10
-12.999999998
 20
0.0
 30
0.0
 11
-12.999999998
 21
-4.5
 31
0.0
  0
LINE
  5
1943
  8
241
  6
CONTINUOUS
 10
-12.999999998
 20
4.5
 30
0.0
 11
-12.999999998
 21
0.0
 31
0.0
  0
LINE
  5
1944
  8
241
  6
CONTINUOUS
 10
-13.999999998
 20
3.5
 30
0.0
 11
-13.999999998
 21
-3.5
 31
0.0
  0
ARC
  5
1945
  8
240
  6
CONTINUOUS
 10
-1.5938661659999971
 20
4.0976718529999987
 30
0.0
 40
0.419748257
 50
28.522484508000009
 51
73.43535359649735
  0
ARC
  5
1946
  8
240
  6
CONTINUOUS
 10
-9.4422476779999975
 20
-1.2338742579999991
 30
0.0
 40
5.8109637770000004
 50
80.390566194000087
 51
80.656867540000036
  0
LINE
  5
1968
  8
240
  6
CONTINUOUS
 10
-0.7672967779999989
 20
-4.5
 30
0.0
 11
-0.7670407980000003
 21
-4.4955533589999987
 31
0.0
  0
LINE
  5
1971
  8
240
  6
CONTINUOUS
 10
-0.7670407980000003
 20
-4.4955533589999987
 30
0.0
 11
-0.6410534679999991
 21
-2.082363916999999
 31
0.0
  0
LINE
  5
1975
  8
240
  6
CONTINUOUS
 10
-51.899999997999998
 20
-3.5
 30
0.0
 11
-13.999999998
 21
-3.5
 31
0.0
  0
LINE
  5
1998
  8
247
  6
CONTINUOUS
 10
-47.649999997999998
 20
-1.499999999999998
 30
0.0
 11
-43.015384613669987
 21
-1.499999999999998
 31
0.0
  0
LINE
  5
1999
  8
247
  6
CONTINUOUS
 10
-46.854893497987959
 20
0.9999999999999998
 30
0.0
 11
-47.457058808057347
 21
-1.0999999999160071
 31
0.0
  0
LINE
  5
199A
  8
247
  6
CONTINUOUS
 10
-46.225151401519042
 20
0.0038461538861156
 30
0.0
 11
-47.140536016867017
 21
0.0038461538861156
 31
0.0
  0
ARC
  5
199B
  8
247
  6
CONTINUOUS
 10
-45.987263399946819
 20
0.6152809327059005
 30
0.0
 40
0.3876715809326743
 50
342.99788967529503
 51
82.924166218513577
  0
ARC
  5
199C
  8
247
  6
CONTINUOUS
 10
-46.282477554804153
 20
0.6947768689719851
 30
0.0
 40
0.6933047965358768
 50
274.74293685219902
 51
343.84922627326642
1001
GENIUS_GENOBJ-N-FIL_13
1002
{
1000
OWNER
1000
GEN
1002
}
1001
GENIUS_GENODEF_13
1002
{
1000
HIER
1070
     0
1002
}
1002
{
1000
MANEDIT
1070
     0
1002
}
1002
{
1000
NOSEL
1070
     0
1002
}
1002
{
1000
BEHIND
1070
     0
1002
}
1002
{
1000
OTHER
1070
     0
1002
}
1002
{
1000
REACTOR
1002
}
  0
LINE
  5
199D
  8
247
  6
CONTINUOUS
 10
-46.541674192709358
 20
-1.0999999999160071
 30
0.0
 11
-47.457058808057347
 21
-1.0999999999160071
 31
0.0
  0
LINE
  5
199E
  8
247
  6
CONTINUOUS
 10
-46.854893497987959
 20
0.9999999999999998
 30
0.0
 11
-45.93950888263992
 21
0.9999999999999998
 31
0.0
  0
ARC
  5
199F
  8
247
  6
CONTINUOUS
 10
-46.278306474266827
 20
-0.3874169627679294
 30
0.0
 40
0.394857301075386
 50
335.9909416525216
 51
82.263443459069066
  0
ARC
  5
19A0
  8
247
  6
CONTINUOUS
 10
-46.612446608426893
 20
-0.3912003273326263
 30
0.0
 40
0.7123241612361686
 50
275.70198516425648
 51
347.27733843682182
1001
GENIUS_GENOBJ-N-FIL_13
1002
{
1000
OWNER
1000
GEN
1002
}
1001
GENIUS_GENODEF_13
1002
{
1000
HIER
1070
     0
1002
}
1002
{
1000
MANEDIT
1070
     0
1002
}
1002
{
1000
NOSEL
1070
     0
1002
}
1002
{
1000
BEHIND
1070
     0
1002
}
1002
{
1000
OTHER
1070
     0
1002
}
1002
{
1000
REACTOR
1002
}
  0
LINE
  5
19A1
  8
247
  6
CONTINUOUS
 10
-45.58398188506338
 20
-1.0999999999160071
 30
0.0
 11
-44.981816574993928
 21
0.9999999999999998
 31
0.0
  0
LINE
  5
19A2
  8
247
  6
CONTINUOUS
 10
-43.485662728907968
 20
0.9999999999999998
 30
0.0
 11
-43.881678362303539
 21
0.9999999999999998
 31
0.0
  0
LINE
  5
19A3
  8
247
  6
CONTINUOUS
 10
-44.508739651943962
 20
-1.0999999999160071
 30
0.0
 11
-44.077970421191921
 21
-1.0999999999160071
 31
0.0
  0
ARC
  5
19A4
  8
247
  6
CONTINUOUS
 10
-43.281816575069968
 20
-0.4582995950834177
 30
0.0
 40
1.576855057639547
 50
112.3594881415293
 51
164.99324854284649
  0
ARC
  5
19A5
  8
247
  6
CONTINUOUS
 10
-43.74751136413321
 20
0.4341811414619772
 30
0.0
 40
0.6234706797009447
 50
4.9945893190753727
 51
65.166328957308124
1001
GENIUS_GENOBJ-N-FIL_13
1002
{
1000
OWNER
1000
GEN
1002
}
1001
GENIUS_GENODEF_13
1002
{
1000
HIER
1070
     0
1002
}
1002
{
1000
MANEDIT
1070
     0
1002
}
1002
{
1000
NOSEL
1070
     0
1002
}
1002
{
1000
BEHIND
1070
     0
1002
}
1002
{
1000
OTHER
1070
     0
1002
}
1002
{
1000
REACTOR
1002
}
  0
ARC
  5
19A6
  8
247
  6
CONTINUOUS
 10
-44.34418394903274
 20
-0.162102121969383
 30
0.0
 40
0.9749472149106983
 50
285.84609655578407
 51
352.3251370041624
  0
ARC
  5
19A7
  8
247
  6
CONTINUOUS
 10
-43.935211636772223
 20
-0.3714704019710098
 30
0.0
 40
0.9271945638692009
 50
159.7136016704896
 51
231.78874565641519
1001
GENIUS_GENOBJ-N-FIL_13
1002
{
1000
OWNER
1000
GEN
1002
}
1001
GENIUS_GENODEF_13
1002
{
1000
HIER
1070
     0
1002
}
1002
{
1000
MANEDIT
1070
     0
1002
}
1002
{
1000
NOSEL
1070
     0
1002
}
1002
{
1000
BEHIND
1070
     0
1002
}
1002
{
1000
OTHER
1070
     0
1002
}
1002
{
1000
REACTOR
1002
}
  0
LINE
  5
19A8
  8
247
  6
CONTINUOUS
 10
-43.862585805815961
 20
-0.2923076922559176
 30
0.0
 11
-43.37797042121997
 21
-0.2923076922559176
 31
0.0
  0
ARC
  5
19A9
  8
247
  6
CONTINUOUS
 10
-47.649999997999998
 20
-0.25
 30
0.0
 40
1.25
 50
90.0
 51
270.0
  0
LINE
  5
19AA
  8
247
  6
CONTINUOUS
 10
-47.649999997999998
 20
0.9999999999999998
 30
0.0
 11
-47.203846151913972
 21
0.9999999999999998
 31
0.0
  0
ARC
  5
19AB
  8
247
  6
CONTINUOUS
 10
-43.015384613669987
 20
-0.25
 30
0.0
 40
1.25
 50
270.0
 51
90.0
  0
LINE
  5
19AC
  8
250
  6
CONTINUOUS
 10
-55.911952365232793
 20
-11.92225881136414
 30
0.0
 11
-44.162223757810693
 21
-11.92225881136414
 31
0.0
  0
LINE
  5
19AD
  8
250
  6
CONTINUOUS
 10
-44.162223757810693
 20
-11.92225881136414
 30
0.0
 11
-40.49066790527695
 21
-5.4403456717494691
 31
0.0
  0
LINE
  5
19AE
  8
250
  6
CONTINUOUS
 10
-40.49066790527695
 20
-5.4403456717494691
 30
0.0
 11
-39.391596172348159
 21
-3.5
 31
0.0
  0
LINE
  5
19AF
  8
250
  6
CONTINUOUS
 10
-40.235216552547953
 20
-5.5850412097717008
 30
0.0
 11
-39.391596172348159
 21
-3.5
 31
0.0
  0
LINE
  5
19B0
  8
250
  6
CONTINUOUS
 10
-39.391596172348159
 20
-3.5
 30
0.0
 11
-40.746119258005933
 21
-5.2956501337272339
 31
0.0
  0
TEXT
  5
19B1
  8
250
  6
CONTINUOUS
 10
-55.669141744933029
 20
-10.52225881136417
 30
0.0
 40
2.799999999999998
  1
ST7W
  7
ACJISTS
  0
ARC
  5
19C0
  8
241
  6
CONTINUOUS
 10
8.4304262760623825
 20
32.111488114672312
 30
0.0
 40
37.82509903394422
 50
246.71109103983039
 51
255.44690346343029
  0
LINE
  5
19C1
  8
241
  6
CONTINUOUS
 10
-6.1026142948021667
 20
1.4926850745438041
 30
0.0
 11
-8.6320499320000046
 21
4.5071490819999953
 31
0.0
  0
LINE
  5
19C2
  8
241
  6
CONTINUOUS
 10
-1.0741544593985779
 20
-4.5
 30
0.0
 11
-4.7324216089999993
 21
-0.1402469820000018
 31
0.0
  0
ARC
  5
19C3
  8
241
  6
CONTINUOUS
 10
-0.0951804519977605
 20
8.1185190724576852
 30
0.0
 40
12.52608206027605
 50
201.42043277422931
 51
239.1183569257804
  0
ARC
  5
19C4
  8
241
  6
CONTINUOUS
 10
-11.09874192646833
 20
3.695971126079252
 30
0.0
 40
0.6746554270308393
 50
97.210063218930387
 51
193.02814730872231
  0
ARC
  5
19C5
  8
241
  6
CONTINUOUS
 10
-8.3139167363208131
 20
-24.22928172836977
 30
0.0
 40
28.738191739379879
 50
90.634280051773459
 51
95.730514944536637
  0
ARC
  5
19C6
  8
241
  6
CONTINUOUS
 10
-6.2605045205674799
 20
0.2540359742723803
 30
0.0
 40
1.0
 50
116.68476568598849
 51
296.68476568598851
  0
LINE
  5
19C7
  8
241
  6
CONTINUOUS
 10
-6.7095859657330594
 20
1.1475267999712211
 30
0.0
 11
-6.0821876016052157
 21
1.4628663154460191
 31
0.0
  0
LINE
  5
19C8
  8
241
  6
CONTINUOUS
 10
-4.1626567944049926
 20
0.1892389895329474
 30
0.0
 11
-5.8114230754019038
 21
-0.63945485142646
 31
0.0
  0
VIEWPORT
  5
22
 67
     1
  8
0
 10
261.51769911504419
 20
148.5
 30
0.0
 40
523.0353982300885
 41
297.0
 68
     1
 69
     1
1001
ACAD
1000
MVIEW
1002
{
1070
    16
1010
0.0
1020
0.0
1030
0.0
1010
0.0
1020
0.0
1030
1.0
1040
0.0
1040
297.0
1040
261.51769911504419
1040
148.5
1040
50.0
1040
0.0
1040
0.0
1070
     0
1070
   100
1070
     1
1070
     1
1070
     0
1070
     0
1070
     0
1070
     0
1040
0.0
1040
0.0
1040
0.0
1040
1.0
1040
1.0
1040
10.0
1040
10.0
1070
     0
1002
{
1002
}
1002
}
1001
GENIUS_GENODEF_13
1002
{
1000
HIER
1070
     0
1002
}
1002
{
1000
MANEDIT
1070
     0
1002
}
1002
{
1000
NOSEL
1070
     0
1002
}
1002
{
1000
BEHIND
1070
     0
1002
}
1002
{
1000
OTHER
1070
     0
1002
}
1002
{
1000
REACTOR
1002
}
1001
GENIUS_GENOBJ-N-SDF_13
1002
{
1000
OWNER
1000
GEN
1002
}
1001
GENIUS_GENSCREG_15
1000
PF
1040
1.0
1000
DF
1040
1.0
1000
MIN
1011
0.0
1021
0.0
1031
0.0
1021
0.0
1031
0.0
1000
MAX
1011
523.0353982300885
1021
0.0
1031
0.0
1021
297.0
1031
0.0
1000
FLAGS
1070
     4
  0
ENDSEC
  0
EOF
