  0
SECTION
  2
HEADER
  9
$ACADVER
  1
AC1009
  9
$INSBASE
 10
0.0
 20
0.0
 30
0.0
  9
$EXTMIN
 10
-83.0
 20
-33.2576596199999912
 30
0.0
  9
$EXTMAX
 10
67.223455400000887
 20
60.9999999999999929
 30
0.0
  9
$LIMMIN
 10
0.0
 20
0.0
  9
$LIMMAX
 10
297.0
 20
210.0
  9
$ORTHOMODE
 70
     1
  9
$REGENMODE
 70
     1
  9
$FILLMODE
 70
     1
  9
$QTEXTMODE
 70
     0
  9
$MIRRTEXT
 70
     1
  9
$DRAGMODE
 70
     2
  9
$LTSCALE
 40
10.0
  9
$OSMODE
 70
   807
  9
$ATTMODE
 70
     1
  9
$TEXTSIZE
 40
3.0
  9
$TRACEWID
 40
1.0
  9
$TEXTSTYLE
  7
YOKO
  9
$CLAYER
  8
240
  9
$CELTYPE
  6
BYLAYER
  9
$CECOLOR
 62
   256
  9
$DIMSCALE
 40
1.0
  9
$DIMASZ
 40
2.2299999999999991
  9
$DIMEXO
 40
0.5
  9
$DIMDLI
 40
7.0
  9
$DIMRND
 40
0.0
  9
$DIMDLE
 40
0.0
  9
$DIMEXE
 40
1.0
  9
$DIMTP
 40
0.0
  9
$DIMTM
 40
0.01
  9
$DIMTXT
 40
2.799999999999998
  9
$DIMCEN
 40
0.0
  9
$DIMTSZ
 40
0.0
  9
$DIMTOL
 70
     0
  9
$DIMLIM
 70
     0
  9
$DIMTIH
 70
     0
  9
$DIMTOH
 70
     0
  9
$DIMSE1
 70
     0
  9
$DIMSE2
 70
     0
  9
$DIMTAD
 70
     3
  9
$DIMZIN
 70
     9
  9
$DIMBLK
  1
OPEN
  9
$DIMASO
 70
     1
  9
$DIMSHO
 70
     1
  9
$DIMPOST
  1

  9
$DIMAPOST
  1

  9
$DIMALT
 70
     0
  9
$DIMALTD
 70
     2
  9
$DIMALTF
 40
25.3999999999999986
  9
$DIMLFAC
 40
1.0
  9
$DIMTOFL
 70
     1
  9
$DIMTVP
 40
0.0
  9
$DIMTIX
 70
     1
  9
$DIMSOXD
 70
     0
  9
$DIMSAH
 70
     0
  9
$DIMBLK1
  1

  9
$DIMBLK2
  1

  9
$DIMSTYLE
  2
BIGT
  9
$DIMCLRD
 70
   256
  9
$DIMCLRE
 70
   256
  9
$DIMCLRT
 70
    40
  9
$DIMTFAC
 40
1.0
  9
$DIMGAP
 40
1.0
  9
$LUNITS
 70
     2
  9
$LUPREC
 70
     6
  9
$SKETCHINC
 40
1.0
  9
$FILLETRAD
 40
0.0
  9
$AUNITS
 70
     0
  9
$AUPREC
 70
     6
  9
$MENU
  1
.
  9
$ELEVATION
 40
0.0
  9
$PELEVATION
 40
0.0
  9
$THICKNESS
 40
0.0
  9
$LIMCHECK
 70
     0
  9
$BLIPMODE
 70
     0
  9
$CHAMFERA
 40
0.2
  9
$CHAMFERB
 40
0.2
  9
$SKPOLY
 70
     0
  9
$TDCREATE
 40
2457744.5788888889364898
  9
$TDUPDATE
 40
2458291.6856944439932704
  9
$TDINDWG
 40
0.013036794
  9
$TDUSRTIMER
 40
0.0130367477
  9
$USRTIMER
 70
     1
  9
$ANGBASE
 50
0.0
  9
$ANGDIR
 70
     0
  9
$PDMODE
 70
     1
  9
$PDSIZE
 40
0.0
  9
$PLINEWID
 40
0.0
  9
$COORDS
 70
     1
  9
$SPLFRAME
 70
     0
  9
$SPLINETYPE
 70
     6
  9
$SPLINESEGS
 70
     4
  9
$ATTDIA
 70
     1
  9
$ATTREQ
 70
     1
  9
$HANDLING
 70
     1
  9
$HANDSEED
  5
48FA
  9
$SURFTAB1
 70
     6
  9
$SURFTAB2
 70
     6
  9
$SURFTYPE
 70
     6
  9
$SURFU
 70
     6
  9
$SURFV
 70
     6
  9
$UCSNAME
  2

  9
$UCSORG
 10
0.0
 20
0.0
 30
0.0
  9
$UCSXDIR
 10
1.0
 20
0.0
 30
0.0
  9
$UCSYDIR
 10
0.0
 20
1.0
 30
0.0
  9
$PUCSNAME
  2

  9
$PUCSORG
 10
0.0
 20
0.0
 30
0.0
  9
$PUCSXDIR
 10
1.0
 20
0.0
 30
0.0
  9
$PUCSYDIR
 10
0.0
 20
1.0
 30
0.0
  9
$USERI1
 70
     1
  9
$USERI2
 70
     0
  9
$USERI3
 70
     0
  9
$USERI4
 70
     0
  9
$USERI5
 70
     0
  9
$USERR1
 40
0.0
  9
$USERR2
 40
0.0
  9
$USERR3
 40
0.0
  9
$USERR4
 40
0.0
  9
$USERR5
 40
0.0
  9
$WORLDVIEW
 70
     1
  9
$SHADEDGE
 70
     3
  9
$SHADEDIF
 70
    70
  9
$TILEMODE
 70
     1
  9
$MAXACTVP
 70
    16
  9
$PLIMCHECK
 70
     0
  9
$PEXTMIN
 10
1.0000000000000000E+20
 20
1.0000000000000000E+20
 30
1.0000000000000000E+20
  9
$PEXTMAX
 10
-1.0000000000000000E+20
 20
-1.0000000000000000E+20
 30
-1.0000000000000000E+20
  9
$PLIMMIN
 10
0.0
 20
0.0
  9
$PLIMMAX
 10
420.0
 20
297.0
  9
$UNITMODE
 70
     0
  9
$VISRETAIN
 70
     1
  9
$PLINEGEN
 70
     0
  9
$PSLTSCALE
 70
     1
  0
ENDSEC
  0
SECTION
  2
TABLES
  0
TABLE
  2
VPORT
 70
     1
  0
VPORT
  2
*ACTIVE
 70
     0
 10
0.0
 20
0.0
 11
1.0
 21
1.0
 12
11.1253177557272807
 22
13.4817812409687399
 13
0.0
 23
0.0
 14
7.0
 24
7.0
 15
7.0
 25
7.0
 16
0.0
 26
0.0
 36
1.0
 17
0.0
 27
0.0
 37
0.0
 40
152.5067936215274926
 41
1.887387387387387
 42
50.0
 43
0.0
 44
0.0
 50
0.0
 51
0.0
 71
     0
 72
  2000
 73
     1
 74
     0
 75
     1
 76
     1
 77
     0
 78
     0
  0
ENDTAB
  0
TABLE
  2
LTYPE
 70
    17
  0
LTYPE
  2
CONTINUOUS
 70
     0
  3
Solid line
 72
    65
 73
     0
 40
0.0
  0
LTYPE
  2
CENTER2
 70
     0
  3
___ _ ___ _ ___ _ ___ _ ___ _ ___ _ ___ _ ___ _
 72
    65
 73
     4
 40
1.125
 49
0.75
 49
-0.125
 49
0.125
 49
-0.125
  0
LTYPE
  2
HIDDEN2
 70
     0
  3
_ _ _ _ _ _ _ _ _ _ _ _ _ _ _ _ _ _ _ _ _ _ _ _
 72
    65
 73
     2
 40
0.1875
 49
0.125
 49
-0.0625
  0
LTYPE
  2
PHANTOM2
 70
     0
  3
___ _ _ ___ _ _ ___ _ _ ___ _ _ ___ _ _ ___ _ _
 72
    65
 73
     6
 40
1.25
 49
0.625
 49
-0.125
 49
0.125
 49
-0.125
 49
0.125
 49
-0.125
  0
LTYPE
  2
AMCONSTR
 70
     0
  3
_______________________
 72
    65
 73
     2
 40
9999.0
 49
9999.0
 49
0.0
  0
LTYPE
  2
HIDDEN
 70
     0
  3
Hidden __ __ __ __ __ __ __ __ __ __ __ __ __ _
 72
    65
 73
     2
 40
0.375
 49
0.25
 49
-0.125
  0
LTYPE
  2
CENTER
 70
     0
  3
Center ____ _ ____ _ ____ _ ____ _ ____ _ ____
 72
    65
 73
     4
 40
2.0
 49
1.25
 49
-0.25
 49
0.25
 49
-0.25
  0
LTYPE
  2
AMZIGZAG2
 70
     0
  3
/\/-/\/-/\/-/\/-/\/-/\/
 72
    65
 73
     2
 40
0.4401
 49
0.0001
 49
-0.4400000000000002
  0
LTYPE
  2
ACANSTGB
 70
     0
  3
__ . . __ . .
 72
    65
 73
     6
 40
0.35433070866
 49
0.15748031496
 49
-0.03937007874
 49
0.03937007874
 49
-0.03937007874
 49
0.03937007874
 49
-0.03937007874
  0
LTYPE
  2
ACANSTGL
 70
     0
  3
_ _ _ _ _
 72
    65
 73
     2
 40
0.11811023622
 49
0.07874015748
 49
-0.03937007874
  0
ENDTAB
  0
TABLE
  2
LAYER
 70
     9
  0
LAYER
  2
0
 70
     0
 62
     7
  6
CONTINUOUS
  0
LAYER
  2
240
 70
     0
 62
     4
  6
CONTINUOUS
  0
LAYER
  2
DEFPOINTS
 70
     0
 62
     7
  6
CONTINUOUS
  0
LAYER
  2
245
 70
     0
 62
     2
  6
CENTER2
  0
LAYER
  2
241
 70
     0
 62
   211
  6
CONTINUOUS
  0
LAYER
  2
242
 70
     0
 62
     3
  6
CONTINUOUS
  0
LAYER
  2
243
 70
     0
 62
   211
  6
HIDDEN2
  0
LAYER
  2
247
 70
     0
 62
    60
  6
CONTINUOUS
  0
LAYER
  2
250
 70
     0
 62
     3
  6
CONTINUOUS
  0
ENDTAB
  0
TABLE
  2
STYLE
 70
     6
  0
STYLE
  2
STANDARD
 70
     0
 40
0.0
 41
1.0
 50
0.0
 71
     0
 42
3.0
  3
romans.shx
  4
extfont.shx
  0
STYLE
  2
YOKO
 70
     0
 40
0.0
 41
1.0
 50
0.0
 71
     0
 42
3.0
  3
romans.shx
  4
extfont.shx
  0
STYLE
  2
ACANSGDT
 70
     0
 40
0.0
 41
1.0
 50
0.0
 71
     0
 42
3.0
  3
amgdt.shx
  4

  0
ENDTAB
  0
TABLE
  2
VIEW
 70
     0
  0
ENDTAB
  0
TABLE
  2
UCS
 70
     0
  0
ENDTAB
  0
TABLE
  2
APPID
 70
    42
  0
APPID
  2
ACAD
 70
     0
  0
APPID
  2
ACADANNOTATIVE
 70
     0
  0
APPID
  2
GLOBAL
 70
     0
  0
APPID
  2
DETAIL
 70
     0
  0
APPID
  2
GRPNAME
 70
     0
  0
APPID
  2
GPARA
 70
     0
  0
APPID
  2
MCAD_NO_VIS
 70
     0
  0
APPID
  2
ACAD_TEMP_GRAPHIC
 70
     0
  0
APPID
  2
ACATTRIBSERVICES
 70
     0
  0
APPID
  2
GENIUS_GENSCREG_15
 70
     0
  0
APPID
  2
GENIUS_GENODEF_13
 70
     0
  0
APPID
  2
GENIUS_GENOBJ-N-SDF_13
 70
     0
  0
APPID
  2
GENIUS_GENREC_14
 70
     0
  0
APPID
  2
GENIUS_GENOBJ-N-REC_13
 70
     0
  0
APPID
  2
GENIUS_GENDIMSH_14
 70
     0
  0
APPID
  2
GENIUS_GENOBJ-N-DIM_13
 70
     0
  0
APPID
  2
GENIUS_GENDIM_13
 70
     0
  0
APPID
  2
GENIUS_GENDTOL_13
 70
     0
  0
APPID
  2
GENIUS_GENOLIS_13
 70
     0
  0
APPID
  2
GENIUS_GENOENT_13
 70
     0
  0
APPID
  2
GENIUS_GENOBJ-F-FEM_13
 70
     0
  0
APPID
  2
GENIUS_GENOREF_13
 70
     0
  0
APPID
  2
GENIUS_GEFFEM_13
 70
     0
  0
APPID
  2
GENIUS_GEFFEMP_13
 70
     0
  0
APPID
  2
AD_DRAW
 70
     0
  0
APPID
  2
DESIGNERASSEMBLIES
 70
     0
  0
APPID
  2
ACADM_DIM_EDIT
 70
     0
  0
APPID
  2
AMDT_DM_ADJ
 70
     0
  0
APPID
  2
ITEMNAME
 70
     0
  0
APPID
  2
GENIUS_GENOBJ-N-FIL_13
 70
     0
  0
APPID
  2
GENIUS_GENFIL_13
 70
     0
  0
APPID
  2
GENIUS_GENOBJ-N-CHA_13
 70
     0
  0
APPID
  2
ACAD_NAV_VCDISPLAY
 70
     0
  0
APPID
  2
ACAD_DSTYLE_DIMJAG
 70
     0
  0
APPID
  2
ACAD_DSTYLE_DIMBREAK
 70
     0
  0
APPID
  2
ACAECLAYERSTANDARD
 70
     0
  0
APPID
  2
ACAD_MLEADERVER
 70
     0
  0
APPID
  2
ACAD_DSTYLE_DIMARC_LENGTH_
 70
     0
  0
APPID
  2
ACAD_DSTYLE_DIM_LINETYPE
 70
     0
  0
APPID
  2
ACAD_DSTYLE_DIM_EXT1_LINETYPE
 70
     0
  0
APPID
  2
ACAD_DSTYLE_DIM_EXT2_LINETYPE
 70
     0
  0
APPID
  2
ACAD_EXEMPT_FROM_CAD_STANDARDS
 70
     0
  0
ENDTAB
  0
TABLE
  2
DIMSTYLE
 70
     9
  0
DIMSTYLE
  2
STANDARD
 70
     0
  3

  4

  5

  6

  7

 40
1.0
 41
0.18
 42
0.0625
 43
0.38
 44
0.18
 45
0.0
 46
0.0
 47
0.0
 48
0.0
140
0.18
141
0.09
142
0.0
143
25.3999999999999986
144
1.0
145
0.0
146
1.0
147
0.09
 71
     0
 72
     0
 73
     1
 74
     1
 75
     0
 76
     0
 77
     0
 78
     0
170
     0
171
     2
172
     0
173
     0
174
     0
175
     0
176
     0
177
     0
178
     0
  0
DIMSTYLE
  2
BIGT
 70
     0
  3

  4

  5

  6

  7

 40
1.0
 41
2.2299999999999991
 42
0.5
 43
7.0
 44
1.0
 45
0.0
 46
0.0
 47
0.0
 48
0.01
140
2.799999999999998
141
0.0
142
0.0
143
25.3999999999999986
144
1.0
145
0.0
146
1.0
147
1.0
 71
     0
 72
     0
 73
     0
 74
     0
 75
     0
 76
     0
 77
     3
 78
     9
170
     0
171
     2
172
     1
173
     0
174
     1
175
     0
176
   256
177
   256
178
    40
  0
DIMSTYLE
  2
AM_ANSI
 70
     0
  3

  4
mm
  5

  6

  7

 40
1.0
 41
0.12
 42
0.05
 43
0.5
 44
0.1
 45
0.0
 46
0.0
 47
0.1
 48
0.1
140
0.12
141
0.0
142
0.0
143
25.3999999999999986
144
1.0
145
0.0
146
0.71
147
0.06
 71
     0
 72
     0
 73
     1
 74
     1
 75
     0
 76
     0
 77
     0
 78
     7
170
     0
171
     2
172
     0
173
     0
174
     0
175
     0
176
   256
177
   256
178
     2
  0
DIMSTYLE
  2
AM_ANSI$3
 70
     0
  3

  4
mm
  5

  6

  7

 40
1.0
 41
0.12
 42
0.05
 43
0.5
 44
0.1
 45
0.0
 46
0.0
 47
0.1
 48
0.1
140
0.12
141
0.0
142
0.0
143
25.3999999999999986
144
1.0
145
0.0
146
0.71
147
0.06
 71
     0
 72
     0
 73
     1
 74
     1
 75
     0
 76
     0
 77
     0
 78
     7
170
     0
171
     2
172
     0
173
     0
174
     0
175
     0
176
   256
177
   256
178
     2
  0
DIMSTYLE
  2
AM_ANSI$4
 70
     0
  3

  4
mm
  5

  6

  7

 40
1.0
 41
0.12
 42
0.05
 43
0.5
 44
0.1
 45
0.0
 46
0.0
 47
0.1
 48
0.1
140
0.12
141
0.0
142
0.0
143
25.3999999999999986
144
1.0
145
0.0
146
0.71
147
0.06
 71
     0
 72
     0
 73
     1
 74
     1
 75
     0
 76
     0
 77
     0
 78
     7
170
     0
171
     2
172
     0
173
     0
174
     0
175
     0
176
   256
177
   256
178
     2
  0
DIMSTYLE
  2
AM_ANSI$7
 70
     0
  3

  4
mm
  5

  6

  7

 40
1.0
 41
0.12
 42
0.05
 43
0.5
 44
0.1
 45
0.0
 46
0.0
 47
0.1
 48
0.1
140
0.12
141
0.0
142
0.0
143
25.3999999999999986
144
1.0
145
0.0
146
0.71
147
0.06
 71
     0
 72
     0
 73
     1
 74
     1
 75
     0
 76
     0
 77
     0
 78
     7
170
     0
171
     2
172
     0
173
     0
174
     0
175
     0
176
   256
177
   256
178
     2
  0
DIMSTYLE
  2
AM_ANSI$SF
 70
     0
  3

  4
mm
  5

  6

  7

 40
1.0
 41
0.12
 42
0.05
 43
0.5
 44
0.1
 45
0.0
 46
0.0
 47
0.1
 48
0.1
140
0.12
141
0.0
142
0.0
143
25.3999999999999986
144
1.0
145
0.0
146
0.71
147
0.06
 71
     0
 72
     0
 73
     1
 74
     1
 75
     1
 76
     1
 77
     0
 78
     7
170
     0
171
     2
172
     0
173
     0
174
     0
175
     0
176
   256
177
   256
178
     2
  0
DIMSTYLE
  2
AM_ANSI$SH
 70
     0
  3

  4
mm
  5

  6

  7

 40
1.0
 41
0.12
 42
0.05
 43
0.5
 44
0.1
 45
0.0
 46
0.0
 47
0.1
 48
0.1
140
0.12
141
0.0
142
0.0
143
25.3999999999999986
144
1.0
145
0.0
146
0.71
147
0.06
 71
     0
 72
     0
 73
     1
 74
     1
 75
     1
 76
     1
 77
     0
 78
     7
170
     0
171
     2
172
     0
173
     1
174
     0
175
     0
176
   256
177
   256
178
     2
  0
ENDTAB
  0
ENDSEC
  0
SECTION
  2
BLOCKS
  0
BLOCK
  8
0
  2
$MODEL_SPACE
 70
     0
 10
0.0
 20
0.0
 30
0.0
  3
$MODEL_SPACE
  1

  0
ENDBLK
  5
47D8
  8
0
  0
BLOCK
 67
     1
  8
0
  2
$PAPER_SPACE
 70
     0
 10
0.0
 20
0.0
 30
0.0
  3
$PAPER_SPACE
  1

  0
ENDBLK
  5
47D4
 67
     1
  8
0
  0
BLOCK
  8
0
  2
_OPEN
 70
     0
 10
0.0
 20
0.0
 30
0.0
  3
_OPEN
  1

  0
LINE
  5
4470
  8
0
  6
BYBLOCK
 62
     0
 10
-1.0
 20
0.1666666666666666
 30
0.0
 11
0.0
 21
0.0
 31
0.0
  0
LINE
  5
4471
  8
0
  6
BYBLOCK
 62
     0
 10
-1.0
 20
-0.1666666666666666
 30
0.0
 11
0.0
 21
0.0
 31
0.0
  0
LINE
  5
4472
  8
0
  6
BYBLOCK
 62
     0
 10
0.0
 20
0.0
 30
0.0
 11
-1.0
 21
0.0
 31
0.0
  0
ENDBLK
  5
4473
  8
0
  0
BLOCK
  8
0
  2
*U4
 70
     1
 10
0.0
 20
0.0
 30
0.0
  3
*U4
  1

  0
TEXT
  5
4256
  8
250
 10
56.5567887400000018
 20
43.5520030800001905
 30
0.0
 40
2.799999999999998
  1
CK5
  7
YOKO
  0
ENDBLK
  5
4257
  8
0
  0
BLOCK
  8
0
  2
_ACMFILLEDHALF
 70
     0
 10
0.0
 20
0.0
 30
0.0
  3
_ACMFILLEDHALF
  1

  0
TRACE
  5
46EA
  8
240
 62
     0
 10
-0.8
 20
0.0
 30
0.0
 11
-1.0
 21
0.166666666
 31
0.0
 12
0.0
 22
0.0
 32
0.0
 13
0.0
 23
0.0
 33
0.0
  0
LINE
  5
46EB
  8
240
 62
     0
 10
-1.0
 20
0.0
 30
0.0
 11
-0.8
 21
0.0
 31
0.0
  0
ENDBLK
  5
46E9
  8
0
  0
ENDSEC
  0
SECTION
  2
ENTITIES
  0
LINE
  5
4212
  8
240
  6
CONTINUOUS
 10
48.0
 20
25.0000000000000213
 30
0.0
 11
48.0
 21
-24.9999999999999787
 31
0.0
  0
LINE
  5
4213
  8
240
  6
CONTINUOUS
 10
0.0
 20
-24.9999999999999787
 30
0.0
 11
48.0
 21
-24.9999999999999787
 31
0.0
  0
LINE
  5
4215
  8
240
  6
CONTINUOUS
 10
0.0
 20
25.0000000000000213
 30
0.0
 11
48.0
 21
25.0000000000000213
 31
0.0
  0
LINE
  5
421B
  8
240
  6
CONTINUOUS
 10
0.0
 20
-24.9999999999999787
 30
0.0
 11
0.0
 21
-20.9999999999999716
 31
0.0
  0
LINE
  5
421C
  8
240
  6
CONTINUOUS
 10
0.0
 20
25.0000000000000213
 30
0.0
 11
0.0
 21
20.9999999999999893
 31
0.0
  0
LINE
  5
4228
  8
240
  6
CONTINUOUS
 10
-79.9999999999999858
 20
20.9999999999999893
 30
0.0
 11
-80.0000000000000142
 21
-20.9999999999999716
 31
0.0
1001
GRPNAME
1000
PASTMD01
  0
LINE
  5
4229
  8
240
  6
CONTINUOUS
 10
-80.0000000000000142
 20
-20.9999999999999716
 30
0.0
 11
0.0
 21
-20.9999999999999716
 31
0.0
  0
LINE
  5
422A
  8
240
  6
CONTINUOUS
 10
-79.9999999999999858
 20
20.9999999999999893
 30
0.0
 11
0.0
 21
20.9999999999999893
 31
0.0
  0
LINE
  5
423D
  8
241
  6
CONTINUOUS
 10
0.0
 20
20.9999999999999893
 30
0.0
 11
0.0
 21
-20.9999999999999716
 31
0.0
  0
LINE
  5
424B
  8
245
  6
CENTER2
 10
-83.0
 20
0.000000000000016
 30
0.0
 11
50.2929191832652123
 21
0.000000000000016
 31
0.0
  0
LINE
  5
42C6
  8
243
  6
HIDDEN2
 10
48.0
 20
14.0000000000000107
 30
0.0
 11
15.9499999999999602
 21
14.0000000000000107
 31
0.0
1001
GRPNAME
1000
PASTMD03
  0
LINE
  5
42C7
  8
243
  6
HIDDEN2
 10
48.0
 20
-13.9999999999999307
 30
0.0
 11
15.9499999999999602
 21
-13.9999999999999307
 31
0.0
1001
GRPNAME
1000
PASTMD03
  0
LINE
  5
42C8
  8
250
  6
CONTINUOUS
 10
48.5000000000009024
 20
-24.9999999999998792
 30
0.0
 11
60.0000000000008882
 21
-24.9999999999998792
 31
0.0
  0
LINE
  5
42C9
  8
250
  6
CONTINUOUS
 10
48.5000000000009024
 20
25.0000000000001315
 30
0.0
 11
60.0000000000008882
 21
25.0000000000001315
 31
0.0
  0
LINE
  5
42CA
  8
250
  6
CONTINUOUS
 10
59.0000000000009024
 20
-22.769999999999861
 30
0.0
 11
59.0000000000009024
 21
22.770000000000131
 31
0.0
  0
LINE
  5
42CB
  8
250
  6
CONTINUOUS
 10
59.3716666666676218
 20
-22.769999999999861
 30
0.0
 11
59.0000000000009024
 21
-24.9999999999998792
 31
0.0
  0
LINE
  5
42CC
  8
250
  6
CONTINUOUS
 10
58.6283333333341972
 20
-22.769999999999861
 30
0.0
 11
59.0000000000009024
 21
-24.9999999999998792
 31
0.0
  0
LINE
  5
42CD
  8
250
  6
CONTINUOUS
 10
59.0000000000009024
 20
-24.9999999999998792
 30
0.0
 11
59.0000000000009024
 21
-22.769999999999861
 31
0.0
  0
LINE
  5
42CE
  8
250
  6
CONTINUOUS
 10
58.6283333333341972
 20
22.770000000000131
 30
0.0
 11
59.0000000000009024
 21
25.0000000000001315
 31
0.0
  0
LINE
  5
42CF
  8
250
  6
CONTINUOUS
 10
59.3716666666676218
 20
22.770000000000131
 30
0.0
 11
59.0000000000009024
 21
25.0000000000001315
 31
0.0
  0
LINE
  5
42D0
  8
250
  6
CONTINUOUS
 10
59.0000000000009024
 20
25.0000000000001315
 30
0.0
 11
59.0000000000009024
 21
22.770000000000131
 31
0.0
  0
TEXT
  5
42D1
  8
250
  6
CONTINUOUS
 10
58.0000000000008882
 20
-3.933333333333203
 30
0.0
 40
2.799999999999998
  1
\U+220550
 50
90.0
1001
ACAD
1000
MTEXTBEGIN
1070
    73
1070
     1
1070
    44
1040
1.0
1070
    74
1070
     0
1000
MTEXTEND
  0
LINE
  5
42D2
  8
250
  6
CONTINUOUS
 10
45.4600078055920989
 20
26.7454033166798304
 30
0.0
 11
44.0231350300009012
 21
25.00000000000027
 31
0.0
  0
LINE
  5
42D3
  8
250
  6
CONTINUOUS
 10
44.8162622555558769
 20
27.1170699835375295
 30
0.0
 11
44.0231350300009012
 21
25.00000000000027
 31
0.0
  0
LINE
  5
42D4
  8
250
  6
CONTINUOUS
 10
44.0231350300009012
 20
25.00000000000027
 30
0.0
 11
45.1381350305739915
 21
26.93123665010868
 31
0.0
  0
POLYLINE
  5
42D5
  8
250
  6
CONTINUOUS
 66
     1
 10
0.0
 20
0.0
 30
0.0
1001
ACAD
1000
DSTYLE
1002
{
1070
     6
1000
OPEN
1070
   343
1005
0
1002
}
  0
VERTEX
  5
42D6
  8
250
  6
CONTINUOUS
 10
45.1381350305739915
 20
26.93123665010868
 30
0.0
  0
VERTEX
  5
42D7
  8
250
  6
CONTINUOUS
 10
54.1567887400008914
 20
42.5520030800002402
 30
0.0
  0
SEQEND
  5
42D8
  8
250
  6
CONTINUOUS
  0
INSERT
  5
42D9
  8
250
  6
CONTINUOUS
  2
*U4
 10
0.0000000000009379
 20
0.0000000000000693
 30
0.0
  0
LINE
  5
42DA
  8
250
  6
CONTINUOUS
 10
54.1567887400008914
 20
42.5520030800002402
 30
0.0
 11
67.223455400000887
 21
42.5520030800002402
 31
0.0
1001
ITEMNAME
1000
LNSP2
  0
CIRCLE
  5
42DB
  8
241
  6
CONTINUOUS
 10
35.0000000000009095
 20
0.0000000000001279
 30
0.0
 40
5.1500000000000004
  0
CIRCLE
  5
42DC
  8
242
  6
CONTINUOUS
 10
35.0000000000009095
 20
0.0000000000001279
 30
0.0
 40
4.5
  0
LINE
  5
42DD
  8
245
  6
CENTER2
 10
35.0000000000009095
 20
6.1982482400001251
 30
0.0
 11
35.0000000000009095
 21
-6.1499999999998707
 31
0.0
  0
POLYLINE
  5
42DE
  8
241
  6
CONTINUOUS
 66
     1
 10
0.0
 20
0.0
 30
0.0
 70
     1
  0
VERTEX
  5
42DF
  8
241
  6
CONTINUOUS
 10
32.5000000000009095
 20
-1.4433756699998701
 30
0.0
  0
VERTEX
  5
42E0
  8
241
  6
CONTINUOUS
 10
35.0000000000009095
 20
-2.8867513499998712
 30
0.0
  0
VERTEX
  5
42E1
  8
241
  6
CONTINUOUS
 10
37.5000000000009095
 20
-1.4433756699998701
 30
0.0
  0
VERTEX
  5
42E2
  8
241
  6
CONTINUOUS
 10
37.5000000000009095
 20
1.443375670000125
 30
0.0
  0
VERTEX
  5
42E3
  8
241
  6
CONTINUOUS
 10
35.0000000000009095
 20
2.8867513500001261
 30
0.0
  0
VERTEX
  5
42E4
  8
241
  6
CONTINUOUS
 10
32.5000000000009095
 20
1.443375670000125
 30
0.0
  0
SEQEND
  5
42E5
  8
241
  6
CONTINUOUS
  0
LINE
  5
42F8
  8
250
  6
CONTINUOUS
 10
0.0
 20
25.5000000000000213
 30
0.0
 11
0.0
 21
42.9999999999999787
 31
0.0
  0
LINE
  5
42F9
  8
250
  6
CONTINUOUS
 10
48.0
 20
25.5000000000000107
 30
0.0
 11
48.0
 21
42.9999999999999787
 31
0.0
  0
LINE
  5
42FA
  8
250
  6
CONTINUOUS
 10
2.2300000000000031
 20
41.9999999999999787
 30
0.0
 11
45.7699999999999889
 21
41.9999999999999787
 31
0.0
  0
LINE
  5
42FB
  8
250
  6
CONTINUOUS
 10
2.2300000000000031
 20
41.6283333333333019
 30
0.0
 11
0.0
 21
41.9999999999999787
 31
0.0
  0
LINE
  5
42FC
  8
250
  6
CONTINUOUS
 10
2.2300000000000031
 20
42.3716666666666413
 30
0.0
 11
0.0
 21
41.9999999999999787
 31
0.0
  0
LINE
  5
42FD
  8
250
  6
CONTINUOUS
 10
0.0
 20
41.9999999999999787
 30
0.0
 11
2.2300000000000031
 21
41.9999999999999787
 31
0.0
  0
LINE
  5
42FE
  8
250
  6
CONTINUOUS
 10
45.7699999999999889
 20
42.3716666666666413
 30
0.0
 11
48.0
 21
41.9999999999999787
 31
0.0
  0
LINE
  5
42FF
  8
250
  6
CONTINUOUS
 10
45.7699999999999889
 20
41.6283333333333019
 30
0.0
 11
48.0
 21
41.9999999999999787
 31
0.0
  0
LINE
  5
4300
  8
250
  6
CONTINUOUS
 10
48.0
 20
41.9999999999999787
 30
0.0
 11
45.7699999999999889
 21
41.9999999999999787
 31
0.0
  0
TEXT
  5
4301
  8
250
  6
CONTINUOUS
 10
21.3333333333333002
 20
42.9999999999999787
 30
0.0
 40
2.799999999999998
  1
48
1001
ACAD
1000
MTEXTBEGIN
1070
    73
1070
     1
1070
    44
1040
1.0
1070
    74
1070
     0
1000
MTEXTEND
1000
MTEXTBEGIN
1070
    73
1070
     1
1070
    44
1040
1.0
1070
    74
1070
     0
1000
MTEXTEND
  0
TEXT
  5
4302
  8
241
  6
CONTINUOUS
 10
-80.0
 20
55.9999999999999716
 30
0.0
 40
5.0
  1
ST42-CKB5-48
  7
YOKO
 11
-80.0
 21
55.9999999999999716
 31
0.0
 73
     1
  0
LINE
  5
43AA
  8
250
  6
CONTINUOUS
 10
-56.303843654940593
 20
-22.7454033172151391
 30
0.0
 11
-54.8669708799999896
 21
-21.0
 31
0.0
  0
LINE
  5
43AB
  8
250
  6
CONTINUOUS
 10
-55.6600981047659218
 20
-23.1170699838328915
 30
0.0
 11
-54.8669708799999896
 21
-21.0
 31
0.0
  0
LINE
  5
43AC
  8
250
  6
CONTINUOUS
 10
-54.8669708799999896
 20
-21.0
 30
0.0
 11
-55.9819708798532574
 21
-22.9312366505240206
 31
0.0
  0
LINE
  5
43AD
  8
250
  6
CONTINUOUS
 10
-55.9819708798532574
 20
-22.9312366505240206
 30
0.0
 11
-61.9439339599999812
 21
-33.2576596199999912
 31
0.0
1001
ACAD
1000
DSTYLE
1002
{
1070
     6
1000
OPEN
1070
   343
1005
594
1002
}
  0
TEXT
  5
43AE
  8
250
  6
CONTINUOUS
 10
-74.4772672900000003
 20
-32.2576596199999983
 30
0.0
 40
2.799999999999998
  1
ST42
  7
YOKO
1001
ITEMNAME
1000
LNSP3
  0
LINE
  5
43AF
  8
250
  6
CONTINUOUS
 10
-61.9439339599999812
 20
-33.2576596199999912
 30
0.0
 11
-76.877267290000006
 21
-33.2576596199999912
 31
0.0
1001
ITEMNAME
1000
LNSP2
  0
LINE
  5
43B0
  8
247
  6
CONTINUOUS
 10
-73.2500000000700027
 20
-14.9999999999999893
 30
0.0
 11
-66.5576923080299991
 21
-14.9999999999999893
 31
0.0
  0
ARC
  5
43B1
  8
247
  6
CONTINUOUS
 10
-73.2500000000700027
 20
-13.2500000000700204
 30
0.0
 40
1.7499999999299991
 50
90.0
 51
270.0
  0
ARC
  5
43B2
  8
247
  6
CONTINUOUS
 10
-66.5576923080299991
 20
-13.2500000000700204
 30
0.0
 40
1.7499999999299991
 50
270.0
 51
90.0
  0
LINE
  5
43B3
  8
247
  6
CONTINUOUS
 10
-72.3846153847200071
 20
-11.5000000001400604
 30
0.0
 11
-73.2448515419620065
 21
-14.50000000002
 31
0.0
  0
LINE
  5
43B4
  8
247
  6
CONTINUOUS
 10
-71.4849838183358059
 20
-12.9230769231598899
 30
0.0
 11
-72.7926761259758024
 21
-12.9230769231598899
 31
0.0
  0
ARC
  5
43B5
  8
247
  6
CONTINUOUS
 10
-71.1451438160897851
 20
-12.0495986677028597
 30
0.0
 40
0.5538165441895349
 50
342.9978896752954256
 51
82.9241662185127524
  0
ARC
  5
43B6
  8
247
  6
CONTINUOUS
 10
-71.5668783230287602
 20
-11.9360330444658302
 30
0.0
 40
0.9904354236226808
 50
274.7429368522014101
 51
343.8492262732664813
1001
GENIUS_GENOBJ-N-FIL_13
1002
{
1000
OWNER
1000
GEN
1002
}
1001
GENIUS_GENODEF_13
1002
{
1000
HIER
1070
     0
1002
}
1002
{
1000
MANEDIT
1070
     0
1002
}
1002
{
1000
NOSEL
1070
     0
1002
}
1002
{
1000
BEHIND
1070
     0
1002
}
1002
{
1000
OTHER
1070
     0
1002
}
1002
{
1000
REACTOR
1002
}
  0
LINE
  5
43B7
  8
247
  6
CONTINUOUS
 10
-71.9371592343220101
 20
-14.50000000002
 30
0.0
 11
-73.2448515419620065
 21
-14.50000000002
 31
0.0
  0
LINE
  5
43B8
  8
247
  6
CONTINUOUS
 10
-72.3846153847200071
 20
-11.5000000001400604
 30
0.0
 11
-71.0769230770799965
 21
-11.5000000001400604
 31
0.0
  0
ARC
  5
43B9
  8
247
  6
CONTINUOUS
 10
-71.56091963654697
 20
-13.4820242326654807
 30
0.0
 40
0.5640818586791229
 50
335.9909416525217125
 51
82.263443459069066
  0
ARC
  5
43BA
  8
247
  6
CONTINUOUS
 10
-72.038262685347064
 20
-13.4874290391864999
 30
0.0
 40
1.0176059446230981
 50
275.7019851642580761
 51
347.2773384368222764
1001
GENIUS_GENOBJ-N-FIL_13
1002
{
1000
OWNER
1000
GEN
1002
}
1001
GENIUS_GENODEF_13
1002
{
1000
HIER
1070
     0
1002
}
1002
{
1000
MANEDIT
1070
     0
1002
}
1002
{
1000
NOSEL
1070
     0
1002
}
1002
{
1000
BEHIND
1070
     0
1002
}
1002
{
1000
OTHER
1070
     0
1002
}
1002
{
1000
REACTOR
1002
}
  0
LINE
  5
43BB
  8
247
  6
CONTINUOUS
 10
-70.2833130805420012
 20
-14.50000000002
 30
0.0
 11
-69.4230769233000302
 21
-11.5000000001400604
 31
0.0
  0
LINE
  5
43BC
  8
247
  6
CONTINUOUS
 10
-67.00000000032
 20
-11.5000000001400604
 30
0.0
 11
-67.5657366194566009
 21
-11.5000000001400604
 31
0.0
  0
LINE
  5
43BD
  8
247
  6
CONTINUOUS
 10
-68.4615384617999894
 20
-14.50000000002
 30
0.0
 11
-67.8461538464400178
 21
-14.50000000002
 31
0.0
  0
ARC
  5
43BE
  8
247
  6
CONTINUOUS
 10
-66.7087912091228645
 20
-13.5832851359733606
 30
0.0
 40
2.2526500823422122
 50
112.3594881415302069
 51
164.9932485428460041
  0
ARC
  5
43BF
  8
247
  6
CONTINUOUS
 10
-67.3740694792132331
 20
-12.30831265519463
 30
0.0
 40
0.8906723995727782
 50
4.9945893190753772
 51
65.1663289573005642
1001
GENIUS_GENOBJ-N-FIL_13
1002
{
1000
OWNER
1000
GEN
1002
}
1001
GENIUS_GENODEF_13
1002
{
1000
HIER
1070
     0
1002
}
1002
{
1000
MANEDIT
1070
     0
1002
}
1002
{
1000
NOSEL
1070
     0
1002
}
1002
{
1000
BEHIND
1070
     0
1002
}
1002
{
1000
OTHER
1070
     0
1002
}
1002
{
1000
REACTOR
1002
}
  0
ARC
  5
43C0
  8
247
  6
CONTINUOUS
 10
-68.2264588862125834
 20
-13.1601458886677793
 30
0.0
 40
1.392781735586712
 50
285.8460965557807754
 51
352.3251370041625137
  0
ARC
  5
43C1
  8
247
  6
CONTINUOUS
 10
-67.6422127258403663
 20
-13.4592434315272804
 30
0.0
 40
1.324563662670287
 50
159.7136016704901067
 51
231.7887456564129991
1001
GENIUS_GENOBJ-N-FIL_13
1002
{
1000
OWNER
1000
GEN
1002
}
1001
GENIUS_GENODEF_13
1002
{
1000
HIER
1070
     0
1002
}
1002
{
1000
MANEDIT
1070
     0
1002
}
1002
{
1000
NOSEL
1070
     0
1002
}
1002
{
1000
BEHIND
1070
     0
1002
}
1002
{
1000
OTHER
1070
     0
1002
}
1002
{
1000
REACTOR
1002
}
  0
LINE
  5
43C2
  8
247
  6
CONTINUOUS
 10
-67.5384615387600036
 20
-13.3461538462199698
 30
0.0
 11
-66.8461538464800071
 21
-13.3461538462199698
 31
0.0
  0
LINE
  5
43C3
  8
247
  6
CONTINUOUS
 10
-73.2500000000700311
 20
-11.5000000001400604
 30
0.0
 11
-72.5769230770200835
 21
-11.5000000001400604
 31
0.0
  0
VIEWPORT
  5
22
 67
     1
  8
0
 10
261.517699115044195
 20
148.5
 30
0.0
 40
523.0353982300885036
 41
297.0
 68
     1
 69
     1
1001
ACAD
1000
MVIEW
1002
{
1070
    16
1010
0.0
1020
0.0
1030
0.0
1010
0.0
1020
0.0
1030
1.0
1040
0.0
1040
297.0
1040
261.517699115044195
1040
148.5
1040
50.0
1040
0.0
1040
0.0
1070
     0
1070
   100
1070
     1
1070
     1
1070
     0
1070
     0
1070
     0
1070
     0
1040
0.0
1040
0.0
1040
0.0
1040
1.0
1040
1.0
1040
10.0
1040
10.0
1070
     0
1002
{
1002
}
1002
}
1001
GENIUS_GENODEF_13
1002
{
1000
HIER
1070
     0
1002
}
1002
{
1000
MANEDIT
1070
     0
1002
}
1002
{
1000
NOSEL
1070
     0
1002
}
1002
{
1000
BEHIND
1070
     0
1002
}
1002
{
1000
OTHER
1070
     0
1002
}
1002
{
1000
REACTOR
1002
}
1001
GENIUS_GENOBJ-N-SDF_13
1002
{
1000
OWNER
1000
GEN
1002
}
1001
GENIUS_GENSCREG_15
1000
PF
1040
1.0
1000
DF
1040
1.0
1000
MIN
1011
0.0
1021
0.0
1031
0.0
1021
0.0
1031
0.0
1000
MAX
1011
523.0353982300885036
1021
0.0
1031
0.0
1021
297.0
1031
0.0
1000
FLAGS
1070
     4
  0
ENDSEC
  0
EOF
