  0
SECTION
  2
HEADER
  9
$ACADVER
  1
AC1009
  9
$INSBASE
 10
0.0
 20
0.0
 30
0.0
  9
$EXTMIN
 10
-108.8
 20
-47.999999999999908
 30
0.0
  9
$EXTMAX
 10
92.000000000000014
 20
82.000000000000057
 30
0.0
  9
$LIMMIN
 10
0.0
 20
0.0
  9
$LIMMAX
 10
297.0
 20
210.0
  9
$ORTHOMODE
 70
     0
  9
$REGENMODE
 70
     1
  9
$FILLMODE
 70
     1
  9
$QTEXTMODE
 70
     0
  9
$MIRRTEXT
 70
     1
  9
$DRAGMODE
 70
     2
  9
$LTSCALE
 40
10.0
  9
$OSMODE
 70
  3071
  9
$ATTMODE
 70
     1
  9
$TEXTSIZE
 40
3.0
  9
$TRACEWID
 40
1.0
  9
$TEXTSTYLE
  7
YOKO
  9
$CLAYER
  8
245
  9
$CELTYPE
  6
BYLAYER
  9
$CECOLOR
 62
   256
  9
$DIMSCALE
 40
1.0
  9
$DIMASZ
 40
2.2299999999999991
  9
$DIMEXO
 40
0.5
  9
$DIMDLI
 40
7.0
  9
$DIMRND
 40
0.0
  9
$DIMDLE
 40
0.0
  9
$DIMEXE
 40
1.0
  9
$DIMTP
 40
0.0
  9
$DIMTM
 40
0.01
  9
$DIMTXT
 40
2.7999999999999989
  9
$DIMCEN
 40
0.0
  9
$DIMTSZ
 40
0.0
  9
$DIMTOL
 70
     0
  9
$DIMLIM
 70
     0
  9
$DIMTIH
 70
     0
  9
$DIMTOH
 70
     0
  9
$DIMSE1
 70
     0
  9
$DIMSE2
 70
     0
  9
$DIMTAD
 70
     3
  9
$DIMZIN
 70
     9
  9
$DIMBLK
  1
OPEN
  9
$DIMASO
 70
     1
  9
$DIMSHO
 70
     1
  9
$DIMPOST
  1

  9
$DIMAPOST
  1

  9
$DIMALT
 70
     0
  9
$DIMALTD
 70
     2
  9
$DIMALTF
 40
25.399999999999999
  9
$DIMLFAC
 40
1.0
  9
$DIMTOFL
 70
     1
  9
$DIMTVP
 40
0.0
  9
$DIMTIX
 70
     1
  9
$DIMSOXD
 70
     0
  9
$DIMSAH
 70
     0
  9
$DIMBLK1
  1

  9
$DIMBLK2
  1

  9
$DIMSTYLE
  2
BIGT
  9
$DIMCLRD
 70
   256
  9
$DIMCLRE
 70
   256
  9
$DIMCLRT
 70
    40
  9
$DIMTFAC
 40
1.0
  9
$DIMGAP
 40
1.0
  9
$LUNITS
 70
     2
  9
$LUPREC
 70
     3
  9
$SKETCHINC
 40
1.0
  9
$FILLETRAD
 40
4.0
  9
$AUNITS
 70
     0
  9
$AUPREC
 70
     3
  9
$MENU
  1
.
  9
$ELEVATION
 40
0.0
  9
$PELEVATION
 40
0.0
  9
$THICKNESS
 40
0.0
  9
$LIMCHECK
 70
     0
  9
$BLIPMODE
 70
     0
  9
$CHAMFERA
 40
0.25
  9
$CHAMFERB
 40
0.25
  9
$SKPOLY
 70
     0
  9
$TDCREATE
 40
2455812.542441783
  9
$TDUPDATE
 40
2455812.5570036229
  9
$TDINDWG
 40
0.0139921412
  9
$TDUSRTIMER
 40
0.0139921412
  9
$USRTIMER
 70
     1
  9
$ANGBASE
 50
0.0
  9
$ANGDIR
 70
     0
  9
$PDMODE
 70
     1
  9
$PDSIZE
 40
0.0
  9
$PLINEWID
 40
0.0
  9
$COORDS
 70
     1
  9
$SPLFRAME
 70
     0
  9
$SPLINETYPE
 70
     6
  9
$SPLINESEGS
 70
     4
  9
$ATTDIA
 70
     1
  9
$ATTREQ
 70
     1
  9
$HANDLING
 70
     1
  9
$HANDSEED
  5
1C0F
  9
$SURFTAB1
 70
     6
  9
$SURFTAB2
 70
     6
  9
$SURFTYPE
 70
     6
  9
$SURFU
 70
     6
  9
$SURFV
 70
     6
  9
$UCSNAME
  2

  9
$UCSORG
 10
0.0
 20
0.0
 30
0.0
  9
$UCSXDIR
 10
1.0
 20
0.0
 30
0.0
  9
$UCSYDIR
 10
0.0
 20
1.0
 30
0.0
  9
$PUCSNAME
  2

  9
$PUCSORG
 10
0.0
 20
0.0
 30
0.0
  9
$PUCSXDIR
 10
1.0
 20
0.0
 30
0.0
  9
$PUCSYDIR
 10
0.0
 20
1.0
 30
0.0
  9
$USERI1
 70
     1
  9
$USERI2
 70
     0
  9
$USERI3
 70
     0
  9
$USERI4
 70
     0
  9
$USERI5
 70
     0
  9
$USERR1
 40
0.0
  9
$USERR2
 40
0.0
  9
$USERR3
 40
0.0
  9
$USERR4
 40
0.0
  9
$USERR5
 40
0.0
  9
$WORLDVIEW
 70
     1
  9
$SHADEDGE
 70
     3
  9
$SHADEDIF
 70
    70
  9
$TILEMODE
 70
     1
  9
$MAXACTVP
 70
    16
  9
$PLIMCHECK
 70
     0
  9
$PEXTMIN
 10
1.0000000000000000E+020
 20
1.0000000000000000E+020
 30
1.0000000000000000E+020
  9
$PEXTMAX
 10
-1.0000000000000000E+020
 20
-1.0000000000000000E+020
 30
-1.0000000000000000E+020
  9
$PLIMMIN
 10
0.0
 20
0.0
  9
$PLIMMAX
 10
420.0
 20
297.0
  9
$UNITMODE
 70
     0
  9
$VISRETAIN
 70
     1
  9
$PLINEGEN
 70
     0
  9
$PSLTSCALE
 70
     1
  0
ENDSEC
  0
SECTION
  2
TABLES
  0
TABLE
  2
VPORT
 70
     1
  0
VPORT
  2
*ACTIVE
 70
     0
 10
0.0
 20
0.0
 11
1.0
 21
1.0
 12
-8.4043345131263294
 22
27.013697688671449
 13
0.0
 23
0.0
 14
7.0
 24
7.0
 15
7.0
 25
7.0
 16
0.0
 26
0.0
 36
1.0
 17
0.0
 27
0.0
 37
0.0
 40
131.01401334202691
 41
1.8471023427866831
 42
50.0
 43
0.0
 44
0.0
 50
0.0
 51
0.0
 71
     0
 72
  2000
 73
     1
 74
     0
 75
     0
 76
     1
 77
     0
 78
     0
  0
ENDTAB
  0
TABLE
  2
LTYPE
 70
    14
  0
LTYPE
  2
CONTINUOUS
 70
     0
  3
Solid line
 72
    65
 73
     0
 40
0.0
  0
LTYPE
  2
CENTER2
 70
     0
  3
___ _ ___ _ ___ _ ___ _ ___ _ ___ _ ___ _ ___ _
 72
    65
 73
     4
 40
1.125
 49
0.75
 49
-0.125
 49
0.125
 49
-0.125
  0
LTYPE
  2
HIDDEN2
 70
     0
  3
_ _ _ _ _ _ _ _ _ _ _ _ _ _ _ _ _ _ _ _ _ _ _ _
 72
    65
 73
     2
 40
0.1875
 49
0.125
 49
-0.0625
  0
LTYPE
  2
PHANTOM2
 70
     0
  3
___ _ _ ___ _ _ ___ _ _ ___ _ _ ___ _ _ ___ _ _
 72
    65
 73
     6
 40
1.25
 49
0.625
 49
-0.125
 49
0.125
 49
-0.125
 49
0.125
 49
-0.125
  0
LTYPE
  2
CENTER
 70
     0
  3
____ _ ____ _ ____ _ ____ _ ____ _ ____ _ ____ 
 72
    65
 73
     4
 40
2.0
 49
1.25
 49
-0.25
 49
0.25
 49
-0.25
  0
LTYPE
  2
AM_ISO02W050
 70
     0
  3
__ __ __ __ __ __ __ __ __ __ __ __ __ __ __
 72
    65
 73
     2
 40
7.5
 49
6.0
 49
-1.5
  0
LTYPE
  2
AMCONSTR
 70
     0
  3
_______________________
 72
    65
 73
     2
 40
9999.0
 49
9999.0
 49
0.0
  0
LTYPE
  2
ACISOWELD
 70
     0
  3
_ _ _ _ _
 72
    65
 73
     2
 40
2.0
 49
2.0
 49
-1.0
  0
LTYPE
  2
ACISOTGB
 70
     0
  3
__ . . __ . .
 72
    65
 73
     6
 40
9.0
 49
4.0
 49
-1.0
 49
1.0
 49
-1.0
 49
1.0
 49
-1.0
  0
LTYPE
  2
ACISOTGL
 70
     0
  3
_ _ _ _ _
 72
    65
 73
     2
 40
3.0
 49
2.0
 49
-1.0
  0
LTYPE
  2
ACJISTGB
 70
     0
  3
__ . . __ . .
 72
    65
 73
     6
 40
9.0
 49
4.0
 49
-1.0
 49
1.0
 49
-1.0
 49
1.0
 49
-1.0
  0
LTYPE
  2
ACJISTGL
 70
     0
  3
_ _ _ _ _
 72
    65
 73
     2
 40
3.0
 49
2.0
 49
-1.0
  0
LTYPE
  2
HIDDEN
 70
     0
  3
Hidden __ __ __ __ __ __ __ __ __ __ __ __ __ _
 72
    65
 73
     2
 40
9.5249999999999986
 49
6.3499999999999988
 49
-3.1749999999999989
  0
LTYPE
  2
CENTERX2
 70
     0
  3
________  __  ________  __  ________  __  _____
 72
    65
 73
     4
 40
4.0
 49
2.5
 49
-0.5
 49
0.5
 49
-0.5
  0
ENDTAB
  0
TABLE
  2
LAYER
 70
     6
  0
LAYER
  2
0
 70
     0
 62
     7
  6
CONTINUOUS
  0
LAYER
  2
DEFPOINTS
 70
     0
 62
     7
  6
CONTINUOUS
  0
LAYER
  2
245
 70
     0
 62
     2
  6
CENTER2
  0
LAYER
  2
240
 70
     0
 62
     4
  6
CONTINUOUS
  0
LAYER
  2
241
 70
     0
 62
   211
  6
CONTINUOUS
  0
LAYER
  2
250
 70
     0
 62
     3
  6
CONTINUOUS
  0
ENDTAB
  0
TABLE
  2
STYLE
 70
     6
  0
STYLE
  2
STANDARD
 70
     0
 40
0.0
 41
1.0
 50
0.0
 71
     0
 42
3.0
  3
romans.shx
  4
extfont.shx
  0
STYLE
  2
ACISOTS
 70
     0
 40
1.0
 41
1.0
 50
0.0
 71
     0
 42
3.0
  3
amgdt.shx
  4
extfont.shx
  0
STYLE
  2
ACISOGDT
 70
     0
 40
0.0
 41
1.0
 50
0.0
 71
     0
 42
3.0
  3
amgdt.shx
  4
extfont.shx
  0
STYLE
  2
ACJISTS
 70
     0
 40
1.0
 41
1.0
 50
0.0
 71
     0
 42
3.0
  3
amgdt.shx
  4
extfont.shx
  0
STYLE
  2
ACJISGDT
 70
     0
 40
0.0
 41
1.0
 50
0.0
 71
     0
 42
3.0
  3
amgdt.shx
  4
extfont.shx
  0
STYLE
  2
YOKO
 70
     0
 40
0.0
 41
1.0
 50
0.0
 71
     0
 42
3.0
  3
romans.shx
  4
extfont.shx
  0
ENDTAB
  0
TABLE
  2
VIEW
 70
     0
  0
ENDTAB
  0
TABLE
  2
UCS
 70
     0
  0
ENDTAB
  0
TABLE
  2
APPID
 70
    34
  0
APPID
  2
ACAD
 70
     0
  0
APPID
  2
GLOBAL
 70
     0
  0
APPID
  2
DETAIL
 70
     0
  0
APPID
  2
GRPNAME
 70
     0
  0
APPID
  2
GPARA
 70
     0
  0
APPID
  2
MCAD_NO_VIS
 70
     0
  0
APPID
  2
ACAD_TEMP_GRAPHIC
 70
     0
  0
APPID
  2
ACATTRIBSERVICES
 70
     0
  0
APPID
  2
GENIUS_GENSCREG_15
 70
     0
  0
APPID
  2
GENIUS_GENODEF_13
 70
     0
  0
APPID
  2
GENIUS_GENOBJ-N-SDF_13
 70
     0
  0
APPID
  2
GENIUS_GENREC_14
 70
     0
  0
APPID
  2
GENIUS_GENOBJ-N-REC_13
 70
     0
  0
APPID
  2
GENIUS_GENDIMSH_14
 70
     0
  0
APPID
  2
GENIUS_GENOBJ-N-DIM_13
 70
     0
  0
APPID
  2
GENIUS_GENDIM_13
 70
     0
  0
APPID
  2
GENIUS_GENDTOL_13
 70
     0
  0
APPID
  2
GENIUS_GENOLIS_13
 70
     0
  0
APPID
  2
GENIUS_GENOENT_13
 70
     0
  0
APPID
  2
GENIUS_GENOBJ-F-FEM_13
 70
     0
  0
APPID
  2
GENIUS_GENOREF_13
 70
     0
  0
APPID
  2
GENIUS_GEFFEM_13
 70
     0
  0
APPID
  2
GENIUS_GEFFEMP_13
 70
     0
  0
APPID
  2
AD_DRAW
 70
     0
  0
APPID
  2
DESIGNERASSEMBLIES
 70
     0
  0
APPID
  2
ACADM_DIM_EDIT
 70
     0
  0
APPID
  2
AMDT_DM_ADJ
 70
     0
  0
APPID
  2
ACAD_EXEMPT_FROM_CAD_STANDARDS
 70
     0
  0
APPID
  2
ACAD_PSEXT
 70
     0
  0
APPID
  2
GENIUS_GENOBJ-N-FIL_13
 70
     0
  0
APPID
  2
ACAD_DSTYLE_DIMINSPECT
 70
     0
  0
APPID
  2
ACAD_DSTYLE_DIMRADIAL_EXTENSION
 70
     0
  0
APPID
  2
ACAECLAYERSTANDARD
 70
     0
  0
APPID
  2
ACAD_MLEADERVER
 70
     0
  0
ENDTAB
  0
TABLE
  2
DIMSTYLE
 70
    23
  0
DIMSTYLE
  2
BIGT
 70
     0
  3

  4

  5
OPEN
  6

  7

 40
1.0
 41
2.2299999999999991
 42
0.5
 43
7.0
 44
1.0
 45
0.0
 46
0.0
 47
0.0
 48
0.01
140
2.7999999999999989
141
0.0
142
0.0
143
25.399999999999999
144
1.0
145
0.0
146
1.0
147
1.0
 71
     0
 72
     0
 73
     0
 74
     0
 75
     0
 76
     0
 77
     3
 78
     9
170
     0
171
     2
172
     1
173
     0
174
     1
175
     0
176
   256
177
   256
178
    40
  0
DIMSTYLE
  2
AM_ISO
 70
     0
  3

  4
"
  5

  6

  7

 40
1.0
 41
2.5
 42
1.0
 43
10.0
 44
1.0
 45
0.0
 46
0.0
 47
0.1
 48
0.1
140
3.5
141
0.0
142
0.0
143
0.0393701
144
1.0
145
0.0
146
0.71
147
1.5
 71
     0
 72
     0
 73
     0
 74
     0
 75
     0
 76
     0
 77
     1
 78
     8
170
     0
171
     2
172
     1
173
     0
174
     0
175
     0
176
   256
177
   256
178
     2
  0
DIMSTYLE
  2
AM_ISO$3
 70
     0
  3

  4
"
  5

  6

  7

 40
1.0
 41
2.5
 42
1.0
 43
10.0
 44
1.0
 45
0.0
 46
0.0
 47
0.1
 48
0.1
140
3.5
141
0.0
142
0.0
143
0.0393701
144
1.0
145
0.0
146
0.71
147
1.5
 71
     0
 72
     0
 73
     0
 74
     1
 75
     0
 76
     0
 77
     1
 78
     8
170
     0
171
     2
172
     0
173
     0
174
     0
175
     0
176
   256
177
   256
178
     2
  0
DIMSTYLE
  2
AM_ISO$4
 70
     0
  3

  4
"
  5

  6

  7

 40
1.0
 41
2.5
 42
1.0
 43
10.0
 44
1.0
 45
0.0
 46
0.0
 47
0.1
 48
0.1
140
3.5
141
0.0
142
0.0
143
0.0393701
144
1.0
145
0.0
146
0.71
147
1.5
 71
     0
 72
     0
 73
     0
 74
     1
 75
     0
 76
     0
 77
     1
 78
     8
170
     0
171
     2
172
     0
173
     0
174
     0
175
     0
176
   256
177
   256
178
     2
  0
DIMSTYLE
  2
AM_ISO$6
 70
     0
  3

  4
"
  5

  6

  7

 40
1.0
 41
2.5
 42
1.0
 43
10.0
 44
1.0
 45
0.0
 46
0.0
 47
0.1
 48
0.1
140
3.5
141
0.0
142
0.0
143
0.0393701
144
1.0
145
0.0
146
0.71
147
1.5
 71
     0
 72
     0
 73
     0
 74
     0
 75
     0
 76
     0
 77
     0
 78
     8
170
     0
171
     2
172
     1
173
     0
174
     0
175
     0
176
   256
177
   256
178
     2
  0
DIMSTYLE
  2
AM_ISO$7
 70
     0
  3

  4
"
  5

  6

  7

 40
1.0
 41
2.5
 42
1.0
 43
10.0
 44
1.0
 45
0.0
 46
0.0
 47
0.1
 48
0.1
140
5.0
141
0.0
142
0.0
143
0.0393701
144
1.0
145
0.0
146
0.71
147
1.5
 71
     0
 72
     0
 73
     0
 74
     0
 75
     0
 76
     0
 77
     1
 78
     8
170
     0
171
     2
172
     1
173
     0
174
     0
175
     0
176
   256
177
   256
178
     2
  0
DIMSTYLE
  2
AM_ISO$SF
 70
     0
  3

  4
"
  5

  6

  7

 40
1.0
 41
2.5
 42
1.0
 43
10.0
 44
1.0
 45
0.0
 46
0.0
 47
0.1
 48
0.1
140
3.5
141
0.0
142
0.0
143
0.0393701
144
1.0
145
0.0
146
0.71
147
1.5
 71
     0
 72
     0
 73
     0
 74
     0
 75
     1
 76
     1
 77
     1
 78
     8
170
     0
171
     2
172
     1
173
     0
174
     0
175
     0
176
   256
177
   256
178
     2
  0
DIMSTYLE
  2
AM_ISO$SH
 70
     0
  3

  4
"
  5

  6
GENAXEH
  7

 40
1.0
 41
2.5
 42
1.0
 43
10.0
 44
1.0
 45
0.0
 46
0.0
 47
0.1
 48
0.1
140
3.5
141
0.0
142
0.0
143
0.0393701
144
2.0
145
0.0
146
0.71
147
1.5
 71
     0
 72
     0
 73
     0
 74
     0
 75
     1
 76
     1
 77
     1
 78
     8
170
     0
171
     2
172
     1
173
     1
174
     0
175
     0
176
   256
177
   256
178
     2
  0
DIMSTYLE
  2
BIGT$2
 70
     0
  3

  4

  5
OPEN
  6

  7

 40
1.0
 41
2.2299999999999991
 42
0.5
 43
7.0
 44
1.0
 45
0.0
 46
0.0
 47
0.0
 48
0.01
140
2.7999999999999989
141
0.0
142
0.0
143
25.399999999999999
144
1.0
145
0.0
146
1.0
147
1.0
 71
     0
 72
     0
 73
     0
 74
     0
 75
     0
 76
     0
 77
     3
 78
     9
170
     0
171
     2
172
     1
173
     0
174
     0
175
     0
176
   256
177
   256
178
    40
  0
DIMSTYLE
  2
BIGT$3
 70
     0
  3

  4

  5
OPEN
  6

  7

 40
1.0
 41
2.2299999999999991
 42
0.5
 43
2.5
 44
1.0
 45
0.0
 46
0.0
 47
0.0
 48
0.01
140
2.7999999999999989
141
0.0
142
0.0
143
25.399999999999999
144
1.0
145
0.0
146
1.0
147
1.0
 71
     0
 72
     0
 73
     0
 74
     0
 75
     0
 76
     0
 77
     3
 78
     9
170
     0
171
     2
172
     1
173
     0
174
     0
175
     0
176
   256
177
   256
178
    40
  0
DIMSTYLE
  2
BIGT$7
 70
     0
  3

  4

  5
OPEN
  6

  7

 40
0.0
 41
2.2299999999999991
 42
0.5
 43
7.0
 44
1.0
 45
0.0
 46
0.0
 47
0.0
 48
0.01
140
2.7999999999999989
141
0.0
142
0.0
143
25.399999999999999
144
1.0
145
0.0
146
1.0
147
1.0
 71
     0
 72
     0
 73
     0
 74
     0
 75
     0
 76
     0
 77
     3
 78
     9
170
     0
171
     2
172
     0
173
     0
174
     0
175
     0
176
   256
177
   256
178
    40
  0
DIMSTYLE
  2
BIGT$6
 70
     0
  3

  4

  5
OPEN
  6

  7

 40
1.0
 41
2.2299999999999991
 42
0.5
 43
2.5
 44
1.0
 45
0.0
 46
0.0
 47
0.0
 48
0.01
140
2.7999999999999989
141
0.0
142
0.0
143
25.399999999999999
144
1.0
145
0.0
146
1.0
147
1.0
 71
     0
 72
     0
 73
     0
 74
     0
 75
     0
 76
     0
 77
     3
 78
     9
170
     0
171
     2
172
     1
173
     0
174
     0
175
     0
176
   256
177
   256
178
    40
  0
DIMSTYLE
  2
BIGT$0
 70
     0
  3

  4

  5
OPEN
  6

  7

 40
1.0
 41
2.2299999999999991
 42
0.5
 43
7.0
 44
1.0
 45
0.0
 46
0.0
 47
0.0
 48
0.01
140
2.7999999999999989
141
0.0
142
0.0
143
25.399999999999999
144
1.0
145
0.0
146
1.0
147
1.0
 71
     0
 72
     0
 73
     0
 74
     0
 75
     0
 76
     0
 77
     3
 78
     9
170
     0
171
     2
172
     1
173
     0
174
     0
175
     0
176
   256
177
   256
178
    40
  0
DIMSTYLE
  2
BIGT$4
 70
     0
  3

  4

  5
OPEN
  6

  7

 40
1.0
 41
2.2299999999999991
 42
0.5
 43
2.5
 44
1.0
 45
0.0
 46
0.0
 47
0.0
 48
0.01
140
2.7999999999999989
141
0.0
142
0.0
143
25.399999999999999
144
1.0
145
0.0
146
1.0
147
1.0
 71
     0
 72
     0
 73
     0
 74
     0
 75
     0
 76
     0
 77
     3
 78
     9
170
     0
171
     2
172
     1
173
     0
174
     0
175
     0
176
   256
177
   256
178
    40
  0
DIMSTYLE
  2
BIGT$SH
 70
     0
  3

  4

  5
OPEN
  6

  7

 40
1.0
 41
2.2299999999999991
 42
0.5
 43
7.0
 44
1.0
 45
0.0
 46
0.0
 47
0.0
 48
0.0
140
2.7999999999999989
141
0.0
142
0.0
143
25.399999999999999
144
1.0
145
0.0
146
1.0
147
1.0
 71
     0
 72
     0
 73
     0
 74
     0
 75
     0
 76
     0
 77
     3
 78
     9
170
     0
171
     2
172
     1
173
     0
174
     0
175
     0
176
   256
177
   256
178
    40
  0
DIMSTYLE
  2
BIGT$SF
 70
     0
  3

  4

  5
OPEN
  6

  7

 40
1.0
 41
2.2299999999999991
 42
0.5
 43
7.0
 44
1.0
 45
0.0
 46
0.0
 47
0.0
 48
0.0
140
2.7999999999999989
141
0.0
142
0.0
143
25.399999999999999
144
1.0
145
0.0
146
1.0
147
1.0
 71
     0
 72
     0
 73
     0
 74
     0
 75
     0
 76
     0
 77
     3
 78
     9
170
     0
171
     2
172
     1
173
     0
174
     0
175
     0
176
   256
177
   256
178
    40
  0
DIMSTYLE
  2
TECHNICAL_OSAKA
 70
     0
  3

  4
"
  5
OPEN30
  6

  7

 40
1.0
 41
2.5
 42
1.0
 43
10.0
 44
1.0
 45
0.0
 46
0.0
 47
0.1
 48
0.1
140
2.7999999999999989
141
0.0
142
0.0
143
0.0393701
144
1.0
145
0.0
146
0.71
147
1.5
 71
     0
 72
     0
 73
     0
 74
     0
 75
     0
 76
     0
 77
     3
 78
     8
170
     0
171
     2
172
     1
173
     0
174
     0
175
     0
176
   256
177
   256
178
    40
  0
DIMSTYLE
  2
TECHNICAL_OSAKA$3
 70
     0
  3

  4
"
  5
OPEN30
  6

  7

 40
1.0
 41
2.5
 42
1.0
 43
10.0
 44
1.0
 45
0.0
 46
0.0
 47
0.1
 48
0.1
140
2.7999999999999989
141
0.0
142
0.0
143
0.0393701
144
1.0
145
0.0
146
0.71
147
1.5
 71
     0
 72
     0
 73
     0
 74
     1
 75
     0
 76
     0
 77
     3
 78
     8
170
     0
171
     2
172
     0
173
     0
174
     0
175
     0
176
   256
177
   256
178
    40
  0
DIMSTYLE
  2
TECHNICAL_OSAKA$4
 70
     0
  3

  4
"
  5
OPEN30
  6

  7

 40
1.0
 41
2.5
 42
1.0
 43
10.0
 44
1.0
 45
0.0
 46
0.0
 47
0.1
 48
0.1
140
2.7999999999999989
141
0.0
142
0.0
143
0.0393701
144
1.0
145
0.0
146
0.71
147
1.5
 71
     0
 72
     0
 73
     0
 74
     1
 75
     0
 76
     0
 77
     3
 78
     8
170
     0
171
     2
172
     0
173
     0
174
     0
175
     0
176
   256
177
   256
178
    40
  0
DIMSTYLE
  2
TECHNICAL_OSAKA$6
 70
     0
  3

  4
"
  5
OPEN30
  6

  7

 40
1.0
 41
2.5
 42
1.0
 43
10.0
 44
1.0
 45
0.0
 46
0.0
 47
0.1
 48
0.1
140
2.7999999999999989
141
0.0
142
0.0
143
0.0393701
144
1.0
145
0.0
146
0.71
147
1.5
 71
     0
 72
     0
 73
     0
 74
     0
 75
     0
 76
     0
 77
     0
 78
     8
170
     0
171
     2
172
     1
173
     0
174
     0
175
     0
176
   256
177
   256
178
    40
  0
DIMSTYLE
  2
TECHNICAL_OSAKA$7
 70
     0
  3

  4
"
  5
OPEN30
  6

  7

 40
1.0
 41
2.5
 42
1.0
 43
10.0
 44
1.0
 45
0.0
 46
0.0
 47
0.1
 48
0.1
140
2.7999999999999989
141
0.0
142
0.0
143
0.0393701
144
1.0
145
0.0
146
0.71
147
1.5
 71
     0
 72
     0
 73
     0
 74
     0
 75
     0
 76
     0
 77
     3
 78
     8
170
     0
171
     2
172
     1
173
     0
174
     0
175
     0
176
   256
177
   256
178
    40
  0
DIMSTYLE
  2
TECHNICAL_OSAKA$SF
 70
     0
  3

  4
"
  5
OPEN30
  6
OPEN30
  7
OPEN30
 40
1.0
 41
2.5
 42
1.0
 43
10.0
 44
1.0
 45
0.0
 46
0.0
 47
0.1
 48
0.1
140
3.5
141
0.0
142
0.0
143
0.0393701
144
1.0
145
0.0
146
0.71
147
1.5
 71
     0
 72
     0
 73
     0
 74
     0
 75
     1
 76
     1
 77
     3
 78
     8
170
     0
171
     2
172
     1
173
     0
174
     0
175
     0
176
   256
177
   256
178
    40
  0
DIMSTYLE
  2
TECHNICAL_OSAKA$SH
 70
     0
  3

  4
"
  5
OPEN30
  6
GENAXEH
  7
OPEN30
 40
1.0
 41
2.5
 42
1.0
 43
10.0
 44
1.0
 45
0.0
 46
0.0
 47
0.1
 48
0.1
140
3.5
141
0.0
142
0.0
143
0.0393701
144
2.0
145
0.0
146
0.71
147
1.5
 71
     0
 72
     0
 73
     0
 74
     0
 75
     1
 76
     1
 77
     3
 78
     8
170
     0
171
     2
172
     1
173
     1
174
     0
175
     0
176
   256
177
   256
178
    40
  0
ENDTAB
  0
ENDSEC
  0
SECTION
  2
BLOCKS
  0
BLOCK
  8
0
  2
$MODEL_SPACE
 70
     0
 10
0.0
 20
0.0
 30
0.0
  3
$MODEL_SPACE
  1

  0
ENDBLK
  5
1C
  8
0
  0
BLOCK
 67
     1
  8
0
  2
$PAPER_SPACE
 70
     0
 10
0.0
 20
0.0
 30
0.0
  3
$PAPER_SPACE
  1

  0
ENDBLK
  5
19
 67
     1
  8
0
  0
BLOCK
  8
0
  2
_OPEN
 70
     0
 10
0.0
 20
0.0
 30
0.0
  3
_OPEN
  1

  0
LINE
  5
19AA
  8
0
  6
BYBLOCK
 62
     0
 10
-1.0
 20
0.1666666666666666
 30
0.0
 11
0.0
 21
0.0
 31
0.0
  0
LINE
  5
19AB
  8
0
  6
BYBLOCK
 62
     0
 10
-1.0
 20
-0.1666666666666666
 30
0.0
 11
0.0
 21
0.0
 31
0.0
  0
LINE
  5
19AC
  8
0
  6
BYBLOCK
 62
     0
 10
0.0
 20
0.0
 30
0.0
 11
-1.0
 21
0.0
 31
0.0
  0
ENDBLK
  5
19AD
  8
0
  0
BLOCK
  8
0
  2
GENAXEH
 70
     0
 10
0.0
 20
0.0
 30
0.0
  3
GENAXEH
  1

  0
LINE
  5
19D8
  8
0
 10
-1.0
 20
0.0
 30
0.0
 11
1.0
 21
0.0
 31
0.0
  0
ENDBLK
  5
19D9
  8
0
  0
BLOCK
  8
0
  2
_OPEN30
 70
     0
 10
0.0
 20
0.0
 30
0.0
  3
_OPEN30
  1

  0
LINE
  5
1A02
  8
0
  6
BYBLOCK
 62
     0
 10
-1.0
 20
0.26794919
 30
0.0
 11
0.0
 21
0.0
 31
0.0
  0
LINE
  5
1A03
  8
0
  6
BYBLOCK
 62
     0
 10
0.0
 20
0.0
 30
0.0
 11
-1.0
 21
-0.26794919
 31
0.0
  0
LINE
  5
1A04
  8
0
  6
BYBLOCK
 62
     0
 10
0.0
 20
0.0
 30
0.0
 11
-1.0
 21
0.0
 31
0.0
  0
ENDBLK
  5
1A05
  8
0
  0
BLOCK
  8
0
  2
*U4
 70
     1
 10
0.0
 20
0.0
 30
0.0
  3
*U4
  1

  0
TEXT
  5
1A72
  8
250
 10
-42.666666666666153
 20
64.000000000000014
 30
0.0
 40
2.7999999999999989
  1
80
  0
ENDBLK
  5
1A74
  8
0
  0
BLOCK
  8
0
  2
*U5
 70
     1
 10
0.0
 20
0.0
 30
0.0
  3
*U5
  1

  0
TEXT
  5
1A76
  8
250
 10
23.333257478231449
 20
64.000000000000014
 30
0.0
 40
2.7999999999999989
  1
52
  0
ENDBLK
  5
1A78
  8
0
  0
BLOCK
  8
0
  2
*U6
 70
     1
 10
0.0
 20
0.0
 30
0.0
  3
*U6
  1

  0
TEXT
  5
1A7A
  8
250
 10
89.999999999999986
 20
-3.933333333333227
 30
0.0
 40
2.7999999999999989
  1
\U+220596
 50
90.0
  0
ENDBLK
  5
1A7C
  8
0
  0
BLOCK
  8
0
  2
*U7
 70
     1
 10
0.0
 20
0.0
 30
0.0
  3
*U7
  1

  0
TEXT
  5
1A7E
  8
250
 10
82.999999999999986
 20
-3.9333333333332159
 30
0.0
 40
2.7999999999999989
  1
\U+220585
 50
90.0
  0
ENDBLK
  5
1A80
  8
0
  0
BLOCK
  8
0
  2
*U8
 70
     1
 10
0.0
 20
0.0
 30
0.0
  3
*U8
  1

  0
TEXT
  5
1A82
  8
250
 10
75.999999999999986
 20
-3.9333333333332159
 30
0.0
 40
2.7999999999999989
  1
\U+220550
 50
90.0
  0
ENDBLK
  5
1A84
  8
0
  0
BLOCK
  8
0
  2
*U9
 70
     1
 10
0.0
 20
0.0
 30
0.0
  3
*U9
  1

  0
TEXT
  5
1A86
  8
250
 10
-106.0
 20
-3.9333333333332399
 30
0.0
 40
2.7999999999999989
  1
\U+220542
 50
90.0
  0
ENDBLK
  5
1A88
  8
0
  0
ENDSEC
  0
SECTION
  2
ENTITIES
  0
LINE
  5
14F9
  8
240
  6
CONTINUOUS
 10
51.763000000001199
 20
-18.302214071883441
 30
0.0
 11
51.763000000001199
 21
21.238097060575399
 31
0.0
  0
LINE
  5
14FA
  8
241
  6
CONTINUOUS
 10
17.07106781186658
 20
48.000000000000107
 30
0.0
 11
17.07106781186658
 21
0.0000000000001137
 31
0.0
  0
LINE
  5
14FB
  8
241
  6
CONTINUOUS
 10
11.464466094068399
 20
44.46446609406734
 30
0.0
 11
11.464466094068399
 21
-44.46446609406712
 31
0.0
  0
LINE
  5
14FC
  8
241
  6
CONTINUOUS
 10
13.53553390593393
 20
-46.535533905932652
 30
0.0
 11
13.53553390593393
 21
46.535533905932873
 31
0.0
  0
LINE
  5
14FD
  8
240
  6
CONTINUOUS
 10
10.00000000000105
 20
40.928932188134461
 30
0.0
 11
10.00000000000105
 21
32.50000000000022
 31
0.0
  0
LINE
  5
14FE
  8
241
  6
CONTINUOUS
 10
35.266401883246338
 20
-23.56568517945129
 30
0.0
 11
35.266401883246338
 21
24.66192408994154
 31
0.0
  0
LINE
  5
1502
  8
245
  6
CENTERX2
 10
56.763000000001078
 20
0.0000000000001137
 30
0.0
 11
-82.999999999999972
 21
0.0000000000001137
 31
0.0
  0
LINE
  5
1503
  8
240
  6
CONTINUOUS
 10
1.000000000001108
 20
-32.499999999999858
 30
0.0
 11
10.00000000000105
 21
-32.499999999999922
 31
0.0
  0
LINE
  5
1505
  8
240
  6
CONTINUOUS
 10
0.0000000000011084
 20
-31.49999999999989
 30
0.0
 11
0.000000000000739
 21
-20.999999999999918
 31
0.0
  0
POLYLINE
  5
1508
  8
241
  6
CONTINUOUS
 10
23.834795230040555
 20
-37.89450812225413
 30
0.0
 66
     1
 70
     8
  0
VERTEX
  8
241
  5
1A89
 10
23.8348
 20
-37.8945
 30
0.000000
  70
    32
  0
VERTEX
  8
241
  5
1A8A
 10
23.8461
 20
-37.9264
 30
0.000000
  70
    32
  0
VERTEX
  8
241
  5
1A8B
 10
23.8575
 20
-37.9583
 30
0.000000
  70
    32
  0
VERTEX
  8
241
  5
1A8C
 10
23.8689
 20
-37.9901
 30
0.000000
  70
    32
  0
VERTEX
  8
241
  5
1A8D
 10
23.8803
 20
-38.0218
 30
0.000000
  70
    32
  0
VERTEX
  8
241
  5
1A8E
 10
23.8917
 20
-38.0535
 30
0.000000
  70
    32
  0
VERTEX
  8
241
  5
1A8F
 10
23.9032
 20
-38.0852
 30
0.000000
  70
    32
  0
VERTEX
  8
241
  5
1A90
 10
23.9147
 20
-38.1168
 30
0.000000
  70
    32
  0
VERTEX
  8
241
  5
1A91
 10
23.9263
 20
-38.1484
 30
0.000000
  70
    32
  0
VERTEX
  8
241
  5
1A92
 10
23.9378
 20
-38.1800
 30
0.000000
  70
    32
  0
VERTEX
  8
241
  5
1A93
 10
23.9494
 20
-38.2114
 30
0.000000
  70
    32
  0
VERTEX
  8
241
  5
1A94
 10
23.9611
 20
-38.2429
 30
0.000000
  70
    32
  0
VERTEX
  8
241
  5
1A95
 10
23.9727
 20
-38.2743
 30
0.000000
  70
    32
  0
VERTEX
  8
241
  5
1A96
 10
23.9844
 20
-38.3057
 30
0.000000
  70
    32
  0
VERTEX
  8
241
  5
1A97
 10
23.9961
 20
-38.3370
 30
0.000000
  70
    32
  0
VERTEX
  8
241
  5
1A98
 10
24.0079
 20
-38.3682
 30
0.000000
  70
    32
  0
VERTEX
  8
241
  5
1A99
 10
24.0196
 20
-38.3995
 30
0.000000
  70
    32
  0
VERTEX
  8
241
  5
1A9A
 10
24.0314
 20
-38.4306
 30
0.000000
  70
    32
  0
VERTEX
  8
241
  5
1A9B
 10
24.0433
 20
-38.4618
 30
0.000000
  70
    32
  0
VERTEX
  8
241
  5
1A9C
 10
24.0552
 20
-38.4929
 30
0.000000
  70
    32
  0
VERTEX
  8
241
  5
1A9D
 10
24.0670
 20
-38.5239
 30
0.000000
  70
    32
  0
VERTEX
  8
241
  5
1A9E
 10
24.0790
 20
-38.5549
 30
0.000000
  70
    32
  0
VERTEX
  8
241
  5
1A9F
 10
24.0909
 20
-38.5858
 30
0.000000
  70
    32
  0
VERTEX
  8
241
  5
1AA0
 10
24.1029
 20
-38.6168
 30
0.000000
  70
    32
  0
VERTEX
  8
241
  5
1AA1
 10
24.1149
 20
-38.6476
 30
0.000000
  70
    32
  0
VERTEX
  8
241
  5
1AA2
 10
24.1270
 20
-38.6784
 30
0.000000
  70
    32
  0
VERTEX
  8
241
  5
1AA3
 10
24.1391
 20
-38.7092
 30
0.000000
  70
    32
  0
VERTEX
  8
241
  5
1AA4
 10
24.1512
 20
-38.7399
 30
0.000000
  70
    32
  0
VERTEX
  8
241
  5
1AA5
 10
24.1633
 20
-38.7706
 30
0.000000
  70
    32
  0
VERTEX
  8
241
  5
1AA6
 10
24.1755
 20
-38.8012
 30
0.000000
  70
    32
  0
VERTEX
  8
241
  5
1AA7
 10
24.1877
 20
-38.8318
 30
0.000000
  70
    32
  0
VERTEX
  8
241
  5
1AA8
 10
24.1999
 20
-38.8624
 30
0.000000
  70
    32
  0
VERTEX
  8
241
  5
1AA9
 10
24.2121
 20
-38.8929
 30
0.000000
  70
    32
  0
VERTEX
  8
241
  5
1AAA
 10
24.2244
 20
-38.9233
 30
0.000000
  70
    32
  0
VERTEX
  8
241
  5
1AAB
 10
24.2367
 20
-38.9537
 30
0.000000
  70
    32
  0
VERTEX
  8
241
  5
1AAC
 10
24.2491
 20
-38.9841
 30
0.000000
  70
    32
  0
VERTEX
  8
241
  5
1AAD
 10
24.2615
 20
-39.0144
 30
0.000000
  70
    32
  0
VERTEX
  8
241
  5
1AAE
 10
24.2739
 20
-39.0447
 30
0.000000
  70
    32
  0
VERTEX
  8
241
  5
1AAF
 10
24.2863
 20
-39.0749
 30
0.000000
  70
    32
  0
VERTEX
  8
241
  5
1AB0
 10
24.2988
 20
-39.1051
 30
0.000000
  70
    32
  0
VERTEX
  8
241
  5
1AB1
 10
24.3112
 20
-39.1352
 30
0.000000
  70
    32
  0
VERTEX
  8
241
  5
1AB2
 10
24.3238
 20
-39.1653
 30
0.000000
  70
    32
  0
VERTEX
  8
241
  5
1AB3
 10
24.3363
 20
-39.1953
 30
0.000000
  70
    32
  0
VERTEX
  8
241
  5
1AB4
 10
24.3489
 20
-39.2253
 30
0.000000
  70
    32
  0
VERTEX
  8
241
  5
1AB5
 10
24.3615
 20
-39.2553
 30
0.000000
  70
    32
  0
VERTEX
  8
241
  5
1AB6
 10
24.3741
 20
-39.2852
 30
0.000000
  70
    32
  0
VERTEX
  8
241
  5
1AB7
 10
24.3868
 20
-39.3150
 30
0.000000
  70
    32
  0
VERTEX
  8
241
  5
1AB8
 10
24.3995
 20
-39.3448
 30
0.000000
  70
    32
  0
VERTEX
  8
241
  5
1AB9
 10
24.4122
 20
-39.3746
 30
0.000000
  70
    32
  0
VERTEX
  8
241
  5
1ABA
 10
24.4250
 20
-39.4043
 30
0.000000
  70
    32
  0
VERTEX
  8
241
  5
1ABB
 10
24.4378
 20
-39.4340
 30
0.000000
  70
    32
  0
VERTEX
  8
241
  5
1ABC
 10
24.4506
 20
-39.4636
 30
0.000000
  70
    32
  0
VERTEX
  8
241
  5
1ABD
 10
24.4634
 20
-39.4932
 30
0.000000
  70
    32
  0
VERTEX
  8
241
  5
1ABE
 10
24.4763
 20
-39.5227
 30
0.000000
  70
    32
  0
VERTEX
  8
241
  5
1ABF
 10
24.4892
 20
-39.5522
 30
0.000000
  70
    32
  0
VERTEX
  8
241
  5
1AC0
 10
24.5022
 20
-39.5816
 30
0.000000
  70
    32
  0
VERTEX
  8
241
  5
1AC1
 10
24.5151
 20
-39.6110
 30
0.000000
  70
    32
  0
VERTEX
  8
241
  5
1AC2
 10
24.5281
 20
-39.6404
 30
0.000000
  70
    32
  0
VERTEX
  8
241
  5
1AC3
 10
24.5411
 20
-39.6697
 30
0.000000
  70
    32
  0
VERTEX
  8
241
  5
1AC4
 10
24.5542
 20
-39.6989
 30
0.000000
  70
    32
  0
VERTEX
  8
241
  5
1AC5
 10
24.5673
 20
-39.7281
 30
0.000000
  70
    32
  0
VERTEX
  8
241
  5
1AC6
 10
24.5804
 20
-39.7573
 30
0.000000
  70
    32
  0
VERTEX
  8
241
  5
1AC7
 10
24.5935
 20
-39.7864
 30
0.000000
  70
    32
  0
VERTEX
  8
241
  5
1AC8
 10
24.6067
 20
-39.8155
 30
0.000000
  70
    32
  0
VERTEX
  8
241
  5
1AC9
 10
24.6199
 20
-39.8445
 30
0.000000
  70
    32
  0
VERTEX
  8
241
  5
1ACA
 10
24.6331
 20
-39.8735
 30
0.000000
  70
    32
  0
VERTEX
  8
241
  5
1ACB
 10
24.6464
 20
-39.9024
 30
0.000000
  70
    32
  0
VERTEX
  8
241
  5
1ACC
 10
24.6596
 20
-39.9313
 30
0.000000
  70
    32
  0
VERTEX
  8
241
  5
1ACD
 10
24.6730
 20
-39.9601
 30
0.000000
  70
    32
  0
VERTEX
  8
241
  5
1ACE
 10
24.6863
 20
-39.9889
 30
0.000000
  70
    32
  0
VERTEX
  8
241
  5
1ACF
 10
24.6997
 20
-40.0176
 30
0.000000
  70
    32
  0
VERTEX
  8
241
  5
1AD0
 10
24.7131
 20
-40.0463
 30
0.000000
  70
    32
  0
VERTEX
  8
241
  5
1AD1
 10
24.7265
 20
-40.0750
 30
0.000000
  70
    32
  0
VERTEX
  8
241
  5
1AD2
 10
24.7400
 20
-40.1036
 30
0.000000
  70
    32
  0
VERTEX
  8
241
  5
1AD3
 10
24.7535
 20
-40.1321
 30
0.000000
  70
    32
  0
VERTEX
  8
241
  5
1AD4
 10
24.7670
 20
-40.1606
 30
0.000000
  70
    32
  0
VERTEX
  8
241
  5
1AD5
 10
24.7805
 20
-40.1891
 30
0.000000
  70
    32
  0
VERTEX
  8
241
  5
1AD6
 10
24.7941
 20
-40.2175
 30
0.000000
  70
    32
  0
VERTEX
  8
241
  5
1AD7
 10
24.8077
 20
-40.2458
 30
0.000000
  70
    32
  0
VERTEX
  8
241
  5
1AD8
 10
24.8213
 20
-40.2742
 30
0.000000
  70
    32
  0
VERTEX
  8
241
  5
1AD9
 10
24.8350
 20
-40.3024
 30
0.000000
  70
    32
  0
VERTEX
  8
241
  5
1ADA
 10
24.8487
 20
-40.3306
 30
0.000000
  70
    32
  0
VERTEX
  8
241
  5
1ADB
 10
24.8624
 20
-40.3588
 30
0.000000
  70
    32
  0
VERTEX
  8
241
  5
1ADC
 10
24.8762
 20
-40.3869
 30
0.000000
  70
    32
  0
VERTEX
  8
241
  5
1ADD
 10
24.8899
 20
-40.4150
 30
0.000000
  70
    32
  0
VERTEX
  8
241
  5
1ADE
 10
24.9037
 20
-40.4430
 30
0.000000
  70
    32
  0
VERTEX
  8
241
  5
1ADF
 10
24.9176
 20
-40.4710
 30
0.000000
  70
    32
  0
VERTEX
  8
241
  5
1AE0
 10
24.9314
 20
-40.4990
 30
0.000000
  70
    32
  0
VERTEX
  8
241
  5
1AE1
 10
24.9453
 20
-40.5269
 30
0.000000
  70
    32
  0
VERTEX
  8
241
  5
1AE2
 10
24.9593
 20
-40.5547
 30
0.000000
  70
    32
  0
VERTEX
  8
241
  5
1AE3
 10
24.9732
 20
-40.5825
 30
0.000000
  70
    32
  0
VERTEX
  8
241
  5
1AE4
 10
24.9872
 20
-40.6102
 30
0.000000
  70
    32
  0
VERTEX
  8
241
  5
1AE5
 10
25.0012
 20
-40.6379
 30
0.000000
  70
    32
  0
VERTEX
  8
241
  5
1AE6
 10
25.0152
 20
-40.6656
 30
0.000000
  70
    32
  0
VERTEX
  8
241
  5
1AE7
 10
25.0293
 20
-40.6932
 30
0.000000
  70
    32
  0
VERTEX
  8
241
  5
1AE8
 10
25.0434
 20
-40.7207
 30
0.000000
  70
    32
  0
VERTEX
  8
241
  5
1AE9
 10
25.0575
 20
-40.7482
 30
0.000000
  70
    32
  0
VERTEX
  8
241
  5
1AEA
 10
25.0717
 20
-40.7757
 30
0.000000
  70
    32
  0
VERTEX
  8
241
  5
1AEB
 10
25.0859
 20
-40.8031
 30
0.000000
  70
    32
  0
VERTEX
  8
241
  5
1AEC
 10
25.1001
 20
-40.8305
 30
0.000000
  70
    32
  0
VERTEX
  8
241
  5
1AED
 10
25.1143
 20
-40.8578
 30
0.000000
  70
    32
  0
VERTEX
  8
241
  5
1AEE
 10
25.1286
 20
-40.8851
 30
0.000000
  70
    32
  0
VERTEX
  8
241
  5
1AEF
 10
25.1429
 20
-40.9123
 30
0.000000
  70
    32
  0
VERTEX
  8
241
  5
1AF0
 10
25.1572
 20
-40.9394
 30
0.000000
  70
    32
  0
VERTEX
  8
241
  5
1AF1
 10
25.1715
 20
-40.9666
 30
0.000000
  70
    32
  0
VERTEX
  8
241
  5
1AF2
 10
25.1859
 20
-40.9936
 30
0.000000
  70
    32
  0
VERTEX
  8
241
  5
1AF3
 10
25.2003
 20
-41.0207
 30
0.000000
  70
    32
  0
VERTEX
  8
241
  5
1AF4
 10
25.2148
 20
-41.0476
 30
0.000000
  70
    32
  0
VERTEX
  8
241
  5
1AF5
 10
25.2292
 20
-41.0746
 30
0.000000
  70
    32
  0
VERTEX
  8
241
  5
1AF6
 10
25.2437
 20
-41.1015
 30
0.000000
  70
    32
  0
VERTEX
  8
241
  5
1AF7
 10
25.2583
 20
-41.1283
 30
0.000000
  70
    32
  0
VERTEX
  8
241
  5
1AF8
 10
25.2728
 20
-41.1551
 30
0.000000
  70
    32
  0
VERTEX
  8
241
  5
1AF9
 10
25.2874
 20
-41.1818
 30
0.000000
  70
    32
  0
VERTEX
  8
241
  5
1AFA
 10
25.3020
 20
-41.2085
 30
0.000000
  70
    32
  0
VERTEX
  8
241
  5
1AFB
 10
25.3166
 20
-41.2351
 30
0.000000
  70
    32
  0
VERTEX
  8
241
  5
1AFC
 10
25.3313
 20
-41.2617
 30
0.000000
  70
    32
  0
VERTEX
  8
241
  5
1AFD
 10
25.3460
 20
-41.2883
 30
0.000000
  70
    32
  0
VERTEX
  8
241
  5
1AFE
 10
25.3607
 20
-41.3148
 30
0.000000
  70
    32
  0
VERTEX
  8
241
  5
1AFF
 10
25.3755
 20
-41.3412
 30
0.000000
  70
    32
  0
VERTEX
  8
241
  5
1B00
 10
25.3902
 20
-41.3676
 30
0.000000
  70
    32
  0
VERTEX
  8
241
  5
1B01
 10
25.4051
 20
-41.3940
 30
0.000000
  70
    32
  0
VERTEX
  8
241
  5
1B02
 10
25.4199
 20
-41.4203
 30
0.000000
  70
    32
  0
VERTEX
  8
241
  5
1B03
 10
25.4348
 20
-41.4465
 30
0.000000
  70
    32
  0
VERTEX
  8
241
  5
1B04
 10
25.4496
 20
-41.4727
 30
0.000000
  70
    32
  0
VERTEX
  8
241
  5
1B05
 10
25.4646
 20
-41.4989
 30
0.000000
  70
    32
  0
VERTEX
  8
241
  5
1B06
 10
25.4795
 20
-41.5250
 30
0.000000
  70
    32
  0
VERTEX
  8
241
  5
1B07
 10
25.4945
 20
-41.5511
 30
0.000000
  70
    32
  0
VERTEX
  8
241
  5
1B08
 10
25.5095
 20
-41.5771
 30
0.000000
  70
    32
  0
VERTEX
  8
241
  5
1B09
 10
25.5245
 20
-41.6030
 30
0.000000
  70
    32
  0
SEQEND
  8
241
  5
1B0A
  0
ARC
  5
1509
  8
240
  6
CONTINUOUS
 10
17.07106781186658
 20
-42.999999999999893
 30
0.0
 40
5.0000000000000204
 50
225.00000000000921
 51
270.0
  0
LINE
  5
150A
  8
241
  6
CONTINUOUS
 10
17.07106781186658
 20
0.0000000000001137
 30
0.0
 11
17.07106781186658
 21
-47.999999999999893
 31
0.0
  0
LINE
  5
150B
  8
240
  6
CONTINUOUS
 10
17.07106781186658
 20
-47.999999999999893
 30
0.0
 11
30.4274498904417
 21
-47.999999999999893
 31
0.0
  0
LINE
  5
1513
  8
241
  6
CONTINUOUS
 10
51.763000000001199
 20
-10.564331200464061
 30
0.0
 11
38.781670333894262
 21
-22.51994337859594
 31
0.0
  0
LINE
  5
1515
  8
241
  6
CONTINUOUS
 10
35.266401883246338
 20
-23.56568517945129
 30
0.0
 11
26.790079018567472
 21
-23.56568517945129
 31
0.0
  0
POLYLINE
  5
1517
  8
241
  6
CONTINUOUS
 66
     1
 10
0.0
 20
0.0
 30
0.0
 70
   128
  0
VERTEX
  5
1A6A
  8
241
  6
CONTINUOUS
 10
22.784772545071551
 20
-26.96720179730573
 30
0.0
  0
VERTEX
  5
1A6B
  8
241
  6
CONTINUOUS
 10
22.862281810960351
 20
-31.13429721041053
 30
0.0
  0
VERTEX
  5
1A6C
  8
241
  6
CONTINUOUS
 10
22.96984049566689
 20
-33.106234257079002
 30
0.0
  0
VERTEX
  5
1A6D
  8
241
  6
CONTINUOUS
 10
23.16480717101129
 20
-34.97337852935312
 30
0.0
  0
VERTEX
  5
1A6E
  8
241
  6
CONTINUOUS
 10
23.43238548799334
 20
-36.476487740265043
 30
0.0
  0
VERTEX
  5
1A6F
  8
241
  6
CONTINUOUS
 10
23.834795230041689
 20
-37.894508122252319
 30
0.0
  0
SEQEND
  5
1A70
  8
241
  6
CONTINUOUS
  0
LINE
  5
1518
  8
240
  6
CONTINUOUS
 10
11.464466094068399
 20
-44.46446609406712
 30
0.0
 11
13.53553390593393
 21
-46.535533905932652
 31
0.0
  0
ARC
  5
1519
  8
240
  6
CONTINUOUS
 10
15.00000000000105
 20
-40.928932188134347
 30
0.0
 40
5.0
 50
180.0
 51
225.00000000000921
  0
ARC
  5
151B
  8
241
  6
CONTINUOUS
 10
26.452021668389111
 20
-27.255307170515039
 30
0.0
 40
3.7026256334707162
 50
85.182132236849796
 51
175.537241279195
  0
LINE
  5
151E
  8
241
  6
CONTINUOUS
 10
26.790079018567472
 20
-23.56568517945129
 30
0.0
 11
26.763000000001089
 21
-23.56568517945129
 31
0.0
  0
ARC
  5
1522
  8
241
  6
CONTINUOUS
 10
35.5015715602634
 20
-17.925038945271449
 30
0.0
 40
5.6455464497385757
 50
267.61260847184201
 51
305.521360557192
  0
LINE
  5
1550
  8
240
  6
CONTINUOUS
 10
10.00000000000105
 20
32.50000000000022
 30
0.0
 11
1.0000000000009941
 21
32.500000000000277
 31
0.0
  0
LINE
  5
1551
  8
240
  6
CONTINUOUS
 10
0.0000000000004681
 20
21.000000000000121
 30
0.0
 11
0.0000000000009948
 21
31.500000000000341
 31
0.0
  0
LINE
  5
1555
  8
241
  6
CONTINUOUS
 10
21.792157474206029
 20
48.000000000000121
 30
0.0
 11
35.266401883246338
 21
24.661924089941522
 31
0.0
  0
LINE
  5
1558
  8
241
  6
CONTINUOUS
 10
51.946258451308971
 20
24.164652898632092
 30
0.0
 11
40.832705378239041
 21
43.413871496848472
 31
0.0
1001
GRPNAME
1000
PASTMD02
  0
LINE
  5
155D
  8
240
  6
CONTINUOUS
 10
51.345605421088948
 20
22.764579696889541
 30
0.0
 11
50.877758570567721
 21
23.626300124052669
 31
0.0
  0
LINE
  5
1563
  8
241
  6
CONTINUOUS
 10
41.57702624501453
 20
20.554379086260269
 30
0.0
 11
51.763000000001199
 21
19.66322185572642
 31
0.0
  0
LINE
  5
1567
  8
241
  6
CONTINUOUS
 10
41.00603505554384
 20
24.489964766533259
 30
0.0
 11
51.570689772395482
 21
23.565717088177461
 31
0.0
1001
GRPNAME
1000
PASTMD01
  0
ARC
  5
1572
  8
241
  6
CONTINUOUS
 10
42.274272186996448
 20
28.523936670994772
 30
0.0
 40
8.0000000000006501
 50
210.0
 51
264.99999999998698
  0
ARC
  5
1574
  8
240
  6
CONTINUOUS
 10
48.763000000001249
 20
21.238097060575399
 30
0.0
 40
3.0
 50
359.99999999999682
 51
30.585764647469858
  0
ARC
  5
1575
  8
241
  6
CONTINUOUS
 10
51.599848289795233
 20
23.964652898632039
 30
0.0
 40
0.4000000000000019
 50
264.99995897869428
 51
30.000000013714949
1001
GRPNAME
1000
PASTMD02
  0
ARC
  5
157B
  8
240
  6
CONTINUOUS
 10
15.00000000000105
 20
40.928932188134688
 30
0.0
 40
5.0
 50
134.99999999999079
 51
180.0
  0
LINE
  5
157F
  8
240
  6
CONTINUOUS
 10
13.535533905933899
 20
46.535533905932851
 30
0.0
 11
11.464466094068399
 21
44.46446609406734
 31
0.0
  0
LINE
  5
1582
  8
241
  6
CONTINUOUS
 10
30.075781541840879
 20
44.569008056045497
 30
0.0
 11
40.447957808649797
 21
43.661536282565272
 31
0.0
1001
GRPNAME
1000
PASTMD01
  0
LINE
  5
1583
  8
241
  6
CONTINUOUS
 10
40.616597572453998
 20
24.738063644092701
 30
0.0
 11
29.599189565453091
 21
43.820913045064572
 31
0.0
1001
GRPNAME
1000
PASTMD01
  0
ARC
  5
1588
  8
241
  6
CONTINUOUS
 10
30.032200759805189
 20
44.070905945311317
 30
0.0
 40
0.4999999899041817
 50
85.000001132479227
 51
209.99999517889461
1001
GRPNAME
1000
PASTMD01
  0
ARC
  5
1592
  8
241
  6
CONTINUOUS
 10
40.399692822627259
 20
43.16387124348352
 30
0.0
 40
0.4999999999999892
 50
30.000033524987028
 51
84.999999841882527
1001
GRPNAME
1000
00000003
  0
LINE
  5
1593
  8
240
  6
CONTINUOUS
 10
0.0000000000004681
 20
21.000000000000121
 30
0.0
 11
-77.866025403784505
 21
21.000000000000121
 31
0.0
  0
ARC
  5
1598
  8
240
  6
CONTINUOUS
 10
-77.866025403784505
 20
20.50000000000011
 30
0.0
 40
0.5
 50
90.0
 51
120.0000000000005
  0
LINE
  5
1599
  8
240
  6
CONTINUOUS
 10
-79.749999999999972
 20
19.98963702891831
 30
0.0
 11
-78.116025403784505
 21
20.93301270189227
 31
0.0
  0
ARC
  5
159A
  8
240
  6
CONTINUOUS
 10
-79.499999999999972
 20
19.556624327026039
 30
0.0
 40
0.4999999999999919
 50
120.0000000000005
 51
180.00000000000321
  0
LINE
  5
159B
  8
240
  6
CONTINUOUS
 10
-79.999999999999972
 20
19.556624327026039
 30
0.0
 11
-79.999999999999972
 21
-19.556624327025901
 31
0.0
  0
ARC
  5
159C
  8
240
  6
CONTINUOUS
 10
-79.499999999999972
 20
-19.556624327025901
 30
0.0
 40
0.5
 50
179.9999999999967
 51
239.99999999999949
  0
LINE
  5
159D
  8
240
  6
CONTINUOUS
 10
-79.749999999999972
 20
-19.989637028918111
 30
0.0
 11
-78.116025403784505
 21
-20.933012701892132
 31
0.0
  0
ARC
  5
159E
  8
240
  6
CONTINUOUS
 10
-77.866025403784505
 20
-20.499999999999911
 30
0.0
 40
0.4999999999999919
 50
239.99999999999949
 51
270.0
  0
LINE
  5
159F
  8
240
  6
CONTINUOUS
 10
0.000000000000739
 20
-20.999999999999918
 30
0.0
 11
-77.866025403784505
 21
-20.999999999999918
 31
0.0
  0
LINE
  5
15A0
  8
241
  6
CONTINUOUS
 10
-78.000000000000085
 20
20.98171652200125
 30
0.0
 11
-77.999999999999972
 21
-20.999999999999918
 31
0.0
  0
ARC
  5
15AE
  8
240
  6
CONTINUOUS
 10
1.0000000000009941
 20
31.500000000000291
 30
0.0
 40
1.0
 50
90.0
 51
179.9999999999967
  0
ARC
  5
15AF
  8
240
  6
CONTINUOUS
 10
1.000000000001108
 20
-31.499999999999861
 30
0.0
 40
1.0
 50
180.00000000000321
 51
270.0
  0
POLYLINE
  5
15C2
  8
241
  6
CONTINUOUS
 10
25.524533267995253
 20
-41.603020614772262
 30
0.0
 66
     1
 70
     8
  0
VERTEX
  8
241
  5
1B0B
 10
25.5245
 20
-41.6030
 30
0.000000
  70
    32
  0
VERTEX
  8
241
  5
1B0C
 10
25.5348
 20
-41.7003
 30
0.000000
  70
    32
  0
VERTEX
  8
241
  5
1B0D
 10
25.5455
 20
-41.7970
 30
0.000000
  70
    32
  0
VERTEX
  8
241
  5
1B0E
 10
25.5566
 20
-41.8929
 30
0.000000
  70
    32
  0
VERTEX
  8
241
  5
1B0F
 10
25.5683
 20
-41.9881
 30
0.000000
  70
    32
  0
VERTEX
  8
241
  5
1B10
 10
25.5803
 20
-42.0827
 30
0.000000
  70
    32
  0
VERTEX
  8
241
  5
1B11
 10
25.5929
 20
-42.1765
 30
0.000000
  70
    32
  0
VERTEX
  8
241
  5
1B12
 10
25.6059
 20
-42.2697
 30
0.000000
  70
    32
  0
VERTEX
  8
241
  5
1B13
 10
25.6193
 20
-42.3621
 30
0.000000
  70
    32
  0
VERTEX
  8
241
  5
1B14
 10
25.6332
 20
-42.4538
 30
0.000000
  70
    32
  0
VERTEX
  8
241
  5
1B15
 10
25.6476
 20
-42.5448
 30
0.000000
  70
    32
  0
VERTEX
  8
241
  5
1B16
 10
25.6624
 20
-42.6352
 30
0.000000
  70
    32
  0
VERTEX
  8
241
  5
1B17
 10
25.6777
 20
-42.7248
 30
0.000000
  70
    32
  0
VERTEX
  8
241
  5
1B18
 10
25.6934
 20
-42.8137
 30
0.000000
  70
    32
  0
VERTEX
  8
241
  5
1B19
 10
25.7096
 20
-42.9018
 30
0.000000
  70
    32
  0
VERTEX
  8
241
  5
1B1A
 10
25.7263
 20
-42.9893
 30
0.000000
  70
    32
  0
VERTEX
  8
241
  5
1B1B
 10
25.7434
 20
-43.0761
 30
0.000000
  70
    32
  0
VERTEX
  8
241
  5
1B1C
 10
25.7610
 20
-43.1621
 30
0.000000
  70
    32
  0
VERTEX
  8
241
  5
1B1D
 10
25.7790
 20
-43.2474
 30
0.000000
  70
    32
  0
VERTEX
  8
241
  5
1B1E
 10
25.7975
 20
-43.3320
 30
0.000000
  70
    32
  0
VERTEX
  8
241
  5
1B1F
 10
25.8164
 20
-43.4159
 30
0.000000
  70
    32
  0
VERTEX
  8
241
  5
1B20
 10
25.8358
 20
-43.4990
 30
0.000000
  70
    32
  0
VERTEX
  8
241
  5
1B21
 10
25.8556
 20
-43.5815
 30
0.000000
  70
    32
  0
VERTEX
  8
241
  5
1B22
 10
25.8759
 20
-43.6632
 30
0.000000
  70
    32
  0
VERTEX
  8
241
  5
1B23
 10
25.8967
 20
-43.7441
 30
0.000000
  70
    32
  0
VERTEX
  8
241
  5
1B24
 10
25.9179
 20
-43.8244
 30
0.000000
  70
    32
  0
VERTEX
  8
241
  5
1B25
 10
25.9395
 20
-43.9039
 30
0.000000
  70
    32
  0
VERTEX
  8
241
  5
1B26
 10
25.9616
 20
-43.9827
 30
0.000000
  70
    32
  0
VERTEX
  8
241
  5
1B27
 10
25.9842
 20
-44.0607
 30
0.000000
  70
    32
  0
VERTEX
  8
241
  5
1B28
 10
26.0072
 20
-44.1381
 30
0.000000
  70
    32
  0
VERTEX
  8
241
  5
1B29
 10
26.0306
 20
-44.2147
 30
0.000000
  70
    32
  0
VERTEX
  8
241
  5
1B2A
 10
26.0545
 20
-44.2905
 30
0.000000
  70
    32
  0
VERTEX
  8
241
  5
1B2B
 10
26.0789
 20
-44.3656
 30
0.000000
  70
    32
  0
VERTEX
  8
241
  5
1B2C
 10
26.1037
 20
-44.4400
 30
0.000000
  70
    32
  0
VERTEX
  8
241
  5
1B2D
 10
26.1290
 20
-44.5136
 30
0.000000
  70
    32
  0
VERTEX
  8
241
  5
1B2E
 10
26.1547
 20
-44.5865
 30
0.000000
  70
    32
  0
VERTEX
  8
241
  5
1B2F
 10
26.1809
 20
-44.6587
 30
0.000000
  70
    32
  0
VERTEX
  8
241
  5
1B30
 10
26.2075
 20
-44.7301
 30
0.000000
  70
    32
  0
VERTEX
  8
241
  5
1B31
 10
26.2345
 20
-44.8008
 30
0.000000
  70
    32
  0
VERTEX
  8
241
  5
1B32
 10
26.2620
 20
-44.8707
 30
0.000000
  70
    32
  0
VERTEX
  8
241
  5
1B33
 10
26.2900
 20
-44.9399
 30
0.000000
  70
    32
  0
VERTEX
  8
241
  5
1B34
 10
26.3184
 20
-45.0083
 30
0.000000
  70
    32
  0
VERTEX
  8
241
  5
1B35
 10
26.3472
 20
-45.0760
 30
0.000000
  70
    32
  0
VERTEX
  8
241
  5
1B36
 10
26.3765
 20
-45.1429
 30
0.000000
  70
    32
  0
VERTEX
  8
241
  5
1B37
 10
26.4062
 20
-45.2091
 30
0.000000
  70
    32
  0
VERTEX
  8
241
  5
1B38
 10
26.4364
 20
-45.2745
 30
0.000000
  70
    32
  0
VERTEX
  8
241
  5
1B39
 10
26.4670
 20
-45.3392
 30
0.000000
  70
    32
  0
VERTEX
  8
241
  5
1B3A
 10
26.4981
 20
-45.4031
 30
0.000000
  70
    32
  0
VERTEX
  8
241
  5
1B3B
 10
26.5296
 20
-45.4662
 30
0.000000
  70
    32
  0
VERTEX
  8
241
  5
1B3C
 10
26.5616
 20
-45.5286
 30
0.000000
  70
    32
  0
VERTEX
  8
241
  5
1B3D
 10
26.5940
 20
-45.5903
 30
0.000000
  70
    32
  0
VERTEX
  8
241
  5
1B3E
 10
26.6268
 20
-45.6512
 30
0.000000
  70
    32
  0
VERTEX
  8
241
  5
1B3F
 10
26.6601
 20
-45.7113
 30
0.000000
  70
    32
  0
VERTEX
  8
241
  5
1B40
 10
26.6938
 20
-45.7707
 30
0.000000
  70
    32
  0
VERTEX
  8
241
  5
1B41
 10
26.7280
 20
-45.8293
 30
0.000000
  70
    32
  0
VERTEX
  8
241
  5
1B42
 10
26.7626
 20
-45.8871
 30
0.000000
  70
    32
  0
VERTEX
  8
241
  5
1B43
 10
26.7976
 20
-45.9442
 30
0.000000
  70
    32
  0
VERTEX
  8
241
  5
1B44
 10
26.8331
 20
-46.0005
 30
0.000000
  70
    32
  0
VERTEX
  8
241
  5
1B45
 10
26.8690
 20
-46.0560
 30
0.000000
  70
    32
  0
VERTEX
  8
241
  5
1B46
 10
26.9053
 20
-46.1108
 30
0.000000
  70
    32
  0
VERTEX
  8
241
  5
1B47
 10
26.9421
 20
-46.1648
 30
0.000000
  70
    32
  0
VERTEX
  8
241
  5
1B48
 10
26.9793
 20
-46.2181
 30
0.000000
  70
    32
  0
VERTEX
  8
241
  5
1B49
 10
27.0170
 20
-46.2705
 30
0.000000
  70
    32
  0
VERTEX
  8
241
  5
1B4A
 10
27.0551
 20
-46.3223
 30
0.000000
  70
    32
  0
VERTEX
  8
241
  5
1B4B
 10
27.0936
 20
-46.3732
 30
0.000000
  70
    32
  0
VERTEX
  8
241
  5
1B4C
 10
27.1326
 20
-46.4233
 30
0.000000
  70
    32
  0
VERTEX
  8
241
  5
1B4D
 10
27.1720
 20
-46.4727
 30
0.000000
  70
    32
  0
VERTEX
  8
241
  5
1B4E
 10
27.2118
 20
-46.5214
 30
0.000000
  70
    32
  0
VERTEX
  8
241
  5
1B4F
 10
27.2521
 20
-46.5692
 30
0.000000
  70
    32
  0
VERTEX
  8
241
  5
1B50
 10
27.2927
 20
-46.6163
 30
0.000000
  70
    32
  0
VERTEX
  8
241
  5
1B51
 10
27.3339
 20
-46.6626
 30
0.000000
  70
    32
  0
VERTEX
  8
241
  5
1B52
 10
27.3754
 20
-46.7081
 30
0.000000
  70
    32
  0
VERTEX
  8
241
  5
1B53
 10
27.4174
 20
-46.7528
 30
0.000000
  70
    32
  0
VERTEX
  8
241
  5
1B54
 10
27.4598
 20
-46.7968
 30
0.000000
  70
    32
  0
VERTEX
  8
241
  5
1B55
 10
27.5026
 20
-46.8400
 30
0.000000
  70
    32
  0
VERTEX
  8
241
  5
1B56
 10
27.5459
 20
-46.8824
 30
0.000000
  70
    32
  0
VERTEX
  8
241
  5
1B57
 10
27.5895
 20
-46.9240
 30
0.000000
  70
    32
  0
VERTEX
  8
241
  5
1B58
 10
27.6336
 20
-46.9648
 30
0.000000
  70
    32
  0
VERTEX
  8
241
  5
1B59
 10
27.6782
 20
-47.0049
 30
0.000000
  70
    32
  0
VERTEX
  8
241
  5
1B5A
 10
27.7231
 20
-47.0441
 30
0.000000
  70
    32
  0
VERTEX
  8
241
  5
1B5B
 10
27.7685
 20
-47.0826
 30
0.000000
  70
    32
  0
VERTEX
  8
241
  5
1B5C
 10
27.8143
 20
-47.1203
 30
0.000000
  70
    32
  0
VERTEX
  8
241
  5
1B5D
 10
27.8605
 20
-47.1573
 30
0.000000
  70
    32
  0
VERTEX
  8
241
  5
1B5E
 10
27.9072
 20
-47.1934
 30
0.000000
  70
    32
  0
VERTEX
  8
241
  5
1B5F
 10
27.9542
 20
-47.2288
 30
0.000000
  70
    32
  0
VERTEX
  8
241
  5
1B60
 10
28.0017
 20
-47.2633
 30
0.000000
  70
    32
  0
VERTEX
  8
241
  5
1B61
 10
28.0496
 20
-47.2971
 30
0.000000
  70
    32
  0
VERTEX
  8
241
  5
1B62
 10
28.0979
 20
-47.3301
 30
0.000000
  70
    32
  0
VERTEX
  8
241
  5
1B63
 10
28.1467
 20
-47.3623
 30
0.000000
  70
    32
  0
VERTEX
  8
241
  5
1B64
 10
28.1958
 20
-47.3937
 30
0.000000
  70
    32
  0
VERTEX
  8
241
  5
1B65
 10
28.2454
 20
-47.4244
 30
0.000000
  70
    32
  0
VERTEX
  8
241
  5
1B66
 10
28.2953
 20
-47.4542
 30
0.000000
  70
    32
  0
VERTEX
  8
241
  5
1B67
 10
28.3457
 20
-47.4833
 30
0.000000
  70
    32
  0
VERTEX
  8
241
  5
1B68
 10
28.3965
 20
-47.5115
 30
0.000000
  70
    32
  0
VERTEX
  8
241
  5
1B69
 10
28.4477
 20
-47.5390
 30
0.000000
  70
    32
  0
VERTEX
  8
241
  5
1B6A
 10
28.4994
 20
-47.5657
 30
0.000000
  70
    32
  0
VERTEX
  8
241
  5
1B6B
 10
28.5514
 20
-47.5916
 30
0.000000
  70
    32
  0
VERTEX
  8
241
  5
1B6C
 10
28.6038
 20
-47.6167
 30
0.000000
  70
    32
  0
VERTEX
  8
241
  5
1B6D
 10
28.6567
 20
-47.6410
 30
0.000000
  70
    32
  0
VERTEX
  8
241
  5
1B6E
 10
28.7100
 20
-47.6645
 30
0.000000
  70
    32
  0
VERTEX
  8
241
  5
1B6F
 10
28.7636
 20
-47.6872
 30
0.000000
  70
    32
  0
VERTEX
  8
241
  5
1B70
 10
28.8177
 20
-47.7091
 30
0.000000
  70
    32
  0
VERTEX
  8
241
  5
1B71
 10
28.8722
 20
-47.7302
 30
0.000000
  70
    32
  0
VERTEX
  8
241
  5
1B72
 10
28.9271
 20
-47.7506
 30
0.000000
  70
    32
  0
VERTEX
  8
241
  5
1B73
 10
28.9823
 20
-47.7701
 30
0.000000
  70
    32
  0
VERTEX
  8
241
  5
1B74
 10
29.0380
 20
-47.7889
 30
0.000000
  70
    32
  0
VERTEX
  8
241
  5
1B75
 10
29.0941
 20
-47.8068
 30
0.000000
  70
    32
  0
VERTEX
  8
241
  5
1B76
 10
29.1506
 20
-47.8240
 30
0.000000
  70
    32
  0
VERTEX
  8
241
  5
1B77
 10
29.2075
 20
-47.8403
 30
0.000000
  70
    32
  0
VERTEX
  8
241
  5
1B78
 10
29.2648
 20
-47.8559
 30
0.000000
  70
    32
  0
VERTEX
  8
241
  5
1B79
 10
29.3224
 20
-47.8706
 30
0.000000
  70
    32
  0
VERTEX
  8
241
  5
1B7A
 10
29.3805
 20
-47.8846
 30
0.000000
  70
    32
  0
VERTEX
  8
241
  5
1B7B
 10
29.4390
 20
-47.8978
 30
0.000000
  70
    32
  0
VERTEX
  8
241
  5
1B7C
 10
29.4978
 20
-47.9102
 30
0.000000
  70
    32
  0
VERTEX
  8
241
  5
1B7D
 10
29.5571
 20
-47.9217
 30
0.000000
  70
    32
  0
VERTEX
  8
241
  5
1B7E
 10
29.6168
 20
-47.9325
 30
0.000000
  70
    32
  0
VERTEX
  8
241
  5
1B7F
 10
29.6768
 20
-47.9425
 30
0.000000
  70
    32
  0
VERTEX
  8
241
  5
1B80
 10
29.7372
 20
-47.9517
 30
0.000000
  70
    32
  0
VERTEX
  8
241
  5
1B81
 10
29.7980
 20
-47.9601
 30
0.000000
  70
    32
  0
VERTEX
  8
241
  5
1B82
 10
29.8593
 20
-47.9676
 30
0.000000
  70
    32
  0
VERTEX
  8
241
  5
1B83
 10
29.9209
 20
-47.9744
 30
0.000000
  70
    32
  0
VERTEX
  8
241
  5
1B84
 10
29.9828
 20
-47.9804
 30
0.000000
  70
    32
  0
VERTEX
  8
241
  5
1B85
 10
30.0452
 20
-47.9856
 30
0.000000
  70
    32
  0
VERTEX
  8
241
  5
1B86
 10
30.1080
 20
-47.9900
 30
0.000000
  70
    32
  0
VERTEX
  8
241
  5
1B87
 10
30.1711
 20
-47.9936
 30
0.000000
  70
    32
  0
VERTEX
  8
241
  5
1B88
 10
30.2346
 20
-47.9964
 30
0.000000
  70
    32
  0
VERTEX
  8
241
  5
1B89
 10
30.2985
 20
-47.9984
 30
0.000000
  70
    32
  0
VERTEX
  8
241
  5
1B8A
 10
30.3628
 20
-47.9996
 30
0.000000
  70
    32
  0
VERTEX
  8
241
  5
1B8B
 10
30.4274
 20
-48.0000
 30
0.000000
  70
    32
  0
SEQEND
  8
241
  5
1B8C
  0
POLYLINE
  5
15C3
  8
240
  6
CONTINUOUS
 10
30.427449890441704
 20
-47.999999999999886
 30
0.0
 66
     1
 70
     8
  0
VERTEX
  8
240
  5
1B8D
 10
30.4274
 20
-48.0000
 30
0.000000
  70
    32
  0
VERTEX
  8
240
  5
1B8E
 10
30.4731
 20
-47.9998
 30
0.000000
  70
    32
  0
VERTEX
  8
240
  5
1B8F
 10
30.5190
 20
-47.9992
 30
0.000000
  70
    32
  0
VERTEX
  8
240
  5
1B90
 10
30.5651
 20
-47.9982
 30
0.000000
  70
    32
  0
VERTEX
  8
240
  5
1B91
 10
30.6113
 20
-47.9968
 30
0.000000
  70
    32
  0
VERTEX
  8
240
  5
1B92
 10
30.6577
 20
-47.9951
 30
0.000000
  70
    32
  0
VERTEX
  8
240
  5
1B93
 10
30.7044
 20
-47.9929
 30
0.000000
  70
    32
  0
VERTEX
  8
240
  5
1B94
 10
30.7512
 20
-47.9903
 30
0.000000
  70
    32
  0
VERTEX
  8
240
  5
1B95
 10
30.7981
 20
-47.9874
 30
0.000000
  70
    32
  0
VERTEX
  8
240
  5
1B96
 10
30.8453
 20
-47.9840
 30
0.000000
  70
    32
  0
VERTEX
  8
240
  5
1B97
 10
30.8927
 20
-47.9803
 30
0.000000
  70
    32
  0
VERTEX
  8
240
  5
1B98
 10
30.9402
 20
-47.9761
 30
0.000000
  70
    32
  0
VERTEX
  8
240
  5
1B99
 10
30.9879
 20
-47.9716
 30
0.000000
  70
    32
  0
VERTEX
  8
240
  5
1B9A
 10
31.0358
 20
-47.9666
 30
0.000000
  70
    32
  0
VERTEX
  8
240
  5
1B9B
 10
31.0839
 20
-47.9613
 30
0.000000
  70
    32
  0
VERTEX
  8
240
  5
1B9C
 10
31.1322
 20
-47.9556
 30
0.000000
  70
    32
  0
VERTEX
  8
240
  5
1B9D
 10
31.1806
 20
-47.9495
 30
0.000000
  70
    32
  0
VERTEX
  8
240
  5
1B9E
 10
31.2292
 20
-47.9429
 30
0.000000
  70
    32
  0
VERTEX
  8
240
  5
1B9F
 10
31.2780
 20
-47.9360
 30
0.000000
  70
    32
  0
VERTEX
  8
240
  5
1BA0
 10
31.3270
 20
-47.9287
 30
0.000000
  70
    32
  0
VERTEX
  8
240
  5
1BA1
 10
31.3762
 20
-47.9210
 30
0.000000
  70
    32
  0
VERTEX
  8
240
  5
1BA2
 10
31.4255
 20
-47.9129
 30
0.000000
  70
    32
  0
VERTEX
  8
240
  5
1BA3
 10
31.4750
 20
-47.9045
 30
0.000000
  70
    32
  0
VERTEX
  8
240
  5
1BA4
 10
31.5247
 20
-47.8956
 30
0.000000
  70
    32
  0
VERTEX
  8
240
  5
1BA5
 10
31.5746
 20
-47.8863
 30
0.000000
  70
    32
  0
VERTEX
  8
240
  5
1BA6
 10
31.6247
 20
-47.8766
 30
0.000000
  70
    32
  0
VERTEX
  8
240
  5
1BA7
 10
31.6749
 20
-47.8666
 30
0.000000
  70
    32
  0
VERTEX
  8
240
  5
1BA8
 10
31.7253
 20
-47.8561
 30
0.000000
  70
    32
  0
VERTEX
  8
240
  5
1BA9
 10
31.7759
 20
-47.8453
 30
0.000000
  70
    32
  0
VERTEX
  8
240
  5
1BAA
 10
31.8266
 20
-47.8340
 30
0.000000
  70
    32
  0
VERTEX
  8
240
  5
1BAB
 10
31.8776
 20
-47.8224
 30
0.000000
  70
    32
  0
VERTEX
  8
240
  5
1BAC
 10
31.9287
 20
-47.8104
 30
0.000000
  70
    32
  0
VERTEX
  8
240
  5
1BAD
 10
31.9800
 20
-47.7979
 30
0.000000
  70
    32
  0
VERTEX
  8
240
  5
1BAE
 10
32.0314
 20
-47.7851
 30
0.000000
  70
    32
  0
VERTEX
  8
240
  5
1BAF
 10
32.0831
 20
-47.7719
 30
0.000000
  70
    32
  0
VERTEX
  8
240
  5
1BB0
 10
32.1349
 20
-47.7583
 30
0.000000
  70
    32
  0
VERTEX
  8
240
  5
1BB1
 10
32.1868
 20
-47.7443
 30
0.000000
  70
    32
  0
VERTEX
  8
240
  5
1BB2
 10
32.2390
 20
-47.7299
 30
0.000000
  70
    32
  0
VERTEX
  8
240
  5
1BB3
 10
32.2913
 20
-47.7152
 30
0.000000
  70
    32
  0
VERTEX
  8
240
  5
1BB4
 10
32.3438
 20
-47.7000
 30
0.000000
  70
    32
  0
VERTEX
  8
240
  5
1BB5
 10
32.3965
 20
-47.6844
 30
0.000000
  70
    32
  0
VERTEX
  8
240
  5
1BB6
 10
32.4493
 20
-47.6685
 30
0.000000
  70
    32
  0
VERTEX
  8
240
  5
1BB7
 10
32.5023
 20
-47.6521
 30
0.000000
  70
    32
  0
VERTEX
  8
240
  5
1BB8
 10
32.5555
 20
-47.6354
 30
0.000000
  70
    32
  0
VERTEX
  8
240
  5
1BB9
 10
32.6088
 20
-47.6182
 30
0.000000
  70
    32
  0
VERTEX
  8
240
  5
1BBA
 10
32.6623
 20
-47.6007
 30
0.000000
  70
    32
  0
VERTEX
  8
240
  5
1BBB
 10
32.7160
 20
-47.5828
 30
0.000000
  70
    32
  0
VERTEX
  8
240
  5
1BBC
 10
32.7699
 20
-47.5645
 30
0.000000
  70
    32
  0
VERTEX
  8
240
  5
1BBD
 10
32.8239
 20
-47.5458
 30
0.000000
  70
    32
  0
VERTEX
  8
240
  5
1BBE
 10
32.8780
 20
-47.5267
 30
0.000000
  70
    32
  0
VERTEX
  8
240
  5
1BBF
 10
32.9324
 20
-47.5072
 30
0.000000
  70
    32
  0
VERTEX
  8
240
  5
1BC0
 10
32.9869
 20
-47.4873
 30
0.000000
  70
    32
  0
VERTEX
  8
240
  5
1BC1
 10
33.0416
 20
-47.4671
 30
0.000000
  70
    32
  0
VERTEX
  8
240
  5
1BC2
 10
33.0964
 20
-47.4464
 30
0.000000
  70
    32
  0
VERTEX
  8
240
  5
1BC3
 10
33.1515
 20
-47.4254
 30
0.000000
  70
    32
  0
VERTEX
  8
240
  5
1BC4
 10
33.2066
 20
-47.4039
 30
0.000000
  70
    32
  0
VERTEX
  8
240
  5
1BC5
 10
33.2620
 20
-47.3821
 30
0.000000
  70
    32
  0
VERTEX
  8
240
  5
1BC6
 10
33.3175
 20
-47.3599
 30
0.000000
  70
    32
  0
VERTEX
  8
240
  5
1BC7
 10
33.3731
 20
-47.3373
 30
0.000000
  70
    32
  0
VERTEX
  8
240
  5
1BC8
 10
33.4290
 20
-47.3143
 30
0.000000
  70
    32
  0
VERTEX
  8
240
  5
1BC9
 10
33.4850
 20
-47.2909
 30
0.000000
  70
    32
  0
VERTEX
  8
240
  5
1BCA
 10
33.5411
 20
-47.2671
 30
0.000000
  70
    32
  0
VERTEX
  8
240
  5
1BCB
 10
33.5974
 20
-47.2430
 30
0.000000
  70
    32
  0
VERTEX
  8
240
  5
1BCC
 10
33.6539
 20
-47.2184
 30
0.000000
  70
    32
  0
VERTEX
  8
240
  5
1BCD
 10
33.7105
 20
-47.1935
 30
0.000000
  70
    32
  0
VERTEX
  8
240
  5
1BCE
 10
33.7673
 20
-47.1681
 30
0.000000
  70
    32
  0
VERTEX
  8
240
  5
1BCF
 10
33.8243
 20
-47.1424
 30
0.000000
  70
    32
  0
VERTEX
  8
240
  5
1BD0
 10
33.8814
 20
-47.1163
 30
0.000000
  70
    32
  0
VERTEX
  8
240
  5
1BD1
 10
33.9387
 20
-47.0898
 30
0.000000
  70
    32
  0
VERTEX
  8
240
  5
1BD2
 10
33.9961
 20
-47.0630
 30
0.000000
  70
    32
  0
VERTEX
  8
240
  5
1BD3
 10
34.0537
 20
-47.0357
 30
0.000000
  70
    32
  0
VERTEX
  8
240
  5
1BD4
 10
34.1114
 20
-47.0080
 30
0.000000
  70
    32
  0
VERTEX
  8
240
  5
1BD5
 10
34.1693
 20
-46.9800
 30
0.000000
  70
    32
  0
VERTEX
  8
240
  5
1BD6
 10
34.2274
 20
-46.9516
 30
0.000000
  70
    32
  0
VERTEX
  8
240
  5
1BD7
 10
34.2856
 20
-46.9228
 30
0.000000
  70
    32
  0
VERTEX
  8
240
  5
1BD8
 10
34.3439
 20
-46.8936
 30
0.000000
  70
    32
  0
VERTEX
  8
240
  5
1BD9
 10
34.4025
 20
-46.8640
 30
0.000000
  70
    32
  0
VERTEX
  8
240
  5
1BDA
 10
34.4611
 20
-46.8340
 30
0.000000
  70
    32
  0
VERTEX
  8
240
  5
1BDB
 10
34.5200
 20
-46.8037
 30
0.000000
  70
    32
  0
VERTEX
  8
240
  5
1BDC
 10
34.5789
 20
-46.7729
 30
0.000000
  70
    32
  0
VERTEX
  8
240
  5
1BDD
 10
34.6381
 20
-46.7418
 30
0.000000
  70
    32
  0
VERTEX
  8
240
  5
1BDE
 10
34.6974
 20
-46.7103
 30
0.000000
  70
    32
  0
VERTEX
  8
240
  5
1BDF
 10
34.7568
 20
-46.6784
 30
0.000000
  70
    32
  0
VERTEX
  8
240
  5
1BE0
 10
34.8164
 20
-46.6461
 30
0.000000
  70
    32
  0
VERTEX
  8
240
  5
1BE1
 10
34.8761
 20
-46.6135
 30
0.000000
  70
    32
  0
VERTEX
  8
240
  5
1BE2
 10
34.9360
 20
-46.5804
 30
0.000000
  70
    32
  0
VERTEX
  8
240
  5
1BE3
 10
34.9961
 20
-46.5470
 30
0.000000
  70
    32
  0
VERTEX
  8
240
  5
1BE4
 10
35.0562
 20
-46.5132
 30
0.000000
  70
    32
  0
VERTEX
  8
240
  5
1BE5
 10
35.1166
 20
-46.4790
 30
0.000000
  70
    32
  0
VERTEX
  8
240
  5
1BE6
 10
35.1771
 20
-46.4444
 30
0.000000
  70
    32
  0
VERTEX
  8
240
  5
1BE7
 10
35.2377
 20
-46.4094
 30
0.000000
  70
    32
  0
VERTEX
  8
240
  5
1BE8
 10
35.2985
 20
-46.3741
 30
0.000000
  70
    32
  0
VERTEX
  8
240
  5
1BE9
 10
35.3594
 20
-46.3384
 30
0.000000
  70
    32
  0
VERTEX
  8
240
  5
1BEA
 10
35.4205
 20
-46.3023
 30
0.000000
  70
    32
  0
VERTEX
  8
240
  5
1BEB
 10
35.4817
 20
-46.2658
 30
0.000000
  70
    32
  0
VERTEX
  8
240
  5
1BEC
 10
35.5431
 20
-46.2289
 30
0.000000
  70
    32
  0
VERTEX
  8
240
  5
1BED
 10
35.6046
 20
-46.1917
 30
0.000000
  70
    32
  0
VERTEX
  8
240
  5
1BEE
 10
35.6662
 20
-46.1541
 30
0.000000
  70
    32
  0
VERTEX
  8
240
  5
1BEF
 10
35.7280
 20
-46.1160
 30
0.000000
  70
    32
  0
VERTEX
  8
240
  5
1BF0
 10
35.7900
 20
-46.0777
 30
0.000000
  70
    32
  0
VERTEX
  8
240
  5
1BF1
 10
35.8520
 20
-46.0389
 30
0.000000
  70
    32
  0
VERTEX
  8
240
  5
1BF2
 10
35.9143
 20
-45.9998
 30
0.000000
  70
    32
  0
VERTEX
  8
240
  5
1BF3
 10
35.9766
 20
-45.9602
 30
0.000000
  70
    32
  0
VERTEX
  8
240
  5
1BF4
 10
36.0391
 20
-45.9203
 30
0.000000
  70
    32
  0
VERTEX
  8
240
  5
1BF5
 10
36.1018
 20
-45.8801
 30
0.000000
  70
    32
  0
VERTEX
  8
240
  5
1BF6
 10
36.1646
 20
-45.8394
 30
0.000000
  70
    32
  0
VERTEX
  8
240
  5
1BF7
 10
36.2275
 20
-45.7984
 30
0.000000
  70
    32
  0
VERTEX
  8
240
  5
1BF8
 10
36.2906
 20
-45.7570
 30
0.000000
  70
    32
  0
VERTEX
  8
240
  5
1BF9
 10
36.3538
 20
-45.7152
 30
0.000000
  70
    32
  0
VERTEX
  8
240
  5
1BFA
 10
36.4171
 20
-45.6730
 30
0.000000
  70
    32
  0
VERTEX
  8
240
  5
1BFB
 10
36.4806
 20
-45.6305
 30
0.000000
  70
    32
  0
VERTEX
  8
240
  5
1BFC
 10
36.5442
 20
-45.5876
 30
0.000000
  70
    32
  0
VERTEX
  8
240
  5
1BFD
 10
36.6080
 20
-45.5443
 30
0.000000
  70
    32
  0
VERTEX
  8
240
  5
1BFE
 10
36.6719
 20
-45.5006
 30
0.000000
  70
    32
  0
VERTEX
  8
240
  5
1BFF
 10
36.7359
 20
-45.4566
 30
0.000000
  70
    32
  0
VERTEX
  8
240
  5
1C00
 10
36.8000
 20
-45.4122
 30
0.000000
  70
    32
  0
VERTEX
  8
240
  5
1C01
 10
36.8643
 20
-45.3674
 30
0.000000
  70
    32
  0
VERTEX
  8
240
  5
1C02
 10
36.9288
 20
-45.3222
 30
0.000000
  70
    32
  0
VERTEX
  8
240
  5
1C03
 10
36.9933
 20
-45.2767
 30
0.000000
  70
    32
  0
VERTEX
  8
240
  5
1C04
 10
37.0580
 20
-45.2308
 30
0.000000
  70
    32
  0
VERTEX
  8
240
  5
1C05
 10
37.1228
 20
-45.1845
 30
0.000000
  70
    32
  0
VERTEX
  8
240
  5
1C06
 10
37.1878
 20
-45.1379
 30
0.000000
  70
    32
  0
VERTEX
  8
240
  5
1C07
 10
37.2529
 20
-45.0909
 30
0.000000
  70
    32
  0
VERTEX
  8
240
  5
1C08
 10
37.3181
 20
-45.0435
 30
0.000000
  70
    32
  0
VERTEX
  8
240
  5
1C09
 10
37.3835
 20
-44.9957
 30
0.000000
  70
    32
  0
VERTEX
  8
240
  5
1C0A
 10
37.4489
 20
-44.9476
 30
0.000000
  70
    32
  0
VERTEX
  8
240
  5
1C0B
 10
37.5146
 20
-44.8991
 30
0.000000
  70
    32
  0
VERTEX
  8
240
  5
1C0C
 10
37.5803
 20
-44.8502
 30
0.000000
  70
    32
  0
VERTEX
  8
240
  5
1C0D
 10
37.6462
 20
-44.8010
 30
0.000000
  70
    32
  0
SEQEND
  8
240
  5
1C0E
  0
LINE
  5
15C6
  8
240
  6
CONTINUOUS
 10
37.646151809402141
 20
-44.800995356610322
 30
0.0
 11
38.810170571858208
 21
-42.438565230476911
 31
0.0
  0
ARC
  5
15CC
  8
240
  6
CONTINUOUS
 10
69.328690193020321
 20
-58.807672434058532
 30
0.0
 40
34.64086989377099
 50
142.2847738759672
 51
151.8008677353414
  0
ARC
  5
15CD
  8
240
  6
CONTINUOUS
 10
30.103088686193392
 20
-16.076322896313059
 30
0.0
 40
21.909452381429212
 50
327.3385126329419
 51
351.34422513387187
  0
LINE
  5
15CF
  8
240
  6
CONTINUOUS
 10
51.763000000001199
 20
-19.373646891933191
 30
0.0
 11
51.763000000001199
 21
-18.302214071883441
 31
0.0
  0
LINE
  5
15E3
  8
241
  6
CONTINUOUS
 10
0.0000000000004681
 20
21.000000000000121
 30
0.0
 11
0.000000000000739
 21
-20.999999999999918
 31
0.0
  0
LINE
  5
15E5
  8
240
  6
CONTINUOUS
 10
10.00000000000105
 20
32.50000000000022
 30
0.0
 11
10.00000000000105
 21
-32.499999999999922
 31
0.0
  0
LINE
  5
15E7
  8
240
  6
CONTINUOUS
 10
10.00000000000105
 20
-32.499999999999922
 30
0.0
 11
10.00000000000105
 21
-40.928932188134347
 31
0.0
  0
LINE
  5
15E8
  8
240
  6
CONTINUOUS
 10
41.925649216004842
 20
-37.616560801839228
 30
0.0
 11
48.548081005165159
 21
-27.900296932447731
 31
0.0
  0
LINE
  5
15EA
  8
240
  6
CONTINUOUS
 10
39.977847094618632
 20
43.702691282037648
 30
0.0
 11
38.780241914241202
 21
45.908543146719218
 31
0.0
  0
ARC
  5
1607
  8
241
  6
CONTINUOUS
 10
41.049611062666798
 20
24.988062278676431
 30
0.0
 40
0.5
 50
209.9998193297379
 51
265.00021444340058
1001
GRPNAME
1000
PASTMD01
1001
GENIUS_GENODEF_13
1002
{
1000
HIER
1070
     0
1002
}
1002
{
1000
MANEDIT
1070
     0
1002
}
1002
{
1000
NOSEL
1070
     0
1002
}
1002
{
1000
BEHIND
1070
     0
1002
}
1002
{
1000
OTHER
1070
     0
1002
}
1002
{
1000
REACTOR
1002
}
1001
GENIUS_GENOBJ-N-FIL_13
1002
{
1000
OWNER
1000
GEN
1002
}
  0
LINE
  5
1614
  8
241
  6
CONTINUOUS
 10
38.78167033389628
 20
-22.519943378594078
 30
0.0
 11
38.78167033389628
 21
21.326594641069299
 31
0.0
  0
LINE
  5
1649
  8
240
  6
CONTINUOUS
 10
35.264923570604097
 20
48.000000000000107
 30
0.0
 11
17.071067811866619
 21
48.000000000000107
 31
0.0
  0
ARC
  5
169C
  8
240
  6
CONTINUOUS
 10
17.07106781186663
 20
43.000000000000107
 30
0.0
 40
5.0
 50
90.0
 51
135.0
1001
GENIUS_GENOBJ-N-FIL_13
1002
{
1000
OWNER
1000
GEN
1002
}
1001
GENIUS_GENODEF_13
1002
{
1000
HIER
1070
     0
1002
}
1002
{
1000
MANEDIT
1070
     0
1002
}
1002
{
1000
NOSEL
1070
     0
1002
}
1002
{
1000
BEHIND
1070
     0
1002
}
1002
{
1000
OTHER
1070
     0
1002
}
1002
{
1000
REACTOR
1002
}
  0
ARC
  5
169D
  8
240
  6
CONTINUOUS
 10
35.264923570604097
 20
44.000000000000107
 30
0.0
 40
4.0
 50
28.4985022141644
 51
90.0
1001
GENIUS_GENOBJ-N-FIL_13
1002
{
1000
OWNER
1000
GEN
1002
}
1001
GENIUS_GENODEF_13
1002
{
1000
HIER
1070
     0
1002
}
1002
{
1000
MANEDIT
1070
     0
1002
}
1002
{
1000
NOSEL
1070
     0
1002
}
1002
{
1000
BEHIND
1070
     0
1002
}
1002
{
1000
OTHER
1070
     0
1002
}
1002
{
1000
REACTOR
1002
}
  0
TEXT
  5
187E
  8
241
  6
CONTINUOUS
 10
-77.0
 20
77.0
 30
0.0
 40
5.0
  1
ST42-C5085C-30
  7
YOKO
  0
LINE
  5
1880
  8
250
 10
-79.999999999999957
 20
19.499461847809119
 30
0.0
 11
-79.999999999999957
 21
64.0
 31
0.0
  0
LINE
  5
1881
  8
250
 10
0.0000000000009948
 20
32.000000000000291
 30
0.0
 11
0.0000000000009967
 21
64.0
 31
0.0
  0
LINE
  5
1882
  8
250
 10
-77.769999999999953
 20
63.0
 30
0.0
 11
-2.229999999999003
 21
63.0
 31
0.0
  0
INSERT
  5
1885
  8
245
  2
*U4
 10
0.0
 20
0.0
 30
0.0
  0
LINE
  5
1886
  8
250
 10
0.0000000000009948
 20
32.000000000000291
 30
0.0
 11
0.0000000000009967
 21
64.0
 31
0.0
  0
LINE
  5
1887
  8
250
 10
51.999848289795231
 20
24.464652898632039
 30
0.0
 11
51.999848289795231
 21
64.0
 31
0.0
  0
LINE
  5
1888
  8
250
 10
2.2300000000009961
 20
63.0
 30
0.0
 11
49.769848289795227
 21
63.0
 31
0.0
  0
INSERT
  5
188B
  8
245
  2
*U5
 10
0.0
 20
0.0
 30
0.0
  0
LINE
  5
188C
  8
250
 10
30.9274498904417
 20
-47.999999999999893
 30
0.0
 11
91.999999999999986
 21
-47.999999999999908
 31
0.0
  0
LINE
  5
188D
  8
250
 10
35.764923570604097
 20
48.000000000000107
 30
0.0
 11
92.000000000000014
 21
48.000000000000099
 31
0.0
  0
LINE
  5
188E
  8
250
 10
90.999999999999986
 20
-45.769999999999911
 30
0.0
 11
91.000000000000014
 21
45.770000000000103
 31
0.0
  0
INSERT
  5
188F
  8
250
  2
_OPEN
 10
90.999999999999986
 20
-47.999999999999908
 30
0.0
 41
2.2299999999999991
 42
2.2299999999999991
 43
2.2299999999999991
 50
270.0
  0
INSERT
  5
1891
  8
245
  2
*U6
 10
0.0
 20
0.0
 30
0.0
  0
LINE
  5
1892
  8
250
 10
41.860329880520467
 20
42.500000000000107
 30
0.0
 11
85.000000000000014
 21
42.500000000000092
 31
0.0
  0
LINE
  5
1893
  8
250
 10
84.000000000000014
 20
40.270000000000103
 30
0.0
 11
84.0
 21
-4.5333333333332311
 31
0.0
  0
INSERT
  5
1895
  8
245
  2
*U7
 10
0.0
 20
0.0
 30
0.0
  0
LINE
  5
1896
  8
250
 10
51.963970076946133
 20
25.000000000000121
 30
0.0
 11
78.0
 21
25.00000000000011
 31
0.0
  0
LINE
  5
1897
  8
250
 10
77.0
 20
22.77000000000011
 30
0.0
 11
77.0
 21
-4.5333333333332293
 31
0.0
  0
INSERT
  5
1899
  8
245
  2
*U8
 10
0.0
 20
0.0
 30
0.0
  0
LINE
  5
189A
  8
250
 10
-78.366025403784505
 20
21.000000000000121
 30
0.0
 11
-106.0
 21
21.000000000000121
 31
0.0
  0
LINE
  5
189B
  8
250
 10
-78.366025403784505
 20
-20.999999999999911
 30
0.0
 11
-106.0
 21
-20.999999999999901
 31
0.0
  0
LINE
  5
189C
  8
250
 10
-105.0
 20
18.77000000000012
 30
0.0
 11
-105.0
 21
-18.7699999999999
 31
0.0
  0
INSERT
  5
189F
  8
245
  2
*U9
 10
0.0
 20
0.0
 30
0.0
  0
LINE
  5
18A0
  8
250
 10
-105.3716666666666
 20
18.77000000000012
 30
0.0
 11
-105.0
 21
21.000000000000121
 31
0.0
  0
LINE
  5
18A1
  8
250
 10
-104.6283333333333
 20
18.77000000000012
 30
0.0
 11
-105.0
 21
21.000000000000121
 31
0.0
  0
LINE
  5
18A2
  8
250
 10
-105.0
 20
21.000000000000121
 30
0.0
 11
-105.0
 21
18.77000000000012
 31
0.0
  0
LINE
  5
18A3
  8
250
 10
-104.6283333333333
 20
-18.7699999999999
 30
0.0
 11
-105.0
 21
-20.999999999999901
 31
0.0
  0
LINE
  5
18A4
  8
250
 10
-105.3716666666666
 20
-18.7699999999999
 30
0.0
 11
-105.0
 21
-20.999999999999901
 31
0.0
  0
LINE
  5
18A5
  8
250
 10
-105.0
 20
-20.999999999999901
 30
0.0
 11
-105.0
 21
-18.7699999999999
 31
0.0
  0
LINE
  5
18A6
  8
250
 10
-77.769999999999953
 20
62.62833333333333
 30
0.0
 11
-79.999999999999957
 21
63.0
 31
0.0
  0
LINE
  5
18A7
  8
250
 10
-77.769999999999953
 20
63.37166666666667
 30
0.0
 11
-79.999999999999957
 21
63.0
 31
0.0
  0
LINE
  5
18A8
  8
250
 10
-79.999999999999957
 20
63.0
 30
0.0
 11
-77.769999999999953
 21
63.0
 31
0.0
  0
LINE
  5
18A9
  8
250
 10
-2.229999999999003
 20
63.37166666666667
 30
0.0
 11
0.0000000000009967
 21
63.0
 31
0.0
  0
LINE
  5
18AA
  8
250
 10
-2.229999999999003
 20
62.62833333333333
 30
0.0
 11
0.0000000000009967
 21
63.0
 31
0.0
  0
LINE
  5
18AB
  8
250
 10
0.0000000000009967
 20
63.0
 30
0.0
 11
-2.229999999999003
 21
63.0
 31
0.0
  0
LINE
  5
18AC
  8
250
 10
2.2300000000009961
 20
62.62833333333333
 30
0.0
 11
0.0000000000009967
 21
63.0
 31
0.0
  0
LINE
  5
18AD
  8
250
 10
2.2300000000009961
 20
63.37166666666667
 30
0.0
 11
0.0000000000009967
 21
63.0
 31
0.0
  0
LINE
  5
18AE
  8
250
 10
0.0000000000009967
 20
63.0
 30
0.0
 11
2.2300000000009961
 21
63.0
 31
0.0
  0
LINE
  5
18AF
  8
250
 10
49.769848289795227
 20
63.37166666666667
 30
0.0
 11
51.999848289795231
 21
63.0
 31
0.0
  0
LINE
  5
18B0
  8
250
 10
49.769848289795227
 20
62.62833333333333
 30
0.0
 11
51.999848289795231
 21
63.0
 31
0.0
  0
LINE
  5
18B1
  8
250
 10
51.999848289795231
 20
63.0
 30
0.0
 11
49.769848289795227
 21
63.0
 31
0.0
  0
LINE
  5
18B2
  8
250
 10
83.628333333333345
 20
40.270000000000103
 30
0.0
 11
84.000000000000014
 21
42.500000000000092
 31
0.0
  0
LINE
  5
18B3
  8
250
 10
84.371666666666684
 20
40.270000000000103
 30
0.0
 11
84.000000000000014
 21
42.500000000000092
 31
0.0
  0
LINE
  5
18B4
  8
250
 10
84.000000000000014
 20
42.500000000000092
 30
0.0
 11
84.000000000000014
 21
40.270000000000103
 31
0.0
  0
LINE
  5
18B5
  8
250
 10
90.628333333333345
 20
45.770000000000103
 30
0.0
 11
91.000000000000014
 21
48.000000000000099
 31
0.0
  0
LINE
  5
18B6
  8
250
 10
91.371666666666684
 20
45.770000000000103
 30
0.0
 11
91.000000000000014
 21
48.000000000000099
 31
0.0
  0
LINE
  5
18B7
  8
250
 10
91.000000000000014
 20
48.000000000000099
 30
0.0
 11
91.000000000000014
 21
45.770000000000103
 31
0.0
  0
LINE
  5
18B8
  8
250
 10
76.62833333333333
 20
22.77000000000011
 30
0.0
 11
77.0
 21
25.00000000000011
 31
0.0
  0
LINE
  5
18B9
  8
250
 10
77.371666666666655
 20
22.77000000000011
 30
0.0
 11
77.0
 21
25.00000000000011
 31
0.0
  0
LINE
  5
18BA
  8
250
 10
77.0
 20
25.00000000000011
 30
0.0
 11
77.0
 21
22.77000000000011
 31
0.0
  0
VIEWPORT
  5
22
 67
     1
  8
0
 10
261.51769911504419
 20
148.5
 30
0.0
 40
523.0353982300885
 41
297.0
 68
     1
 69
     1
1001
ACAD
1000
MVIEW
1002
{
1070
    16
1010
0.0
1020
0.0
1030
0.0
1010
0.0
1020
0.0
1030
1.0
1040
0.0
1040
297.0
1040
261.51769911504419
1040
148.5
1040
50.0
1040
0.0
1040
0.0
1070
     0
1070
   100
1070
     1
1070
     1
1070
     0
1070
     0
1070
     0
1070
     0
1040
0.0
1040
0.0
1040
0.0
1040
1.0
1040
1.0
1040
10.0
1040
10.0
1070
     0
1002
{
1002
}
1002
}
1001
GENIUS_GENODEF_13
1002
{
1000
HIER
1070
     0
1002
}
1002
{
1000
MANEDIT
1070
     0
1002
}
1002
{
1000
NOSEL
1070
     0
1002
}
1002
{
1000
BEHIND
1070
     0
1002
}
1002
{
1000
OTHER
1070
     0
1002
}
1002
{
1000
REACTOR
1002
}
1001
GENIUS_GENOBJ-N-SDF_13
1002
{
1000
OWNER
1000
GEN
1002
}
1001
GENIUS_GENSCREG_15
1000
PF
1040
1.0
1000
DF
1040
1.0
1000
MIN
1011
0.0
1021
0.0
1031
0.0
1021
0.0
1031
0.0
1000
MAX
1011
523.0353982300885
1021
0.0
1031
0.0
1021
297.0
1031
0.0
1000
FLAGS
1070
     4
  0
ENDSEC
  0
EOF
