  0
SECTION
  2
HEADER
  9
$ACADVER
  1
AC1009
  9
$INSBASE
 10
0.0
 20
0.0
 30
0.0
  9
$EXTMIN
 10
-172.01431165218159
 20
-47.007842419212473
 30
-0.0015258207003583
  9
$EXTMAX
 10
22.030716714252101
 20
81.009811849577545
 30
0.0000000349246037
  9
$LIMMIN
 10
0.0
 20
0.0
  9
$LIMMAX
 10
297.0
 20
210.0
  9
$ORTHOMODE
 70
     0
  9
$REGENMODE
 70
     1
  9
$FILLMODE
 70
     1
  9
$QTEXTMODE
 70
     0
  9
$MIRRTEXT
 70
     1
  9
$DRAGMODE
 70
     2
  9
$LTSCALE
 40
10.0
  9
$OSMODE
 70
  3071
  9
$ATTMODE
 70
     1
  9
$TEXTSIZE
 40
3.0
  9
$TRACEWID
 40
1.0
  9
$TEXTSTYLE
  7
YOKO
  9
$CLAYER
  8
240
  9
$CELTYPE
  6
BYLAYER
  9
$CECOLOR
 62
   256
  9
$DIMSCALE
 40
1.0
  9
$DIMASZ
 40
2.2299999999999991
  9
$DIMEXO
 40
0.5
  9
$DIMDLI
 40
2.5
  9
$DIMRND
 40
0.0
  9
$DIMDLE
 40
0.0
  9
$DIMEXE
 40
1.0
  9
$DIMTP
 40
0.0
  9
$DIMTM
 40
0.0
  9
$DIMTXT
 40
3.0
  9
$DIMCEN
 40
0.0
  9
$DIMTSZ
 40
0.0
  9
$DIMTOL
 70
     0
  9
$DIMLIM
 70
     0
  9
$DIMTIH
 70
     0
  9
$DIMTOH
 70
     0
  9
$DIMSE1
 70
     0
  9
$DIMSE2
 70
     0
  9
$DIMTAD
 70
     3
  9
$DIMZIN
 70
     8
  9
$DIMBLK
  1
OPEN
  9
$DIMASO
 70
     1
  9
$DIMSHO
 70
     1
  9
$DIMPOST
  1

  9
$DIMAPOST
  1

  9
$DIMALT
 70
     0
  9
$DIMALTD
 70
     2
  9
$DIMALTF
 40
25.399999999999999
  9
$DIMLFAC
 40
1.0
  9
$DIMTOFL
 70
     1
  9
$DIMTVP
 40
0.0
  9
$DIMTIX
 70
     0
  9
$DIMSOXD
 70
     0
  9
$DIMSAH
 70
     0
  9
$DIMBLK1
  1

  9
$DIMBLK2
  1

  9
$DIMSTYLE
  2
BIGT
  9
$DIMCLRD
 70
   256
  9
$DIMCLRE
 70
   256
  9
$DIMCLRT
 70
    40
  9
$DIMTFAC
 40
1.0
  9
$DIMGAP
 40
1.0
  9
$LUNITS
 70
     2
  9
$LUPREC
 70
     2
  9
$SKETCHINC
 40
1.0
  9
$FILLETRAD
 40
0.0
  9
$AUNITS
 70
     0
  9
$AUPREC
 70
     3
  9
$MENU
  1
.
  9
$ELEVATION
 40
0.0
  9
$PELEVATION
 40
0.0
  9
$THICKNESS
 40
0.0
  9
$LIMCHECK
 70
     0
  9
$BLIPMODE
 70
     0
  9
$CHAMFERA
 40
10.0
  9
$CHAMFERB
 40
10.0
  9
$SKPOLY
 70
     0
  9
$TDCREATE
 40
2452291.6106381938
  9
$TDUPDATE
 40
2455812.5688270829
  9
$TDINDWG
 40
0.0161706597
  9
$TDUSRTIMER
 40
0.0161706597
  9
$USRTIMER
 70
     1
  9
$ANGBASE
 50
0.0
  9
$ANGDIR
 70
     0
  9
$PDMODE
 70
    35
  9
$PDSIZE
 40
2.0
  9
$PLINEWID
 40
0.0
  9
$COORDS
 70
     1
  9
$SPLFRAME
 70
     0
  9
$SPLINETYPE
 70
     6
  9
$SPLINESEGS
 70
     8
  9
$ATTDIA
 70
     1
  9
$ATTREQ
 70
     1
  9
$HANDLING
 70
     1
  9
$HANDSEED
  5
1511
  9
$SURFTAB1
 70
     6
  9
$SURFTAB2
 70
     6
  9
$SURFTYPE
 70
     6
  9
$SURFU
 70
     6
  9
$SURFV
 70
     6
  9
$UCSNAME
  2

  9
$UCSORG
 10
0.0
 20
0.0
 30
0.0
  9
$UCSXDIR
 10
1.0
 20
0.0
 30
0.0
  9
$UCSYDIR
 10
0.0
 20
1.0
 30
0.0
  9
$PUCSNAME
  2

  9
$PUCSORG
 10
0.0
 20
0.0
 30
0.0
  9
$PUCSXDIR
 10
1.0
 20
0.0
 30
0.0
  9
$PUCSYDIR
 10
0.0
 20
1.0
 30
0.0
  9
$USERI1
 70
     1
  9
$USERI2
 70
     0
  9
$USERI3
 70
     0
  9
$USERI4
 70
     0
  9
$USERI5
 70
     0
  9
$USERR1
 40
0.0
  9
$USERR2
 40
0.0
  9
$USERR3
 40
0.0
  9
$USERR4
 40
0.0
  9
$USERR5
 40
0.0
  9
$WORLDVIEW
 70
     1
  9
$SHADEDGE
 70
     3
  9
$SHADEDIF
 70
    70
  9
$TILEMODE
 70
     1
  9
$MAXACTVP
 70
    16
  9
$PLIMCHECK
 70
     0
  9
$PEXTMIN
 10
1.0000000000000000E+020
 20
1.0000000000000000E+020
 30
1.0000000000000000E+020
  9
$PEXTMAX
 10
-1.0000000000000000E+020
 20
-1.0000000000000000E+020
 30
-1.0000000000000000E+020
  9
$PLIMMIN
 10
0.0
 20
0.0
  9
$PLIMMAX
 10
420.0
 20
297.0
  9
$UNITMODE
 70
     0
  9
$VISRETAIN
 70
     0
  9
$PLINEGEN
 70
     0
  9
$PSLTSCALE
 70
     1
  0
ENDSEC
  0
SECTION
  2
TABLES
  0
TABLE
  2
VPORT
 70
     1
  0
VPORT
  2
*ACTIVE
 70
     0
 10
0.0
 20
0.0
 11
1.0
 21
1.0
 12
-74.991797468964762
 22
17.000984715182529
 13
0.0
 23
0.0
 14
7.0
 24
7.0
 15
7.0
 25
7.0
 16
0.0
 26
0.0
 36
1.0
 17
0.0
 27
0.0
 37
0.0
 40
128.96359752693371
 41
1.8471023427866831
 42
50.0
 43
0.0
 44
0.0
 50
0.0
 51
0.0
 71
     0
 72
  2000
 73
     1
 74
     0
 75
     0
 76
     0
 77
     0
 78
     0
  0
ENDTAB
  0
TABLE
  2
LTYPE
 70
    16
  0
LTYPE
  2
CONTINUOUS
 70
     0
  3
Solid line
 72
    65
 73
     0
 40
0.0
  0
LTYPE
  2
CENTER2
 70
     0
  3
___ _ ___ _ ___ _ ___ _ ___ _ ___ _ ___ _ ___ _
 72
    65
 73
     4
 40
1.125
 49
0.75
 49
-0.125
 49
0.125
 49
-0.125
  0
LTYPE
  2
AMCONSTR
 70
     0
  3
_______________________
 72
    65
 73
     2
 40
9999.0
 49
9999.0
 49
0.0
  0
LTYPE
  2
CENTER
 70
     0
  3
__ . __
 72
    65
 73
     4
 40
7.0
 49
4.0
 49
-1.0
 49
1.0
 49
-1.0
  0
LTYPE
  2
HIDDEN
 70
     0
  3
Hidden __ __ __ __ __ __ __ __ __ __ __ __ __ _
 72
    65
 73
     2
 40
9.5249999999999986
 49
6.3499999999999979
 49
-3.174999999999998
  0
LTYPE
  2
PHANTOM2
 70
     0
  3
Phantom (.5x) ___ _ _ ___ _ _ ___ _ _ ___ _ _
 72
    65
 73
     6
 40
31.75
 49
15.875
 49
-3.174999999999998
 49
3.174999999999998
 49
-3.174999999999998
 49
3.174999999999998
 49
-3.174999999999998
  0
LTYPE
  2
HIDDEN2
 70
     0
  3
Hidden (.5x) _ _ _ _ _ _ _ _ _ _ _ _ _ _ _ _ _
 72
    65
 73
     2
 40
0.1875
 49
0.125
 49
-0.0625
  0
LTYPE
  2
AMZIGZAG2
 70
     0
  3
/\/-/\/-/\/-/\/-/\/-/\/
 72
    65
 73
     2
 40
0.4401
 49
0.0001
 49
-0.4400000000000001
  0
LTYPE
  2
ACANSTGB
 70
     0
  3
__ . . __ . .
 72
    65
 73
     6
 40
0.35433070866
 49
0.15748031496
 49
-0.03937007874
 49
0.03937007874
 49
-0.03937007874
 49
0.03937007874
 49
-0.03937007874
  0
LTYPE
  2
ACANSTGL
 70
     0
  3
_ _ _ _ _
 72
    65
 73
     2
 40
0.11811023622
 49
0.07874015748
 49
-0.03937007874
  0
ENDTAB
  0
TABLE
  2
LAYER
 70
     6
  0
LAYER
  2
0
 70
     0
 62
     7
  6
CONTINUOUS
  0
LAYER
  2
240
 70
     0
 62
     4
  6
CONTINUOUS
  0
LAYER
  2
241
 70
     0
 62
   211
  6
CONTINUOUS
  0
LAYER
  2
245
 70
     0
 62
     2
  6
CENTER2
  0
LAYER
  2
250
 70
     0
 62
     3
  6
CONTINUOUS
  0
LAYER
  2
DEFPOINTS
 70
     0
 62
     7
  6
CONTINUOUS
  0
ENDTAB
  0
TABLE
  2
STYLE
 70
     5
  0
STYLE
  2
STANDARD
 70
     0
 40
0.0
 41
1.0
 50
0.0
 71
     0
 42
3.0
  3
romans.shx
  4
BIGFONT.SHX
  0
STYLE
  2
YOKO
 70
     0
 40
0.0
 41
1.0
 50
0.0
 71
     0
 42
3.0
  3
romans.shx
  4
extfont.shx
  0
STYLE
  2

 70
     1
 40
0.0
 41
1.0
 50
0.0
 71
     0
 42
3.0
  3
genltshp.shx
  4

  0
STYLE
  2
ACANSGDT
 70
     0
 40
0.0
 41
1.0
 50
0.0
 71
     0
 42
3.0
  3
amgdt.shx
  4

  0
ENDTAB
  0
TABLE
  2
VIEW
 70
     0
  0
ENDTAB
  0
TABLE
  2
UCS
 70
     0
  0
ENDTAB
  0
TABLE
  2
APPID
 70
    29
  0
APPID
  2
ACAD
 70
     0
  0
APPID
  2
ACADANNOTATIVE
 70
     0
  0
APPID
  2
GLOBAL
 70
     0
  0
APPID
  2
DETAIL
 70
     0
  0
APPID
  2
GRPNAME
 70
     0
  0
APPID
  2
GPARA
 70
     0
  0
APPID
  2
HATCH_TYPE
 70
     0
  0
APPID
  2
HATCH_DISPLAY
 70
     0
  0
APPID
  2
HATCH_DISTANCE
 70
     0
  0
APPID
  2
ITEMNAME
 70
     0
  0
APPID
  2
MCAD_NO_VIS
 70
     0
  0
APPID
  2
ACAD_TEMP_GRAPHIC
 70
     0
  0
APPID
  2
ACATTRIBSERVICES
 70
     0
  0
APPID
  2
GENIUS_GENSCREG_15
 70
     0
  0
APPID
  2
GENIUS_GENOBJ-N-SDF_13
 70
     0
  0
APPID
  2
GENIUS_GENODEF_13
 70
     0
  0
APPID
  2
AD_DRAW
 70
     0
  0
APPID
  2
DESIGNERASSEMBLIES
 70
     0
  0
APPID
  2
ACADM_DIM_EDIT
 70
     0
  0
APPID
  2
AMDT_DM_ADJ
 70
     0
  0
APPID
  2
ACAD_DSTYLE_DIMJAG
 70
     0
  0
APPID
  2
ACAD_DSTYLE_DIMBREAK
 70
     0
  0
APPID
  2
ACAECLAYERSTANDARD
 70
     0
  0
APPID
  2
ACAD_EXEMPT_FROM_CAD_STANDARDS
 70
     0
  0
APPID
  2
ACAD_MLEADERVER
 70
     0
  0
APPID
  2
ACAD_DSTYLE_DIMARC_LENGTH_
 70
     0
  0
APPID
  2
ACAD_DSTYLE_DIM_LINETYPE
 70
     0
  0
APPID
  2
ACAD_DSTYLE_DIM_EXT1_LINETYPE
 70
     0
  0
APPID
  2
ACAD_DSTYLE_DIM_EXT2_LINETYPE
 70
     0
  0
ENDTAB
  0
TABLE
  2
DIMSTYLE
 70
     8
  0
DIMSTYLE
  2
STANDARD
 70
     0
  3

  4

  5

  6

  7

 40
1.0
 41
2.0
 42
2.0
 43
3.75
 44
2.0
 45
0.0
 46
0.0
 47
0.0
 48
0.0
140
4.0
141
0.09
142
0.0
143
25.399999999999999
144
1.0
145
0.0
146
1.0
147
1.0
 71
     0
 72
     0
 73
     1
 74
     1
 75
     0
 76
     0
 77
     0
 78
     8
170
     0
171
     2
172
     0
173
     1
174
     0
175
     0
176
   256
177
   256
178
   256
  0
DIMSTYLE
  2
BIGT
 70
     0
  3

  4

  5

  6

  7

 40
1.0
 41
2.2299999999999991
 42
0.5
 43
2.5
 44
1.0
 45
0.0
 46
0.0
 47
0.0
 48
0.0
140
3.5
141
0.0
142
0.0
143
25.399999999999999
144
1.0
145
0.0
146
1.0
147
1.0
 71
     0
 72
     0
 73
     0
 74
     0
 75
     0
 76
     0
 77
     3
 78
     9
170
     0
171
     2
172
     1
173
     0
174
     0
175
     0
176
   256
177
   256
178
    40
  0
DIMSTYLE
  2
AM_ANSI
 70
     0
  3

  4
mm
  5

  6

  7

 40
1.0
 41
0.12
 42
0.05
 43
0.5
 44
0.1
 45
0.0
 46
0.0
 47
0.1
 48
0.1
140
0.12
141
0.0
142
0.0
143
25.399999999999999
144
1.0
145
0.0
146
0.71
147
0.06
 71
     0
 72
     0
 73
     1
 74
     1
 75
     0
 76
     0
 77
     0
 78
     7
170
     0
171
     2
172
     0
173
     0
174
     0
175
     0
176
   256
177
   256
178
     2
  0
DIMSTYLE
  2
AM_ANSI$3
 70
     0
  3

  4
mm
  5

  6

  7

 40
1.0
 41
0.12
 42
0.05
 43
0.5
 44
0.1
 45
0.0
 46
0.0
 47
0.1
 48
0.1
140
0.12
141
0.0
142
0.0
143
25.399999999999999
144
1.0
145
0.0
146
0.71
147
0.06
 71
     0
 72
     0
 73
     1
 74
     1
 75
     0
 76
     0
 77
     0
 78
     7
170
     0
171
     2
172
     0
173
     0
174
     0
175
     0
176
   256
177
   256
178
     2
  0
DIMSTYLE
  2
AM_ANSI$4
 70
     0
  3

  4
mm
  5

  6

  7

 40
1.0
 41
0.12
 42
0.05
 43
0.5
 44
0.1
 45
0.0
 46
0.0
 47
0.1
 48
0.1
140
0.12
141
0.0
142
0.0
143
25.399999999999999
144
1.0
145
0.0
146
0.71
147
0.06
 71
     0
 72
     0
 73
     1
 74
     1
 75
     0
 76
     0
 77
     0
 78
     7
170
     0
171
     2
172
     0
173
     0
174
     0
175
     0
176
   256
177
   256
178
     2
  0
DIMSTYLE
  2
AM_ANSI$7
 70
     0
  3

  4
mm
  5

  6

  7

 40
1.0
 41
0.12
 42
0.05
 43
0.5
 44
0.1
 45
0.0
 46
0.0
 47
0.1
 48
0.1
140
0.12
141
0.0
142
0.0
143
25.399999999999999
144
1.0
145
0.0
146
0.71
147
0.06
 71
     0
 72
     0
 73
     1
 74
     1
 75
     0
 76
     0
 77
     0
 78
     7
170
     0
171
     2
172
     0
173
     0
174
     0
175
     0
176
   256
177
   256
178
     2
  0
DIMSTYLE
  2
AM_ANSI$SF
 70
     0
  3

  4
mm
  5

  6

  7

 40
1.0
 41
0.12
 42
0.05
 43
0.5
 44
0.1
 45
0.0
 46
0.0
 47
0.1
 48
0.1
140
0.12
141
0.0
142
0.0
143
25.399999999999999
144
1.0
145
0.0
146
0.71
147
0.06
 71
     0
 72
     0
 73
     1
 74
     1
 75
     1
 76
     1
 77
     0
 78
     7
170
     0
171
     2
172
     0
173
     0
174
     0
175
     0
176
   256
177
   256
178
     2
  0
DIMSTYLE
  2
AM_ANSI$SH
 70
     0
  3

  4
mm
  5

  6
GENAXEH
  7

 40
1.0
 41
0.12
 42
0.05
 43
0.5
 44
0.1
 45
0.0
 46
0.0
 47
0.1
 48
0.1
140
0.12
141
0.0
142
0.0
143
25.399999999999999
144
1.0
145
0.0
146
0.71
147
0.06
 71
     0
 72
     0
 73
     1
 74
     1
 75
     1
 76
     1
 77
     0
 78
     7
170
     0
171
     2
172
     0
173
     1
174
     0
175
     0
176
   256
177
   256
178
     2
  0
ENDTAB
  0
ENDSEC
  0
SECTION
  2
BLOCKS
  0
BLOCK
  8
0
  2
$MODEL_SPACE
 70
     0
 10
0.0
 20
0.0
 30
0.0
  3
$MODEL_SPACE
  1

  0
ENDBLK
  5
11AC
  8
0
  0
BLOCK
 67
     1
  8
0
  2
$PAPER_SPACE
 70
     0
 10
0.0
 20
0.0
 30
0.0
  3
$PAPER_SPACE
  1

  0
ENDBLK
  5
11A8
 67
     1
  8
0
  0
BLOCK
  8
0
  2
_OPEN
 70
     0
 10
0.0
 20
0.0
 30
0.0
  3
_OPEN
  1

  0
LINE
  5
595
  8
0
  6
BYBLOCK
 62
     0
 10
-1.0
 20
0.1666666666666666
 30
0.0
 11
0.0
 21
0.0
 31
0.0
  0
LINE
  5
596
  8
0
  6
BYBLOCK
 62
     0
 10
-1.0
 20
-0.1666666666666666
 30
0.0
 11
0.0
 21
0.0
 31
0.0
  0
LINE
  5
597
  8
0
  6
BYBLOCK
 62
     0
 10
0.0
 20
0.0
 30
0.0
 11
-1.0
 21
0.0
 31
0.0
  0
ENDBLK
  5
599
  8
0
  0
BLOCK
  8
0
  2
GENAXEH
 70
     0
 10
0.0
 20
0.0
 30
0.0
  3
GENAXEH
  1

  0
LINE
  5
C3C
  8
0
 10
-1.0
 20
0.0
 30
0.0
 11
1.0
 21
0.0
 31
0.0
  0
ENDBLK
  5
C3E
  8
0
  0
ENDSEC
  0
SECTION
  2
ENTITIES
  0
TEXT
  5
8C9
  8
241
 10
-147.0
 20
77.0
 30
0.0
 40
4.0
  1
ST42-C50100C
  7
YOKO
 11
-147.0
 21
77.0
 31
0.0
 73
     1
  0
LINE
  5
98A
  8
250
 10
-139.84900410907761
 20
-35.56257403540949
 30
0.0
 11
-155.84900410907761
 21
-35.56257403540949
 31
0.0
1001
ITEMNAME
1000
LNSP2
  0
TEXT
  5
D04
  8
250
 10
-153.277575537649
 20
-34.562574035409511
 30
0.0
 40
3.0
  1
ST42
  7
YOKO
1001
ITEMNAME
1000
LNSP3
1001
ACAD
1000
MTEXTBEGIN
1070
    73
1070
     1
1070
    44
1040
1.0
1070
    74
1070
     0
1000
MTEXTEND
  0
LINE
  5
D07
  8
250
 10
-25.660319084530549
 20
50.0
 30
0.0
 11
21.999984641020191
 21
50.0
 31
0.0
  0
LINE
  5
D08
  8
250
 10
20.99998464102018
 20
47.769999999999989
 30
0.0
 11
20.99998464102017
 21
-6.2142876639387561
 31
0.0
  0
LINE
  5
D0B
  8
250
 10
-0.6603402172230802
 20
25.0
 30
0.0
 11
14.99999447076698
 21
25.0
 31
0.0
  0
LINE
  5
D0C
  8
250
 10
13.99999447076698
 20
22.769999999999989
 30
0.0
 11
13.999994470766961
 21
-4.7857159276567467
 31
0.0
  0
LINE
  5
D0F
  8
250
 10
-70.0
 20
32.0
 30
0.0
 11
-70.0
 21
64.0
 31
0.0
  0
LINE
  5
D10
  8
250
 10
0.0
 20
24.008288999999991
 30
0.0
 11
0.0000000000000025
 21
64.0
 31
0.0
  0
LINE
  5
D11
  8
250
 10
-67.769999999999996
 20
63.0
 30
0.0
 11
-2.2299999999999951
 21
63.0
 31
0.0
  0
LINE
  5
D15
  8
250
 10
-150.0
 20
20.056623999999989
 30
0.0
 11
-150.0
 21
64.0
 31
0.0
  0
LINE
  5
D16
  8
250
 10
-70.0
 20
32.0
 30
0.0
 11
-70.0
 21
64.0
 31
0.0
  0
LINE
  5
D17
  8
250
 10
-147.77000000000001
 20
63.0
 30
0.0
 11
-72.230000000000004
 21
63.0
 31
0.0
  0
LINE
  5
D1B
  8
250
 10
-148.36602600000001
 20
-21.000000000000011
 30
0.0
 11
-169.0
 21
-21.0
 31
0.0
  0
LINE
  5
D1C
  8
250
 10
-148.5
 20
21.0
 30
0.0
 11
-169.0
 21
21.0
 31
0.0
  0
LINE
  5
D1D
  8
250
 10
-168.0
 20
-18.77000000000001
 30
0.0
 11
-168.0
 21
18.77
 31
0.0
  0
TEXT
  5
D21
  8
250
 10
-169.0
 20
-4.0714285714285987
 30
0.0
 40
3.0
  1
\U+2205
 50
90.0
1001
ACAD
1000
MTEXTBEGIN
1070
    73
1070
     1
1070
    44
1040
1.0
1070
    74
1070
     0
1000
MTEXTEND
  0
TEXT
  5
D22
  8
250
 10
-169.0
 20
-1.3571428571428861
 30
0.0
 40
3.0
  1
42
 50
90.0
1001
ACAD
1000
MTEXTBEGIN
1070
    73
1070
     1
1070
    44
1040
1.0
1070
    74
1070
     0
1000
MTEXTEND
  0
LINE
  5
D23
  8
250
 10
-168.3716666666667
 20
18.77
 30
0.0
 11
-168.0
 21
21.0
 31
0.0
  0
LINE
  5
D24
  8
250
 10
-167.6283333333333
 20
18.77
 30
0.0
 11
-168.0
 21
21.0
 31
0.0
  0
LINE
  5
D25
  8
250
 10
-168.0
 20
21.0
 30
0.0
 11
-168.0
 21
18.77
 31
0.0
  0
LINE
  5
D26
  8
250
 10
-167.6283333333333
 20
-18.77
 30
0.0
 11
-168.0
 21
-21.0
 31
0.0
  0
LINE
  5
D27
  8
250
 10
-168.3716666666667
 20
-18.77
 30
0.0
 11
-168.0
 21
-21.0
 31
0.0
  0
LINE
  5
D28
  8
250
 10
-168.0
 20
-21.0
 30
0.0
 11
-168.0
 21
-18.77
 31
0.0
  0
TEXT
  5
D29
  8
250
 10
-112.8571428571428
 20
64.0
 30
0.0
 40
3.0
  1
80
1001
ACAD
1000
MTEXTBEGIN
1070
    73
1070
     1
1070
    44
1040
1.0
1070
    74
1070
     0
1000
MTEXTEND
  0
LINE
  5
D2A
  8
250
 10
-72.230000000000004
 20
63.37166666666667
 30
0.0
 11
-70.0
 21
63.0
 31
0.0
  0
LINE
  5
D2B
  8
250
 10
-72.230000000000004
 20
62.62833333333333
 30
0.0
 11
-70.0
 21
63.0
 31
0.0
  0
LINE
  5
D2C
  8
250
 10
-70.0
 20
63.0
 30
0.0
 11
-72.230000000000004
 21
63.0
 31
0.0
  0
LINE
  5
D2D
  8
250
 10
-147.77000000000001
 20
62.62833333333333
 30
0.0
 11
-150.0
 21
63.0
 31
0.0
  0
LINE
  5
D2E
  8
250
 10
-147.77000000000001
 20
63.371666666666663
 30
0.0
 11
-150.0
 21
63.0
 31
0.0
  0
LINE
  5
D2F
  8
250
 10
-150.0
 20
63.0
 30
0.0
 11
-147.77000000000001
 21
63.0
 31
0.0
  0
TEXT
  5
D30
  8
250
 10
-37.857142857142868
 20
64.0
 30
0.0
 40
3.0
  1
70
1001
ACAD
1000
MTEXTBEGIN
1070
    73
1070
     1
1070
    44
1040
1.0
1070
    74
1070
     0
1000
MTEXTEND
  0
LINE
  5
D31
  8
250
 10
-2.2299999999999951
 20
63.37166666666667
 30
0.0
 11
0.0000000000000024
 21
63.0
 31
0.0
  0
LINE
  5
D32
  8
250
 10
-2.2299999999999951
 20
62.62833333333333
 30
0.0
 11
0.0000000000000024
 21
63.0
 31
0.0
  0
LINE
  5
D33
  8
250
 10
0.0000000000000024
 20
63.0
 30
0.0
 11
-2.2299999999999951
 21
63.0
 31
0.0
  0
LINE
  5
D34
  8
250
 10
-67.769999999999996
 20
62.62833333333333
 30
0.0
 11
-70.0
 21
63.0
 31
0.0
  0
LINE
  5
D35
  8
250
 10
-67.769999999999996
 20
63.371666666666663
 30
0.0
 11
-70.0
 21
63.0
 31
0.0
  0
LINE
  5
D36
  8
250
 10
-70.0
 20
63.0
 30
0.0
 11
-67.769999999999996
 21
63.0
 31
0.0
  0
TEXT
  5
D37
  8
250
 10
12.999994470766961
 20
-4.0714302133710323
 30
0.0
 40
3.0
  1
\U+2205
 50
90.0
1001
ACAD
1000
MTEXTBEGIN
1070
    73
1070
     1
1070
    44
1040
1.0
1070
    74
1070
     0
1000
MTEXTEND
  0
TEXT
  5
D38
  8
250
 10
12.999994470766961
 20
-1.3571444990853181
 30
0.0
 40
3.0
  1
50
 50
90.0
1001
ACAD
1000
MTEXTBEGIN
1070
    73
1070
     1
1070
    44
1040
1.0
1070
    74
1070
     0
1000
MTEXTEND
  0
LINE
  5
D39
  8
250
 10
13.62832780410031
 20
22.77
 30
0.0
 11
13.99999447076698
 21
25.0
 31
0.0
  0
LINE
  5
D3A
  8
250
 10
14.371661137433639
 20
22.77
 30
0.0
 11
13.99999447076698
 21
25.0
 31
0.0
  0
LINE
  5
D3B
  8
250
 10
13.99999447076698
 20
25.0
 30
0.0
 11
13.99999447076698
 21
22.77
 31
0.0
  0
TEXT
  5
D3C
  8
250
 10
19.99998464102017
 20
-5.500001949653039
 30
0.0
 40
3.0
  1
\U+2205
 50
90.0
1001
ACAD
1000
MTEXTBEGIN
1070
    73
1070
     1
1070
    44
1040
1.0
1070
    74
1070
     0
1000
MTEXTEND
  0
TEXT
  5
D3D
  8
250
 10
19.99998464102017
 20
-2.785716235367325
 30
0.0
 40
3.0
  1
100
 50
90.0
1001
ACAD
1000
MTEXTBEGIN
1070
    73
1070
     1
1070
    44
1040
1.0
1070
    74
1070
     0
1000
MTEXTEND
  0
LINE
  5
D3E
  8
250
 10
20.628317974353521
 20
47.770000000000003
 30
0.0
 11
20.99998464102018
 21
50.0
 31
0.0
  0
LINE
  5
D3F
  8
250
 10
21.37165130768685
 20
47.770000000000003
 30
0.0
 11
20.99998464102018
 21
50.0
 31
0.0
  0
LINE
  5
D40
  8
250
 10
20.99998464102018
 20
50.0
 30
0.0
 11
20.99998464102018
 21
47.770000000000003
 31
0.0
  0
LINE
  5
D41
  8
250
 10
-132.55629806964001
 20
-22.931236650439299
 30
0.0
 11
-139.84900410907761
 21
-35.56257403540949
 31
0.0
1001
ACAD
1000
DSTYLE
1002
{
1070
     5
1000
OPEN
1070
    78
1070
     8
1070
   140
1040
3.0
1002
}
  0
LINE
  5
D42
  8
250
 10
-132.8781708447132
 20
-22.745403317105961
 30
0.0
 11
-131.44129806964
 21
-21.0
 31
0.0
  0
LINE
  5
D43
  8
250
 10
-132.23442529456679
 20
-23.11706998377263
 30
0.0
 11
-131.44129806964
 21
-21.0
 31
0.0
  0
LINE
  5
D44
  8
250
 10
-131.44129806964
 20
-21.0
 30
0.0
 11
-132.55629806964001
 21
-22.931236650439299
 31
0.0
  0
LINE
  5
1290
  8
240
 10
-69.999999999999915
 20
21.000000000000011
 30
0.0
 11
-147.86602600000001
 21
21.0
 31
0.0
  0
LINE
  5
1291
  8
240
 10
-70.000000000000071
 20
-21.0
 30
0.0
 11
-147.86602600000001
 21
-21.000000000000011
 31
0.0
  0
LINE
  5
1292
  8
245
 10
2.8651560000000398
 20
0.0
 30
0.0
 11
-152.5761709999999
 21
0.0
 31
0.0
  0
LINE
  5
1293
  8
241
 10
-147.9999999999998
 20
21.0
 30
0.0
 11
-147.9999999999998
 21
-21.000000000000011
 31
0.0
  0
LINE
  5
1294
  8
240
 10
-149.9999999999998
 20
19.556623999999989
 30
0.0
 11
-149.9999999999998
 21
-19.556625
 31
0.0
  0
LINE
  5
1295
  8
240
 10
-149.7499999999998
 20
-19.98963800000001
 30
0.0
 11
-148.11602600000001
 21
-20.93301300000002
 31
0.0
  0
ARC
  5
1296
  8
240
 10
-149.4999999999998
 20
-19.556625
 30
0.0
 40
0.5
 50
180.0
 51
239.99999999999989
  0
ARC
  5
1297
  8
240
 10
-147.86602600000001
 20
-20.500000000000011
 30
0.0
 40
0.5
 50
239.99999999999989
 51
270.0
  0
LINE
  5
1298
  8
240
 10
-149.7499999999998
 20
19.989636999999981
 30
0.0
 11
-148.11602600000001
 21
20.933011999999991
 31
0.0
  0
ARC
  5
1299
  8
240
 10
-149.4999999999998
 20
19.556623999999989
 30
0.0
 40
0.5
 50
120.0
 51
180.0
  0
ARC
  5
129A
  8
240
 10
-147.86602600000001
 20
20.5
 30
0.0
 40
0.5
 50
90.0
 51
120.0
  0
LINE
  5
129C
  8
240
 10
-0.1999999999999602
 20
-23.075526000000011
 30
0.0
 11
-0.1999999999999602
 21
22.979137999999971
 31
0.0
  0
LINE
  5
129E
  8
241
 10
-69.999999999999972
 20
21.000000000000011
 30
0.0
 11
-69.999999999999915
 21
-20.999999999999972
 31
0.0
  0
LINE
  5
129F
  8
241
 10
-59.999999999999972
 20
0.0
 30
0.0
 11
-59.999999999999972
 21
-33.500000000000007
 31
0.0
  0
LINE
  5
12A0
  8
241
 10
-0.5716030000000103
 20
-10.537224
 30
0.0
 11
-29.69999999999996
 21
-34.067743999999998
 31
0.0
  0
LINE
  5
12A1
  8
240
 10
-0.49289399999995
 20
-23.742894
 30
0.0
 11
-19.547282999999961
 21
-42.797283000000007
 31
0.0
  0
LINE
  5
12A2
  8
240
 10
-59.999999999999972
 20
-33.500000000000007
 30
0.0
 11
-59.999999999999972
 21
-42.58578700000001
 31
0.0
  0
LINE
  5
12A3
  8
241
 10
-51.999999999999972
 20
-47.000000000000007
 30
0.0
 11
-51.999999999999972
 21
-34.499142999999997
 31
0.0
  0
LINE
  5
12A4
  8
240
 10
-51.093662999999957
 20
-47.000000000000007
 30
0.0
 11
-19.695559999999968
 21
-42.94556
 31
0.0
  0
LINE
  5
12A5
  8
240
 10
-56.292893999999961
 20
-46.707106999999993
 30
0.0
 11
-59.707106999999972
 21
-43.29289399999999
 31
0.0
  0
ARC
  5
12A6
  8
240
 10
-58.999999999999972
 20
-42.58578700000001
 30
0.0
 40
1.0
 50
180.0
 51
224.9999999999996
  0
ARC
  5
12A7
  8
240
 10
-55.58578700000001
 20
-46.0
 30
0.0
 40
1.0
 50
224.9999999999996
 51
270.0
  0
LINE
  5
12A8
  8
240
 10
-51.093662999999957
 20
-47.000000000000007
 30
0.0
 11
-55.58578700000001
 21
-47.000000000000007
 31
0.0
  0
LINE
  5
12AA
  8
241
 10
-41.792020000000001
 20
-34.177660000000003
 30
0.0
 11
-49.634244000000002
 21
-32.718887000000009
 31
0.0
  0
LINE
  5
12AB
  8
240
 10
-69.999999999999972
 20
-31.500000000000011
 30
0.0
 11
-70.000000000000071
 21
-21.0
 31
0.0
  0
LINE
  5
12AC
  8
240
 10
-60.839100000000002
 20
-32.500000000000007
 30
0.0
 11
-68.999999999999972
 21
-32.500000000000007
 31
0.0
  0
LINE
  5
12AD
  8
240
 10
-60.839100000000002
 20
-32.500000000000007
 30
0.0
 11
-68.999999999999972
 21
-32.500000000000007
 31
0.0
  0
LINE
  5
12AE
  8
240
 10
-60.999999999999972
 20
-32.500000000000007
 30
0.0
 11
-68.999999999999972
 21
-32.500000000000007
 31
0.0
  0
ARC
  5
12AF
  8
240
 10
-68.999999999999972
 20
-31.500000000000011
 30
0.0
 40
1.0
 50
180.0
 51
270.0
  0
ARC
  5
12B0
  8
240
 10
-68.999999999999972
 20
-31.500000000000011
 30
0.0
 40
1.0
 50
180.0
 51
270.0
  0
ARC
  5
12B1
  8
240
 10
-60.999999999999972
 20
-33.500000000000007
 30
0.0
 40
1.0
 50
0.0
 51
90.0
  0
ARC
  5
12B2
  8
241
 10
-49.999999999999972
 20
-34.685158000000001
 30
0.0
 40
2.0
 50
79.462548999999242
 51
180.0
  0
LINE
  5
131D
  8
241
 10
-41.701357999999992
 20
-34.194524000000008
 30
0.0
 11
-30.232227999999989
 21
-34.194524000000008
 31
0.0
  0
ARC
  5
131E
  8
241
 10
-41.609141999999991
 20
-33.194524000000008
 30
0.0
 40
1.0
 50
259.46254899999923
 51
270.0
  0
ARC
  5
131F
  8
241
 10
-30.232227999999989
 20
-33.194524000000008
 30
0.0
 40
1.0
 50
270.0
 51
308.93199199999981
  0
ARC
  5
1321
  8
240
 10
-1.1999999999999591
 20
-23.03578700000001
 30
0.0
 40
1.0
 50
315.00000000000028
 51
0.0
  0
ARC
  5
1322
  8
240
 10
-1.1999999999999591
 20
-9.7593320000000006
 30
0.0
 40
1.0
 50
308.93199199999981
 51
0.0
  0
LINE
  5
1323
  8
241
 10
-17.822887000000001
 20
19.694353
 30
0.0
 11
-0.1999999999999602
 21
22.801743999999989
 31
0.0
  0
LINE
  5
1324
  8
241
 10
-0.2218359999999677
 20
15.5
 30
0.0
 11
-16.357864999999968
 21
15.5
 31
0.0
  0
LINE
  5
1326
  8
241
 10
-0.2343149999999525
 20
24.073973999999989
 30
0.0
 11
-26.260318999999949
 21
50.09999999999998
 31
0.0
  0
LINE
  5
1327
  8
240
 10
-59.999999999999972
 20
33.5
 30
0.0
 11
-59.999999999999972
 21
42.585785999999977
 31
0.0
  0
LINE
  5
1329
  8
241
 10
-23.428933000000001
 20
18.428931999999971
 30
0.0
 11
-52.057948999999979
 21
47.05794800000001
 31
0.0
  0
LINE
  5
132A
  8
241
 10
-18.527490999999959
 20
19.91651399999996
 30
0.0
 11
-38.161214000000001
 21
39.550236999999989
 31
0.0
  0
LINE
  5
132B
  8
241
 10
-59.999999999999972
 20
0.0
 30
0.0
 11
-59.999999999999972
 21
33.5
 31
0.0
  0
LINE
  5
132C
  8
240
 10
-60.999999999999972
 20
32.5
 30
0.0
 11
-68.999999999999972
 21
32.5
 31
0.0
  0
LINE
  5
132D
  8
240
 10
-69.999999999999972
 20
31.5
 30
0.0
 11
-69.999999999999915
 21
21.000000000000011
 31
0.0
  0
ARC
  5
132E
  8
240
 10
-68.999999999999972
 20
31.5
 30
0.0
 40
1.0
 50
90.0
 51
180.0
  0
ARC
  5
132F
  8
240
 10
-60.999999999999972
 20
33.5
 30
0.0
 40
1.0
 50
270.0
 51
0.0
  0
ARC
  5
1332
  8
241
 10
-16.357864999999968
 20
25.5
 30
0.0
 40
10.0
 50
224.9999999999996
 51
270.0
  0
ARC
  5
1333
  8
241
 10
-17.961805999999989
 20
20.482199000000001
 30
0.0
 40
0.8
 50
224.9999999999996
 51
279.99999999999852
  0
LINE
  5
1334
  8
240
 10
-51.535899000000001
 20
47.26794899999998
 30
0.0
 11
-42.071796999999961
 21
52.732049999999987
 31
0.0
  0
LINE
  5
1335
  8
240
 10
-56.292893999999961
 20
46.707105999999982
 30
0.0
 11
-59.707106999999972
 21
43.292892999999992
 31
0.0
  0
ARC
  5
1336
  8
240
 10
-58.999999999999972
 20
42.585785999999977
 30
0.0
 40
1.0
 50
135.0000000000002
 51
180.0
  0
ARC
  5
1337
  8
240
 10
-52.535899000000001
 20
49.0
 30
0.0
 40
2.0
 50
270.0
 51
300.0
  0
ARC
  5
1338
  8
240
 10
-55.58578700000001
 20
46.0
 30
0.0
 40
1.0
 50
90.0
 51
135.0000000000002
  0
LINE
  5
1339
  8
240
 10
-52.406534999999991
 20
47.0
 30
0.0
 11
-55.58578700000001
 21
47.0
 31
0.0
  0
ARC
  5
133A
  8
240
 10
-30.578427999999999
 20
51.0
 30
0.0
 40
2.0
 50
44.999999999999751
 51
90.0
  0
LINE
  5
133B
  8
240
 10
-27.056086999999959
 20
50.306085999999993
 30
0.0
 11
-29.164213999999991
 21
52.414212999999982
 31
0.0
  0
LINE
  5
133C
  8
241
 10
-44.126746999999988
 20
47.296067999999991
 30
0.0
 11
-27.056086999999959
 21
50.306085999999993
 31
0.0
  0
LINE
  5
133D
  8
241
 10
-38.161214000000001
 20
39.550236999999989
 30
0.0
 11
-44.553513999999957
 21
45.94253599999999
 31
0.0
  0
ARC
  5
133E
  8
241
 10
-43.987828000000007
 20
46.508221999999989
 30
0.0
 40
0.8
 50
99.999999999998565
 51
224.9999999999996
  0
LINE
  5
133F
  8
240
 10
-30.578427999999999
 20
53.0
 30
0.0
 11
-41.071796999999961
 21
53.0
 31
0.0
  0
ARC
  5
1340
  8
240
 10
-41.071796999999961
 20
51.0
 30
0.0
 40
2.0
 50
90.0
 51
120.0
  0
ARC
  5
1341
  8
241
 10
-26.826004999999981
 20
49.534313999999988
 30
0.0
 40
0.8
 50
44.999976999999653
 51
106.3935670000002
  0
ARC
  5
1342
  8
241
 10
-0.799999999999983
 20
23.508288999999991
 30
0.0
 40
0.8
 50
279.99999999999852
 51
44.999976999999653
  0
LINE
  5
1347
  8
241
 10
-23.428933000000001
 20
-29.001846708609769
 30
0.0
 11
-23.428933000000001
 21
18.428931999999971
 31
0.0
  0
LINE
  5
1348
  8
241
 10
-16.357864999999968
 20
-23.289692105822631
 30
0.0
 11
-16.357864999999968
 21
15.5
 31
0.0
  0
LINE
  5
1349
  8
241
 10
-55.999999999999943
 20
46.910179977054568
 30
0.0
 11
-55.999999999999943
 21
-46.910179977054568
 31
0.0
  0
VIEWPORT
  5
22
 67
     1
  8
0
 10
261.51769911504419
 20
148.5
 30
0.0
 40
523.0353982300885
 41
297.0
 68
     1
 69
     1
1001
ACAD
1000
MVIEW
1002
{
1070
    16
1010
0.0
1020
0.0
1030
0.0
1010
0.0
1020
0.0
1030
1.0
1040
0.0
1040
297.0
1040
261.51769911504419
1040
148.5
1040
50.0
1040
0.0
1040
0.0
1070
     0
1070
   100
1070
     1
1070
     1
1070
     0
1070
     0
1070
     0
1070
     0
1040
0.0
1040
0.0
1040
0.0
1040
1.0
1040
1.0
1040
10.0
1040
10.0
1070
     0
1002
{
1002
}
1002
}
1001
GENIUS_GENOBJ-N-SDF_13
1002
{
1000
OWNER
1000
GEN
1002
}
1001
GENIUS_GENODEF_13
1002
{
1000
HIER
1070
     0
1002
}
1002
{
1000
MANEDIT
1070
     0
1002
}
1002
{
1000
NOSEL
1070
     0
1002
}
1002
{
1000
BEHIND
1070
     0
1002
}
1002
{
1000
OTHER
1070
     0
1002
}
1002
{
1000
REACTOR
1002
}
1001
GENIUS_GENSCREG_15
1000
PF
1040
1.0
1000
DF
1040
1.0
1000
MIN
1011
0.0
1021
0.0
1031
0.0
1021
0.0
1031
0.0
1000
MAX
1011
523.0353982300885
1021
0.0
1031
0.0
1021
297.0
1031
0.0
1000
FLAGS
1070
     4
  0
ENDSEC
  0
EOF
