  0
SECTION
  2
HEADER
  9
$ACADVER
  1
AC1009
  9
$INSBASE
 10
0.0
 20
0.0
 30
0.0
  9
$EXTMIN
 10
-200.7024989317899
 20
-16.044158465280361
 30
-0.0000000349181948
  9
$EXTMAX
 10
16.84945715247818
 20
61.004333811584331
 30
0.0000000814935746
  9
$LIMMIN
 10
0.0
 20
0.0
  9
$LIMMAX
 10
297.0
 20
210.0
  9
$ORTHOMODE
 70
     0
  9
$REGENMODE
 70
     1
  9
$FILLMODE
 70
     1
  9
$QTEXTMODE
 70
     0
  9
$MIRRTEXT
 70
     1
  9
$DRAGMODE
 70
     2
  9
$LTSCALE
 40
10.0
  9
$OSMODE
 70
    39
  9
$ATTMODE
 70
     1
  9
$TEXTSIZE
 40
3.0
  9
$TRACEWID
 40
1.0
  9
$TEXTSTYLE
  7
YOKO
  9
$CLAYER
  8
240
  9
$CELTYPE
  6
BYLAYER
  9
$CECOLOR
 62
   256
  9
$DIMSCALE
 40
1.0
  9
$DIMASZ
 40
2.2299999999999991
  9
$DIMEXO
 40
0.5
  9
$DIMDLI
 40
7.0
  9
$DIMRND
 40
0.0
  9
$DIMDLE
 40
0.0
  9
$DIMEXE
 40
1.0
  9
$DIMTP
 40
0.0
  9
$DIMTM
 40
0.01
  9
$DIMTXT
 40
2.7999999999999989
  9
$DIMCEN
 40
0.0
  9
$DIMTSZ
 40
0.0
  9
$DIMTOL
 70
     0
  9
$DIMLIM
 70
     0
  9
$DIMTIH
 70
     0
  9
$DIMTOH
 70
     0
  9
$DIMSE1
 70
     0
  9
$DIMSE2
 70
     0
  9
$DIMTAD
 70
     3
  9
$DIMZIN
 70
     9
  9
$DIMBLK
  1
OPEN
  9
$DIMASO
 70
     1
  9
$DIMSHO
 70
     1
  9
$DIMPOST
  1

  9
$DIMAPOST
  1

  9
$DIMALT
 70
     0
  9
$DIMALTD
 70
     2
  9
$DIMALTF
 40
25.399999999999999
  9
$DIMLFAC
 40
1.0
  9
$DIMTOFL
 70
     1
  9
$DIMTVP
 40
0.0
  9
$DIMTIX
 70
     1
  9
$DIMSOXD
 70
     0
  9
$DIMSAH
 70
     0
  9
$DIMBLK1
  1

  9
$DIMBLK2
  1

  9
$DIMSTYLE
  2
BIGT
  9
$DIMCLRD
 70
   256
  9
$DIMCLRE
 70
   256
  9
$DIMCLRT
 70
    40
  9
$DIMTFAC
 40
1.0
  9
$DIMGAP
 40
1.0
  9
$LUNITS
 70
     2
  9
$LUPREC
 70
     3
  9
$SKETCHINC
 40
1.0
  9
$FILLETRAD
 40
0.0
  9
$AUNITS
 70
     0
  9
$AUPREC
 70
     3
  9
$MENU
  1
.
  9
$ELEVATION
 40
0.0
  9
$PELEVATION
 40
0.0
  9
$THICKNESS
 40
0.0
  9
$LIMCHECK
 70
     0
  9
$BLIPMODE
 70
     0
  9
$CHAMFERA
 40
0.25
  9
$CHAMFERB
 40
0.25
  9
$SKPOLY
 70
     0
  9
$TDCREATE
 40
2456114.7097692359
  9
$TDUPDATE
 40
2456115.3954667128
  9
$TDINDWG
 40
0.0163355671
  9
$TDUSRTIMER
 40
0.0163355671
  9
$USRTIMER
 70
     1
  9
$ANGBASE
 50
0.0
  9
$ANGDIR
 70
     0
  9
$PDMODE
 70
     1
  9
$PDSIZE
 40
0.0
  9
$PLINEWID
 40
0.0
  9
$COORDS
 70
     0
  9
$SPLFRAME
 70
     0
  9
$SPLINETYPE
 70
     6
  9
$SPLINESEGS
 70
     4
  9
$ATTDIA
 70
     1
  9
$ATTREQ
 70
     1
  9
$HANDLING
 70
     1
  9
$HANDSEED
  5
19F9
  9
$SURFTAB1
 70
     6
  9
$SURFTAB2
 70
     6
  9
$SURFTYPE
 70
     6
  9
$SURFU
 70
     6
  9
$SURFV
 70
     6
  9
$UCSNAME
  2

  9
$UCSORG
 10
0.0
 20
0.0
 30
0.0
  9
$UCSXDIR
 10
1.0
 20
0.0
 30
0.0
  9
$UCSYDIR
 10
0.0
 20
1.0
 30
0.0
  9
$PUCSNAME
  2

  9
$PUCSORG
 10
0.0
 20
0.0
 30
0.0
  9
$PUCSXDIR
 10
1.0
 20
0.0
 30
0.0
  9
$PUCSYDIR
 10
0.0
 20
1.0
 30
0.0
  9
$USERI1
 70
     1
  9
$USERI2
 70
     0
  9
$USERI3
 70
     0
  9
$USERI4
 70
     0
  9
$USERI5
 70
     0
  9
$USERR1
 40
0.0
  9
$USERR2
 40
0.0
  9
$USERR3
 40
0.0
  9
$USERR4
 40
0.0
  9
$USERR5
 40
0.0
  9
$WORLDVIEW
 70
     1
  9
$SHADEDGE
 70
     3
  9
$SHADEDIF
 70
    70
  9
$TILEMODE
 70
     1
  9
$MAXACTVP
 70
    16
  9
$PLIMCHECK
 70
     0
  9
$PEXTMIN
 10
1.0000000000000000E+020
 20
1.0000000000000000E+020
 30
1.0000000000000000E+020
  9
$PEXTMAX
 10
-1.0000000000000000E+020
 20
-1.0000000000000000E+020
 30
-1.0000000000000000E+020
  9
$PLIMMIN
 10
0.0
 20
0.0
  9
$PLIMMAX
 10
420.0
 20
297.0
  9
$UNITMODE
 70
     0
  9
$VISRETAIN
 70
     1
  9
$PLINEGEN
 70
     0
  9
$PSLTSCALE
 70
     1
  0
ENDSEC
  0
SECTION
  2
TABLES
  0
TABLE
  2
VPORT
 70
    12
  0
VPORT
  2
*ACTIVE
 70
     0
 10
0.0
 20
0.0
 11
1.0
 21
1.0
 12
-91.926520889655848
 22
22.480087673151981
 13
0.0
 23
0.0
 14
7.0
 24
7.0
 15
7.0
 25
7.0
 16
0.0
 26
0.0
 36
1.0
 17
0.0
 27
0.0
 37
0.0
 40
141.3205285615586
 41
1.5459518599562361
 42
50.0
 43
0.0
 44
0.0
 50
0.0
 51
0.0
 71
     0
 72
  2000
 73
     1
 74
     0
 75
     0
 76
     1
 77
     0
 78
     0
  0
ENDTAB
  0
TABLE
  2
LTYPE
 70
    15
  0
LTYPE
  2
CONTINUOUS
 70
     0
  3
Solid line
 72
    65
 73
     0
 40
0.0
  0
LTYPE
  2
CENTER2
 70
     0
  3
___ _ ___ _ ___ _ ___ _ ___ _ ___ _ ___ _ ___ _
 72
    65
 73
     4
 40
1.125
 49
0.75
 49
-0.125
 49
0.125
 49
-0.125
  0
LTYPE
  2
HIDDEN2
 70
     0
  3
_ _ _ _ _ _ _ _ _ _ _ _ _ _ _ _ _ _ _ _ _ _ _ _
 72
    65
 73
     2
 40
0.1875
 49
0.125
 49
-0.0625
  0
LTYPE
  2
PHANTOM2
 70
     0
  3
___ _ _ ___ _ _ ___ _ _ ___ _ _ ___ _ _ ___ _ _
 72
    65
 73
     6
 40
1.25
 49
0.625
 49
-0.125
 49
0.125
 49
-0.125
 49
0.125
 49
-0.125
  0
LTYPE
  2
CENTER
 70
     0
  3
____ _ ____ _ ____ _ ____ _ ____ _ ____ _ ____ 
 72
    65
 73
     4
 40
2.0
 49
1.25
 49
-0.25
 49
0.25
 49
-0.25
  0
LTYPE
  2
AM_ISO02W050
 70
     0
  3
__ __ __ __ __ __ __ __ __ __ __ __ __ __ __
 72
    65
 73
     2
 40
7.5
 49
6.0
 49
-1.5
  0
LTYPE
  2
AMCONSTR
 70
     0
  3
_______________________
 72
    65
 73
     2
 40
9999.0
 49
9999.0
 49
0.0
  0
LTYPE
  2
ACISOWELD
 70
     0
  3
_ _ _ _ _
 72
    65
 73
     2
 40
2.0
 49
2.0
 49
-1.0
  0
LTYPE
  2
ACISOTGB
 70
     0
  3
__ . . __ . .
 72
    65
 73
     6
 40
9.0
 49
4.0
 49
-1.0
 49
1.0
 49
-1.0
 49
1.0
 49
-1.0
  0
LTYPE
  2
ACISOTGL
 70
     0
  3
_ _ _ _ _
 72
    65
 73
     2
 40
3.0
 49
2.0
 49
-1.0
  0
LTYPE
  2
ACJISTGB
 70
     0
  3
__ . . __ . .
 72
    65
 73
     6
 40
9.0
 49
4.0
 49
-1.0
 49
1.0
 49
-1.0
 49
1.0
 49
-1.0
  0
LTYPE
  2
ACJISTGL
 70
     0
  3
_ _ _ _ _
 72
    65
 73
     2
 40
3.0
 49
2.0
 49
-1.0
  0
LTYPE
  2
HIDDEN
 70
     0
  3
Hidden __ __ __ __ __ __ __ __ __ __ __ __ __ _
 72
    65
 73
     2
 40
9.5249999999999986
 49
6.3499999999999988
 49
-3.1749999999999989
  0
ENDTAB
  0
TABLE
  2
LAYER
 70
     8
  0
LAYER
  2
0
 70
     0
 62
     7
  6
CONTINUOUS
  0
LAYER
  2
DEFPOINTS
 70
     0
 62
     7
  6
CONTINUOUS
  0
LAYER
  2
245
 70
     0
 62
     2
  6
CENTER2
  0
LAYER
  2
240
 70
     0
 62
     4
  6
CONTINUOUS
  0
LAYER
  2
241
 70
     0
 62
   211
  6
CONTINUOUS
  0
LAYER
  2
242
 70
     0
 62
     3
  6
CONTINUOUS
  0
LAYER
  2
250
 70
     0
 62
     3
  6
CONTINUOUS
  0
ENDTAB
  0
TABLE
  2
STYLE
 70
     8
  0
STYLE
  2
STANDARD
 70
     0
 40
0.0
 41
1.0
 50
0.0
 71
     0
 42
3.0
  3
romans.shx
  4
extfont.shx
  0
STYLE
  2
ACISOTS
 70
     0
 40
1.0
 41
1.0
 50
0.0
 71
     0
 42
3.0
  3
amgdt.shx
  4
extfont.shx
  0
STYLE
  2
ACISOGDT
 70
     0
 40
0.0
 41
1.0
 50
0.0
 71
     0
 42
3.0
  3
amgdt.shx
  4
extfont.shx
  0
STYLE
  2
ACJISTS
 70
     0
 40
1.0
 41
1.0
 50
0.0
 71
     0
 42
3.0
  3
amgdt.shx
  4
extfont.shx
  0
STYLE
  2
ACJISGDT
 70
     0
 40
0.0
 41
1.0
 50
0.0
 71
     0
 42
3.0
  3
amgdt.shx
  4
extfont.shx
  0
STYLE
  2
YOKO
 70
     0
 40
0.0
 41
1.0
 50
0.0
 71
     0
 42
3.0
  3
romans.shx
  4
extfont.shx
  0
ENDTAB
  0
TABLE
  2
VIEW
 70
     0
  0
ENDTAB
  0
TABLE
  2
UCS
 70
     0
  0
ENDTAB
  0
TABLE
  2
APPID
 70
    28
  0
APPID
  2
ACAD
 70
     0
  0
APPID
  2
GLOBAL
 70
     0
  0
APPID
  2
DETAIL
 70
     0
  0
APPID
  2
GRPNAME
 70
     0
  0
APPID
  2
GPARA
 70
     0
  0
APPID
  2
MCAD_NO_VIS
 70
     0
  0
APPID
  2
ACAD_TEMP_GRAPHIC
 70
     0
  0
APPID
  2
ACATTRIBSERVICES
 70
     0
  0
APPID
  2
GENIUS_GENSCREG_15
 70
     0
  0
APPID
  2
GENIUS_GENODEF_13
 70
     0
  0
APPID
  2
GENIUS_GENOBJ-N-SDF_13
 70
     0
  0
APPID
  2
GENIUS_GENREC_14
 70
     0
  0
APPID
  2
GENIUS_GENOBJ-N-REC_13
 70
     0
  0
APPID
  2
GENIUS_GENDIMSH_14
 70
     0
  0
APPID
  2
GENIUS_GENOBJ-N-DIM_13
 70
     0
  0
APPID
  2
GENIUS_GENDIM_13
 70
     0
  0
APPID
  2
GENIUS_GENDTOL_13
 70
     0
  0
APPID
  2
GENIUS_GENOLIS_13
 70
     0
  0
APPID
  2
GENIUS_GENOENT_13
 70
     0
  0
APPID
  2
GENIUS_GENOBJ-F-FEM_13
 70
     0
  0
APPID
  2
GENIUS_GENOREF_13
 70
     0
  0
APPID
  2
GENIUS_GEFFEM_13
 70
     0
  0
APPID
  2
GENIUS_GEFFEMP_13
 70
     0
  0
APPID
  2
AD_DRAW
 70
     0
  0
APPID
  2
DESIGNERASSEMBLIES
 70
     0
  0
APPID
  2
ACADM_DIM_EDIT
 70
     0
  0
APPID
  2
AMDT_DM_ADJ
 70
     0
  0
APPID
  2
GENIUS_GENOBJ-N-FIL_13
 70
     0
  0
ENDTAB
  0
TABLE
  2
DIMSTYLE
 70
    29
  0
DIMSTYLE
  2
BIGT
 70
     0
  3

  4

  5
OPEN
  6

  7

 40
1.0
 41
2.2299999999999991
 42
0.5
 43
7.0
 44
1.0
 45
0.0
 46
0.0
 47
0.0
 48
0.01
140
2.7999999999999989
141
0.0
142
0.0
143
25.399999999999999
144
1.0
145
0.0
146
1.0
147
1.0
 71
     0
 72
     0
 73
     0
 74
     0
 75
     0
 76
     0
 77
     3
 78
     9
170
     0
171
     2
172
     1
173
     0
174
     1
175
     0
176
   256
177
   256
178
    40
  0
DIMSTYLE
  2
AM_ISO
 70
     0
  3

  4
"
  5

  6

  7

 40
1.0
 41
2.5
 42
1.0
 43
10.0
 44
1.0
 45
0.0
 46
0.0
 47
0.1
 48
0.1
140
3.5
141
0.0
142
0.0
143
0.0393701
144
1.0
145
0.0
146
0.71
147
1.5
 71
     0
 72
     0
 73
     0
 74
     0
 75
     0
 76
     0
 77
     1
 78
     8
170
     0
171
     2
172
     1
173
     0
174
     0
175
     0
176
   256
177
   256
178
     2
  0
DIMSTYLE
  2
AM_ISO$3
 70
     0
  3

  4
"
  5

  6

  7

 40
1.0
 41
2.5
 42
1.0
 43
10.0
 44
1.0
 45
0.0
 46
0.0
 47
0.1
 48
0.1
140
3.5
141
0.0
142
0.0
143
0.0393701
144
1.0
145
0.0
146
0.71
147
1.5
 71
     0
 72
     0
 73
     0
 74
     1
 75
     0
 76
     0
 77
     1
 78
     8
170
     0
171
     2
172
     0
173
     0
174
     0
175
     0
176
   256
177
   256
178
     2
  0
DIMSTYLE
  2
AM_ISO$4
 70
     0
  3

  4
"
  5

  6

  7

 40
1.0
 41
2.5
 42
1.0
 43
10.0
 44
1.0
 45
0.0
 46
0.0
 47
0.1
 48
0.1
140
3.5
141
0.0
142
0.0
143
0.0393701
144
1.0
145
0.0
146
0.71
147
1.5
 71
     0
 72
     0
 73
     0
 74
     1
 75
     0
 76
     0
 77
     1
 78
     8
170
     0
171
     2
172
     0
173
     0
174
     0
175
     0
176
   256
177
   256
178
     2
  0
DIMSTYLE
  2
AM_ISO$6
 70
     0
  3

  4
"
  5

  6

  7

 40
1.0
 41
2.5
 42
1.0
 43
10.0
 44
1.0
 45
0.0
 46
0.0
 47
0.1
 48
0.1
140
3.5
141
0.0
142
0.0
143
0.0393701
144
1.0
145
0.0
146
0.71
147
1.5
 71
     0
 72
     0
 73
     0
 74
     0
 75
     0
 76
     0
 77
     0
 78
     8
170
     0
171
     2
172
     1
173
     0
174
     0
175
     0
176
   256
177
   256
178
     2
  0
DIMSTYLE
  2
AM_ISO$7
 70
     0
  3

  4
"
  5

  6

  7

 40
1.0
 41
2.5
 42
1.0
 43
10.0
 44
1.0
 45
0.0
 46
0.0
 47
0.1
 48
0.1
140
5.0
141
0.0
142
0.0
143
0.0393701
144
1.0
145
0.0
146
0.71
147
1.5
 71
     0
 72
     0
 73
     0
 74
     0
 75
     0
 76
     0
 77
     1
 78
     8
170
     0
171
     2
172
     1
173
     0
174
     0
175
     0
176
   256
177
   256
178
     2
  0
DIMSTYLE
  2
AM_ISO$SF
 70
     0
  3

  4
"
  5

  6

  7

 40
1.0
 41
2.5
 42
1.0
 43
10.0
 44
1.0
 45
0.0
 46
0.0
 47
0.1
 48
0.1
140
3.5
141
0.0
142
0.0
143
0.0393701
144
1.0
145
0.0
146
0.71
147
1.5
 71
     0
 72
     0
 73
     0
 74
     0
 75
     1
 76
     1
 77
     1
 78
     8
170
     0
171
     2
172
     1
173
     0
174
     0
175
     0
176
   256
177
   256
178
     2
  0
DIMSTYLE
  2
AM_ISO$SH
 70
     0
  3

  4
"
  5

  6
GENAXEH
  7

 40
1.0
 41
2.5
 42
1.0
 43
10.0
 44
1.0
 45
0.0
 46
0.0
 47
0.1
 48
0.1
140
3.5
141
0.0
142
0.0
143
0.0393701
144
2.0
145
0.0
146
0.71
147
1.5
 71
     0
 72
     0
 73
     0
 74
     0
 75
     1
 76
     1
 77
     1
 78
     8
170
     0
171
     2
172
     1
173
     1
174
     0
175
     0
176
   256
177
   256
178
     2
  0
DIMSTYLE
  2
BIGT$2
 70
     0
  3

  4

  5
OPEN
  6

  7

 40
1.0
 41
2.2299999999999991
 42
0.5
 43
7.0
 44
1.0
 45
0.0
 46
0.0
 47
0.0
 48
0.01
140
2.7999999999999989
141
0.0
142
0.0
143
25.399999999999999
144
1.0
145
0.0
146
1.0
147
1.0
 71
     0
 72
     0
 73
     0
 74
     0
 75
     0
 76
     0
 77
     3
 78
     9
170
     0
171
     2
172
     1
173
     0
174
     0
175
     0
176
   256
177
   256
178
    40
  0
DIMSTYLE
  2
BIGT$3
 70
     0
  3

  4

  5
OPEN
  6

  7

 40
1.0
 41
2.2299999999999991
 42
0.5
 43
2.5
 44
1.0
 45
0.0
 46
0.0
 47
0.0
 48
0.01
140
2.7999999999999989
141
0.0
142
0.0
143
25.399999999999999
144
1.0
145
0.0
146
1.0
147
1.0
 71
     0
 72
     0
 73
     0
 74
     0
 75
     0
 76
     0
 77
     3
 78
     9
170
     0
171
     2
172
     1
173
     0
174
     0
175
     0
176
   256
177
   256
178
    40
  0
DIMSTYLE
  2
BIGT$7
 70
     0
  3

  4

  5
OPEN
  6

  7

 40
0.0
 41
2.2299999999999991
 42
0.5
 43
7.0
 44
1.0
 45
0.0
 46
0.0
 47
0.0
 48
0.01
140
2.7999999999999989
141
0.0
142
0.0
143
25.399999999999999
144
1.0
145
0.0
146
1.0
147
1.0
 71
     0
 72
     0
 73
     0
 74
     0
 75
     0
 76
     0
 77
     3
 78
     9
170
     0
171
     2
172
     0
173
     0
174
     0
175
     0
176
   256
177
   256
178
    40
  0
DIMSTYLE
  2
BIGT$6
 70
     0
  3

  4

  5
OPEN
  6

  7

 40
1.0
 41
2.2299999999999991
 42
0.5
 43
2.5
 44
1.0
 45
0.0
 46
0.0
 47
0.0
 48
0.01
140
2.7999999999999989
141
0.0
142
0.0
143
25.399999999999999
144
1.0
145
0.0
146
1.0
147
1.0
 71
     0
 72
     0
 73
     0
 74
     0
 75
     0
 76
     0
 77
     3
 78
     9
170
     0
171
     2
172
     1
173
     0
174
     0
175
     0
176
   256
177
   256
178
    40
  0
DIMSTYLE
  2
BIGT$0
 70
     0
  3

  4

  5
OPEN
  6

  7

 40
1.0
 41
2.2299999999999991
 42
0.5
 43
7.0
 44
1.0
 45
0.0
 46
0.0
 47
0.0
 48
0.01
140
2.7999999999999989
141
0.0
142
0.0
143
25.399999999999999
144
1.0
145
0.0
146
1.0
147
1.0
 71
     0
 72
     0
 73
     0
 74
     0
 75
     0
 76
     0
 77
     3
 78
     9
170
     0
171
     2
172
     1
173
     0
174
     0
175
     0
176
   256
177
   256
178
    40
  0
DIMSTYLE
  2
BIGT$4
 70
     0
  3

  4

  5
OPEN
  6

  7

 40
1.0
 41
2.2299999999999991
 42
0.5
 43
2.5
 44
1.0
 45
0.0
 46
0.0
 47
0.0
 48
0.01
140
2.7999999999999989
141
0.0
142
0.0
143
25.399999999999999
144
1.0
145
0.0
146
1.0
147
1.0
 71
     0
 72
     0
 73
     0
 74
     0
 75
     0
 76
     0
 77
     3
 78
     9
170
     0
171
     2
172
     1
173
     0
174
     0
175
     0
176
   256
177
   256
178
    40
  0
DIMSTYLE
  2
BIGT$SH
 70
     0
  3

  4

  5
OPEN
  6

  7

 40
1.0
 41
2.2299999999999991
 42
0.5
 43
7.0
 44
1.0
 45
0.0
 46
0.0
 47
0.0
 48
0.0
140
2.7999999999999989
141
0.0
142
0.0
143
25.399999999999999
144
1.0
145
0.0
146
1.0
147
1.0
 71
     0
 72
     0
 73
     0
 74
     0
 75
     0
 76
     0
 77
     3
 78
     9
170
     0
171
     2
172
     1
173
     0
174
     0
175
     0
176
   256
177
   256
178
    40
  0
DIMSTYLE
  2
BIGT$SF
 70
     0
  3

  4

  5
OPEN
  6

  7

 40
1.0
 41
2.2299999999999991
 42
0.5
 43
7.0
 44
1.0
 45
0.0
 46
0.0
 47
0.0
 48
0.0
140
2.7999999999999989
141
0.0
142
0.0
143
25.399999999999999
144
1.0
145
0.0
146
1.0
147
1.0
 71
     0
 72
     0
 73
     0
 74
     0
 75
     0
 76
     0
 77
     3
 78
     9
170
     0
171
     2
172
     1
173
     0
174
     0
175
     0
176
   256
177
   256
178
    40
  0
DIMSTYLE
  2
TECHNICAL_OSAKA
 70
     0
  3

  4
"
  5
OPEN30
  6

  7

 40
1.0
 41
2.5
 42
1.0
 43
10.0
 44
1.0
 45
0.0
 46
0.0
 47
0.1
 48
0.1
140
2.7999999999999989
141
0.0
142
0.0
143
0.0393701
144
1.0
145
0.0
146
0.71
147
1.5
 71
     0
 72
     0
 73
     0
 74
     0
 75
     0
 76
     0
 77
     3
 78
     8
170
     0
171
     2
172
     1
173
     0
174
     0
175
     0
176
   256
177
   256
178
    40
  0
DIMSTYLE
  2
TECHNICAL_OSAKA$3
 70
     0
  3

  4
"
  5
OPEN30
  6

  7

 40
1.0
 41
2.5
 42
1.0
 43
10.0
 44
1.0
 45
0.0
 46
0.0
 47
0.1
 48
0.1
140
2.7999999999999989
141
0.0
142
0.0
143
0.0393701
144
1.0
145
0.0
146
0.71
147
1.5
 71
     0
 72
     0
 73
     0
 74
     1
 75
     0
 76
     0
 77
     3
 78
     8
170
     0
171
     2
172
     0
173
     0
174
     0
175
     0
176
   256
177
   256
178
    40
  0
DIMSTYLE
  2
TECHNICAL_OSAKA$4
 70
     0
  3

  4
"
  5
OPEN30
  6

  7

 40
1.0
 41
2.5
 42
1.0
 43
10.0
 44
1.0
 45
0.0
 46
0.0
 47
0.1
 48
0.1
140
2.7999999999999989
141
0.0
142
0.0
143
0.0393701
144
1.0
145
0.0
146
0.71
147
1.5
 71
     0
 72
     0
 73
     0
 74
     1
 75
     0
 76
     0
 77
     3
 78
     8
170
     0
171
     2
172
     0
173
     0
174
     0
175
     0
176
   256
177
   256
178
    40
  0
DIMSTYLE
  2
TECHNICAL_OSAKA$6
 70
     0
  3

  4
"
  5
OPEN30
  6

  7

 40
1.0
 41
2.5
 42
1.0
 43
10.0
 44
1.0
 45
0.0
 46
0.0
 47
0.1
 48
0.1
140
2.7999999999999989
141
0.0
142
0.0
143
0.0393701
144
1.0
145
0.0
146
0.71
147
1.5
 71
     0
 72
     0
 73
     0
 74
     0
 75
     0
 76
     0
 77
     0
 78
     8
170
     0
171
     2
172
     1
173
     0
174
     0
175
     0
176
   256
177
   256
178
    40
  0
DIMSTYLE
  2
TECHNICAL_OSAKA$7
 70
     0
  3

  4
"
  5
OPEN30
  6

  7

 40
1.0
 41
2.5
 42
1.0
 43
10.0
 44
1.0
 45
0.0
 46
0.0
 47
0.1
 48
0.1
140
2.7999999999999989
141
0.0
142
0.0
143
0.0393701
144
1.0
145
0.0
146
0.71
147
1.5
 71
     0
 72
     0
 73
     0
 74
     0
 75
     0
 76
     0
 77
     3
 78
     8
170
     0
171
     2
172
     1
173
     0
174
     0
175
     0
176
   256
177
   256
178
    40
  0
DIMSTYLE
  2
TECHNICAL_OSAKA$SF
 70
     0
  3

  4
"
  5
OPEN30
  6
OPEN30
  7
OPEN30
 40
1.0
 41
2.5
 42
1.0
 43
10.0
 44
1.0
 45
0.0
 46
0.0
 47
0.1
 48
0.1
140
3.5
141
0.0
142
0.0
143
0.0393701
144
1.0
145
0.0
146
0.71
147
1.5
 71
     0
 72
     0
 73
     0
 74
     0
 75
     1
 76
     1
 77
     3
 78
     8
170
     0
171
     2
172
     1
173
     0
174
     0
175
     0
176
   256
177
   256
178
    40
  0
DIMSTYLE
  2
TECHNICAL_OSAKA$SH
 70
     0
  3

  4
"
  5
OPEN30
  6
GENAXEH
  7
OPEN30
 40
1.0
 41
2.5
 42
1.0
 43
10.0
 44
1.0
 45
0.0
 46
0.0
 47
0.1
 48
0.1
140
3.5
141
0.0
142
0.0
143
0.0393701
144
2.0
145
0.0
146
0.71
147
1.5
 71
     0
 72
     0
 73
     0
 74
     0
 75
     1
 76
     1
 77
     3
 78
     8
170
     0
171
     2
172
     1
173
     1
174
     0
175
     0
176
   256
177
   256
178
    40
  0
ENDTAB
  0
ENDSEC
  0
SECTION
  2
BLOCKS
  0
BLOCK
  8
0
  2
$MODEL_SPACE
 70
     0
 10
0.0
 20
0.0
 30
0.0
  3
$MODEL_SPACE
  1

  0
ENDBLK
  5
1C
  8
0
  0
BLOCK
 67
     1
  8
0
  2
$PAPER_SPACE
 70
     0
 10
0.0
 20
0.0
 30
0.0
  3
$PAPER_SPACE
  1

  0
ENDBLK
  5
19
 67
     1
  8
0
  0
BLOCK
  8
0
  2
_OPEN
 70
     0
 10
0.0
 20
0.0
 30
0.0
  3
_OPEN
  1

  0
LINE
  5
1984
  8
0
  6
BYBLOCK
 62
     0
 10
-1.0
 20
0.1666666666666666
 30
0.0
 11
0.0
 21
0.0
 31
0.0
  0
LINE
  5
1985
  8
0
  6
BYBLOCK
 62
     0
 10
-1.0
 20
-0.1666666666666666
 30
0.0
 11
0.0
 21
0.0
 31
0.0
  0
LINE
  5
1986
  8
0
  6
BYBLOCK
 62
     0
 10
0.0
 20
0.0
 30
0.0
 11
-1.0
 21
0.0
 31
0.0
  0
ENDBLK
  5
1987
  8
0
  0
BLOCK
  8
0
  2
GENAXEH
 70
     0
 10
0.0
 20
0.0
 30
0.0
  3
GENAXEH
  1

  0
LINE
  5
19AF
  8
0
 10
-1.0
 20
0.0
 30
0.0
 11
1.0
 21
0.0
 31
0.0
  0
ENDBLK
  5
19B0
  8
0
  0
BLOCK
  8
0
  2
_OPEN30
 70
     0
 10
0.0
 20
0.0
 30
0.0
  3
_OPEN30
  1

  0
LINE
  5
19D4
  8
0
  6
BYBLOCK
 62
     0
 10
-1.0
 20
0.26794919
 30
0.0
 11
0.0
 21
0.0
 31
0.0
  0
LINE
  5
19D5
  8
0
  6
BYBLOCK
 62
     0
 10
0.0
 20
0.0
 30
0.0
 11
-1.0
 21
-0.26794919
 31
0.0
  0
LINE
  5
19D6
  8
0
  6
BYBLOCK
 62
     0
 10
0.0
 20
0.0
 30
0.0
 11
-1.0
 21
0.0
 31
0.0
  0
ENDBLK
  5
19D7
  8
0
  0
ENDSEC
  0
SECTION
  2
ENTITIES
  0
LINE
  5
1477
  8
245
 10
2.9999999999999432
 20
0.0000000000000426
 30
0.0
 11
-181.99999999999989
 21
-0.0000000000023164
 31
0.0
  0
LINE
  5
14AF
  8
241
 10
-45.999999999999801
 20
-15.731716522001729
 30
0.0
 11
-46.000000000000199
 21
15.73171652200058
 31
0.0
  0
LINE
  5
14B0
  8
241
  6
CONTINUOUS
 10
-47.999999999999822
 20
-15.87616986092144
 30
0.0
 11
-48.00000000000022
 21
15.98171652200052
 31
0.0
  0
LINE
  5
14B3
  8
241
  6
CONTINUOUS
 10
-177.9999999999998
 20
-15.702738620158801
 30
0.0
 11
-178.0000000000002
 21
15.80325212633487
 31
0.0
  0
LINE
  5
14B4
  8
240
  6
CONTINUOUS
 10
-179.9999999999998
 20
-14.55662432702821
 30
0.0
 11
-180.0000000000002
 21
14.55662432702373
 31
0.0
  0
LINE
  5
14B5
  8
240
 10
-47.30717967697268
 20
-15.600000000000581
 30
0.0
 11
-46.259807621135558
 21
-15.60000000000046
 31
0.0
  0
LINE
  5
14B8
  8
240
 10
-46.259807621135558
 20
-15.60000000000046
 30
0.0
 11
-45.999999999999773
 21
-15.750000000000551
 31
0.0
  0
LINE
  5
14BC
  8
240
  6
CONTINUOUS
 10
-47.999999999999659
 20
-16.000000000000611
 30
0.0
 11
-47.30717967697268
 21
-15.600000000000581
 31
0.0
  0
LINE
  5
14BE
  8
240
  6
CONTINUOUS
 10
-47.999999999999659
 20
-16.000000000000611
 30
0.0
 11
-177.7320508075687
 21
-16.00000000000222
 31
0.0
  0
ARC
  5
14BF
  8
240
  6
CONTINUOUS
 10
-179.4999999999998
 20
-14.556624327028199
 30
0.0
 40
0.499999999999998
 50
180.00000000000071
 51
240.00000000000071
  0
LINE
  5
14C0
  8
240
  6
CONTINUOUS
 10
-178.23205080756881
 20
-15.866025403786679
 30
0.0
 11
-179.7499999999998
 21
-14.989637028920431
 31
0.0
  0
ARC
  5
14C1
  8
240
  6
CONTINUOUS
 10
-177.7320508075687
 20
-15.00000000000222
 30
0.0
 40
1.0
 50
240.00000000000071
 51
270.00000000000068
  0
LINE
  5
14CA
  8
240
 10
-47.307179676973107
 20
15.59999999999938
 30
0.0
 11
-46.259807621135991
 21
15.5999999999993
 31
0.0
  0
LINE
  5
14CC
  8
240
 10
-46.259807621135991
 20
15.5999999999993
 30
0.0
 11
-46.000000000000249
 21
15.74999999999933
 31
0.0
  0
LINE
  5
14D0
  8
240
  6
CONTINUOUS
 10
-48.000000000000028
 20
15.999999999999361
 30
0.0
 11
-47.307179676973107
 21
15.59999999999938
 31
0.0
  0
LINE
  5
14D2
  8
240
  6
CONTINUOUS
 10
-48.000000000000028
 20
15.999999999999361
 30
0.0
 11
-177.73205080756921
 21
15.999999999997801
 31
0.0
  0
LINE
  5
14D3
  8
240
  6
CONTINUOUS
 10
-179.75000000000011
 20
14.98963702891596
 30
0.0
 11
-178.23205080756921
 21
15.86602540378219
 31
0.0
  0
ARC
  5
14D4
  8
240
  6
CONTINUOUS
 10
-177.7320508075691
 20
14.99999999999779
 30
0.0
 40
0.9999999999999959
 50
90.000000000000725
 51
120.0000000000008
  0
ARC
  5
14D5
  8
240
  6
CONTINUOUS
 10
-179.50000000000011
 20
14.55662432702373
 30
0.0
 40
0.5
 50
120.0000000000008
 51
180.00000000000071
  0
LINE
  5
14DE
  8
241
 10
-23.683974596215538
 20
-15.7500000000003
 30
0.0
 11
-23.683974596215538
 21
-14.65033144184377
 31
0.0
  0
LINE
  5
14DF
  8
241
 10
-25.416025403784381
 20
-15.75000000000032
 30
0.0
 11
-25.416025403784399
 21
-13.753673875708611
 31
0.0
  0
ARC
  5
14E4
  8
240
 10
-24.549999999999962
 20
-16.250000000000298
 30
0.0
 40
1.0
 50
30.000000000002672
 51
150.00000000000091
  0
LINE
  5
14EA
  8
240
 10
-25.416025403784769
 20
15.74999999999959
 30
0.0
 11
-46.000000000000249
 21
15.74999999999933
 31
0.0
  0
LINE
  5
14ED
  8
240
 10
-25.416025403784381
 20
-15.75000000000029
 30
0.0
 11
-45.999999999999773
 21
-15.750000000000551
 31
0.0
  0
LINE
  5
1522
  8
240
 10
-1.5775316903631731
 20
-15.71352780992529
 30
0.0
 11
-11.690000000001071
 21
-16.000000000000171
 31
0.0
  0
LINE
  5
1523
  8
240
 10
-1.0500000000002101
 20
8.7516706654515701
 30
0.0
 11
-1.050000000000068
 21
-6.1989576049830362
 31
0.0
  0
LINE
  5
1526
  8
240
 10
-1.0499999999999541
 20
-12.800000000041919
 30
0.0
 11
-1.0917646159558381
 21
-15.222347725440169
 31
0.0
  0
ARC
  5
1527
  8
240
 10
-1.5916903162303691
 20
-15.21372831681477
 30
0.0
 40
0.5
 50
271.62267592272161
 51
359.01223960036111
  0
LINE
  5
152B
  8
240
 10
-12.623012701883569
 20
-15.750000000000149
 30
0.0
 11
-11.690000000001071
 21
-16.000000000000171
 31
0.0
  0
ARC
  5
152D
  8
241
 10
-3.5461815875840719
 20
4.822814405837974
 30
0.0
 40
2.0
 50
3.0000000000014251
 51
73.140169264322822
  0
LINE
  5
152E
  8
241
 10
-1.5489225180749591
 20
4.9274863183238571
 30
0.0
 11
-1.2178886042638899
 21
-1.3890170393778041
 31
0.0
  0
ARC
  5
152F
  8
241
 10
1.777999999999877
 20
-1.2320091706488789
 30
0.0
 40
3.0
 50
183.00000000000139
 51
199.49567831587521
  0
ARC
  5
1531
  8
241
 10
-25.050000000000299
 20
15.51936319589511
 30
0.0
 40
2.0
 50
179.99999999999909
 51
253.14016926432461
  0
LINE
  5
1532
  8
241
 10
-27.050000000000299
 20
15.74999999999967
 30
0.0
 11
-27.050000000000299
 21
15.51936319589511
 31
0.0
  0
ARC
  5
1535
  8
240
 10
-24.55000000000036
 20
16.24999999999973
 30
0.0
 40
1.0
 50
210.0000000000004
 51
329.99999999999869
  0
LINE
  5
1536
  8
241
 10
-2.9661189602288109
 20
6.7368487180553549
 30
0.0
 11
-25.630062627355588
 21
13.605328883677609
 31
0.0
  0
LINE
  5
1537
  8
240
 10
-25.416025403784769
 20
15.749999999999609
 30
0.0
 11
-37.050000000000303
 21
15.749999999999471
 31
0.0
  0
LINE
  5
1538
  8
240
 10
-12.72367116681238
 20
15.74999999999979
 30
0.0
 11
-23.683974596215961
 21
15.749999999999639
 31
0.0
  0
LINE
  5
1539
  8
240
 10
-12.623012701883569
 20
-15.750000000000149
 30
0.0
 11
-23.683974596215538
 21
-15.750000000000369
 31
0.0
  0
LINE
  5
15D4
  8
241
 10
-23.908398663893198
 20
-14.578630943816449
 30
0.0
 11
-20.32023939405801
 21
-15.72500000000001
 31
0.0
  0
LINE
  5
15D5
  8
241
 10
-1.049999999999897
 20
-6.1989576049830504
 30
0.0
 11
-11.608959729380331
 21
-4.337128116479235
 31
0.0
  0
LINE
  5
15D6
  8
240
 10
-0.100110105237917
 20
-11.35246983439796
 30
0.0
 11
-1.0164769489906851
 21
-6.2048686233516426
 31
0.0
  0
LINE
  5
15D7
  8
240
 10
-0.4455900270161238
 20
-11.99964070178221
 30
0.0
 11
0.0
 21
-12.199190583421769
 31
0.0
  0
ARC
  5
15D8
  8
241
 10
-22.53404994845528
 20
-10.276890542953049
 30
0.0
 40
4.51595005154467
 50
79.999982399904255
 51
252.282012001043
  0
LINE
  5
15D9
  8
241
 10
-13.32797718946469
 20
-7.314553696443113
 30
0.0
 11
-21.749863451569581
 21
-5.829547919975993
 31
0.0
  0
LINE
  5
15DA
  8
241
 10
-13.385231583403851
 20
-7.4137212157022807
 30
0.0
 11
-11.608959729380331
 21
-4.337128116479235
 31
0.0
  0
LINE
  5
15DC
  8
245
 10
-10.091586579101881
 20
11.62500000000003
 30
0.0
 11
-4.011463088756158
 21
11.62500000000003
 31
0.0
  0
LINE
  5
15DD
  8
245
 10
-7.1059999999999368
 20
14.78878974114239
 30
0.0
 11
-7.1059999999999368
 21
8.5371732759254382
 31
0.0
  0
ARC
  5
15E7
  8
241
 10
71.72916899231501
 20
204.85158779833219
 30
0.0
 40
228.5468248335718
 50
248.3242203003752
 51
251.43120118752901
  0
LINE
  5
15E8
  8
241
 10
-12.68550526236907
 20
-7.5344143580785641
 30
0.0
 11
-13.385231583403851
 21
-7.4137212157022807
 31
0.0
  0
LINE
  5
15EA
  8
240
 10
-1.049999999999897
 20
-6.1989576049830504
 30
0.0
 11
-1.0164769489906851
 21
-6.2048686233516426
 31
0.0
  0
LINE
  5
15EB
  8
240
 10
-0.4455900270161238
 20
-11.99964070178221
 30
0.0
 11
-1.049999999999869
 21
-11.79753798410756
 31
0.0
  0
LINE
  5
15ED
  8
240
 10
-12.46102490213209
 20
16.500000000000099
 30
0.0
 11
0.0
 21
16.500000000000099
 31
0.0
  0
LINE
  5
15EE
  8
241
 10
-3.8344399986702622
 20
7.0000000000000853
 30
0.0
 11
-1.663426342974389
 21
7.0000000000000986
 31
0.0
  0
LINE
  5
15EF
  8
240
 10
0.0
 20
16.500000000000099
 30
0.0
 11
0.0
 21
11.750000000000099
 31
0.0
  0
LINE
  5
15F0
  8
240
 10
0.0
 20
11.750000000000099
 30
0.0
 11
-1.0500000000002101
 21
8.7516706654514849
 31
0.0
  0
LINE
  5
15F1
  8
241
 10
-14.211999999999961
 20
10.14499833231036
 30
0.0
 11
-14.21199999999993
 21
11.49999999999998
 31
0.0
  0
LINE
  5
15F2
  8
241
 10
-14.21199999999993
 20
11.49999999999998
 30
0.0
 11
-12.72367116681238
 21
15.74999999999979
 31
0.0
  0
CIRCLE
  5
15F3
  8
241
 10
-7.1059999999999368
 20
11.62500000000003
 30
0.0
 40
2.75
  0
LINE
  5
15F4
  8
242
 10
-11.64257464690513
 20
16.343901884555599
 30
0.0
 11
-2.376362259426628
 21
14.57661269164937
 31
0.0
  0
LINE
  5
15F5
  8
242
 10
-1.5638238472612891
 20
13.579181592218569
 30
0.0
 11
-1.65081389252532
 21
7.8331076569209577
 31
0.0
  0
LINE
  5
15F6
  8
242
 10
-2.4818765982013811
 20
7.156098115444621
 30
0.0
 11
-7.5204654316163442
 21
8.1170779873095142
 31
0.0
  0
LINE
  5
15F7
  8
242
 10
-12.564790925963081
 20
9.645799118800781
 30
0.0
 11
-12.473637352581161
 21
15.666892343079249
 31
0.0
  0
LINE
  5
15F8
  8
240
 10
-12.72367116681232
 20
15.750000000000041
 30
0.0
 11
-12.46102490213209
 21
16.500000000000099
 31
0.0
  0
ARC
  5
15FA
  8
242
 10
-2.5637092716839902
 20
13.59431889802231
 30
0.0
 40
1.0
 50
359.132663138787
 51
79.202000811979445
1001
GENIUS_GENODEF_13
1002
{
1000
HIER
1070
     0
1002
}
1002
{
1000
MANEDIT
1070
     0
1002
}
1002
{
1000
NOSEL
1070
     0
1002
}
1002
{
1000
BEHIND
1070
     0
1002
}
1002
{
1000
OTHER
1070
     0
1002
}
1002
{
1000
REACTOR
1002
}
1001
GENIUS_GENOBJ-N-FIL_13
1002
{
1000
OWNER
1000
GEN
1002
}
  0
ARC
  5
15FB
  8
242
 10
-11.773717555485259
 20
15.65629622901665
 30
0.0
 40
0.7
 50
79.202000811979445
 51
179.13266313878691
1001
GENIUS_GENODEF_13
1002
{
1000
HIER
1070
     0
1002
}
1002
{
1000
MANEDIT
1070
     0
1002
}
1002
{
1000
NOSEL
1070
     0
1002
}
1002
{
1000
BEHIND
1070
     0
1002
}
1002
{
1000
OTHER
1070
     0
1002
}
1002
{
1000
REACTOR
1002
}
1001
GENIUS_GENOBJ-N-FIL_13
1002
{
1000
OWNER
1000
GEN
1002
}
  0
ARC
  5
15FC
  8
242
 10
-2.3507336896212219
 20
7.8437037709835664
 30
0.0
 40
0.7
 50
259.20200081197947
 51
359.13266313878779
1001
GENIUS_GENOBJ-N-FIL_13
1002
{
1000
OWNER
1000
GEN
1002
}
1001
GENIUS_GENODEF_13
1002
{
1000
HIER
1070
     0
1002
}
1002
{
1000
MANEDIT
1070
     0
1002
}
1002
{
1000
NOSEL
1070
     0
1002
}
1002
{
1000
BEHIND
1070
     0
1002
}
1002
{
1000
OTHER
1070
     0
1002
}
1002
{
1000
REACTOR
1002
}
  0
LINE
  5
15FD
  8
240
 10
-0.0501311974938972
 20
-11.77418244589593
 30
0.0
 11
-0.0479853213994943
 21
-11.7923091021771
 31
0.0
  0
LINE
  5
15FE
  8
240
 10
-0.0479853213994943
 20
-11.7923091021771
 30
0.0
 11
-0.0000000000001137
 21
-12.19919058342175
 31
0.0
  0
LINE
  5
15FF
  8
240
 10
-0.100110105237917
 20
-11.35246983439796
 30
0.0
 11
-0.0743802658735433
 21
-11.56934558285311
 31
0.0
  0
LINE
  5
1600
  8
240
 10
-0.0743802658735433
 20
-11.56934558285311
 30
0.0
 11
-0.0501311974938403
 21
-11.77418244589596
 31
0.0
  0
LINE
  5
1659
  8
241
 10
-23.683974596215648
 20
-5.9098001875196351
 30
0.0
 11
-23.683974596215851
 21
13.015552133489781
 31
0.0
  0
LINE
  5
165A
  8
241
 10
-25.416025403784491
 20
-6.8001072101975657
 30
0.0
 11
-25.41602540378474
 21
13.54046327836225
 31
0.0
  0
LINE
  5
165B
  8
240
 10
-1.0499999999999821
 20
-11.797537984107519
 30
0.0
 11
-1.0499999999999541
 21
-12.800000000041919
 31
0.0
  0
LINE
  5
165E
  8
241
 10
-1.0500000000002101
 20
8.7516706654515701
 30
0.0
 11
-1.663426342974389
 21
7.0000000000000986
 31
0.0
  0
LINE
  5
179F
  8
250
 10
0.0
 20
17.000000000000099
 30
0.0
 11
0.0
 21
28.48938014618561
 31
0.0
  0
LINE
  5
17A0
  8
250
 10
-10.0
 20
17.000000000000099
 30
0.0
 11
-10.0
 21
28.48938014618561
 31
0.0
  0
LINE
  5
17A1
  8
250
 10
-2.2299999999999889
 20
27.48938014618561
 30
0.0
 11
-7.7700000000000102
 21
27.48938014618561
 31
0.0
  0
LINE
  5
17A5
  8
250
 10
-48.00000000000022
 20
16.481716522000522
 30
0.0
 11
-48.00000000000022
 21
35.48938014618561
 31
0.0
  0
LINE
  5
17A6
  8
250
 10
0.0
 20
17.000000000000099
 30
0.0
 11
0.0
 21
35.48938014618561
 31
0.0
  0
LINE
  5
17A7
  8
250
 10
-45.770000000000231
 20
34.48938014618561
 30
0.0
 11
-2.2299999999999889
 21
34.48938014618561
 31
0.0
  0
LINE
  5
17AB
  8
250
 10
-180.0000000000002
 20
15.056624327023719
 30
0.0
 11
-180.0000000000002
 21
35.48938014618561
 31
0.0
  0
LINE
  5
17AC
  8
250
 10
-48.000000000000028
 20
16.499999999999361
 30
0.0
 11
-48.000000000000028
 21
35.48938014618561
 31
0.0
  0
LINE
  5
17AD
  8
250
 10
-177.77000000000021
 20
34.48938014618561
 30
0.0
 11
-50.230000000000018
 21
34.48938014618561
 31
0.0
  0
LINE
  5
17B1
  8
250
 10
-180.0000000000002
 20
15.056624327023719
 30
0.0
 11
-180.0000000000002
 21
42.48938014618561
 31
0.0
  0
LINE
  5
17B2
  8
250
 10
0.0
 20
17.000000000000099
 30
0.0
 11
0.0
 21
42.48938014618561
 31
0.0
  0
LINE
  5
17B3
  8
250
 10
-177.77000000000021
 20
41.489380146185603
 30
0.0
 11
-2.2299999999999889
 21
41.489380146185603
 31
0.0
  0
LINE
  5
17B7
  8
250
 10
0.5
 20
16.500000000000099
 30
0.0
 11
16.84681463636678
 21
16.500000000000099
 31
0.0
  0
LINE
  5
17B8
  8
250
 10
15.846814636366791
 20
14.27000000000009
 30
0.0
 11
15.846814636366791
 21
-4.5333333333333314
 31
0.0
  0
LINE
  5
17BB
  8
250
 10
-178.2320508075691
 20
15.999999999997801
 30
0.0
 11
-195.15318536363279
 21
15.999999999997801
 31
0.0
  0
LINE
  5
17BC
  8
250
 10
-178.23205080756881
 20
-16.00000000000222
 30
0.0
 11
-195.15318536363279
 21
-16.00000000000221
 31
0.0
  0
LINE
  5
17BD
  8
250
 10
-194.15318536363279
 20
13.76999999999779
 30
0.0
 11
-194.15318536363279
 21
-13.77000000000222
 31
0.0
  0
TEXT
  5
17C1
  8
250
 10
-195.15318536363279
 20
-3.8000000000022141
 30
0.0
 40
2.7999999999999989
  1
\U+220532
 50
90.0
  0
LINE
  5
17C2
  8
250
 10
-193.78151869696609
 20
-13.77000000000222
 30
0.0
 11
-194.15318536363279
 21
-16.00000000000221
 31
0.0
  0
LINE
  5
17C3
  8
250
 10
-194.52485203029951
 20
-13.77000000000222
 30
0.0
 11
-194.15318536363279
 21
-16.00000000000221
 31
0.0
  0
LINE
  5
17C4
  8
250
 10
-194.15318536363279
 20
-16.00000000000221
 30
0.0
 11
-194.15318536363279
 21
-13.77000000000222
 31
0.0
  0
LINE
  5
17C5
  8
250
 10
-194.5248520302994
 20
13.76999999999779
 30
0.0
 11
-194.15318536363279
 21
15.999999999997801
 31
0.0
  0
LINE
  5
17C6
  8
250
 10
-193.78151869696609
 20
13.76999999999779
 30
0.0
 11
-194.15318536363279
 21
15.999999999997801
 31
0.0
  0
LINE
  5
17C7
  8
250
 10
-194.15318536363279
 20
15.999999999997801
 30
0.0
 11
-194.15318536363279
 21
13.76999999999779
 31
0.0
  0
TEXT
  5
17C8
  8
250
 10
14.84681463636676
 20
-3.7999999999999678
 30
0.0
 40
2.7999999999999989
  1
\U+220533
 50
90.0
  0
LINE
  5
17C9
  8
250
 10
15.475147969700121
 20
14.27000000000009
 30
0.0
 11
15.846814636366791
 21
16.500000000000099
 31
0.0
  0
LINE
  5
17CA
  8
250
 10
16.21848130303346
 20
14.27000000000009
 30
0.0
 11
15.846814636366791
 21
16.500000000000099
 31
0.0
  0
LINE
  5
17CB
  8
250
 10
15.846814636366791
 20
16.500000000000099
 30
0.0
 11
15.846814636366791
 21
14.27000000000009
 31
0.0
  0
TEXT
  5
17CC
  8
250
 10
-7.8666666666666742
 20
28.48938014618561
 30
0.0
 40
2.7999999999999989
  1
10
  0
LINE
  5
17CD
  8
250
 10
-7.7700000000000102
 20
27.11771347951894
 30
0.0
 11
-10.0
 21
27.48938014618561
 31
0.0
  0
LINE
  5
17CE
  8
250
 10
-7.7700000000000102
 20
27.86104681285228
 30
0.0
 11
-10.0
 21
27.48938014618561
 31
0.0
  0
LINE
  5
17CF
  8
250
 10
-10.0
 20
27.48938014618561
 30
0.0
 11
-7.7700000000000102
 21
27.48938014618561
 31
0.0
  0
LINE
  5
17D0
  8
250
 10
-2.2299999999999889
 20
27.86104681285228
 30
0.0
 11
0.0
 21
27.48938014618561
 31
0.0
  0
LINE
  5
17D1
  8
250
 10
-2.2299999999999889
 20
27.11771347951894
 30
0.0
 11
0.0
 21
27.48938014618561
 31
0.0
  0
LINE
  5
17D2
  8
250
 10
0.0
 20
27.48938014618561
 30
0.0
 11
-2.2299999999999889
 21
27.48938014618561
 31
0.0
  0
TEXT
  5
17D3
  8
250
 10
-26.666666666666771
 20
35.48938014618561
 30
0.0
 40
2.7999999999999989
  1
48
  0
LINE
  5
17D4
  8
250
 10
-2.2299999999999889
 20
34.86104681285228
 30
0.0
 11
0.0
 21
34.48938014618561
 31
0.0
  0
LINE
  5
17D5
  8
250
 10
-2.2299999999999889
 20
34.11771347951894
 30
0.0
 11
0.0
 21
34.48938014618561
 31
0.0
  0
LINE
  5
17D6
  8
250
 10
0.0
 20
34.48938014618561
 30
0.0
 11
-2.2299999999999889
 21
34.48938014618561
 31
0.0
  0
LINE
  5
17D7
  8
250
 10
-45.770000000000231
 20
34.11771347951894
 30
0.0
 11
-48.00000000000022
 21
34.48938014618561
 31
0.0
  0
LINE
  5
17D8
  8
250
 10
-45.770000000000231
 20
34.86104681285228
 30
0.0
 11
-48.00000000000022
 21
34.48938014618561
 31
0.0
  0
LINE
  5
17D9
  8
250
 10
-48.00000000000022
 20
34.48938014618561
 30
0.0
 11
-45.770000000000231
 21
34.48938014618561
 31
0.0
  0
TEXT
  5
17DA
  8
250
 10
-118.2000000000001
 20
35.48938014618561
 30
0.0
 40
2.7999999999999989
  1
132
  0
LINE
  5
17DB
  8
250
 10
-50.230000000000018
 20
34.86104681285228
 30
0.0
 11
-48.000000000000028
 21
34.48938014618561
 31
0.0
  0
LINE
  5
17DC
  8
250
 10
-50.230000000000018
 20
34.11771347951894
 30
0.0
 11
-48.000000000000028
 21
34.48938014618561
 31
0.0
  0
LINE
  5
17DD
  8
250
 10
-48.000000000000028
 20
34.48938014618561
 30
0.0
 11
-50.230000000000018
 21
34.48938014618561
 31
0.0
  0
LINE
  5
17DE
  8
250
 10
-177.77000000000021
 20
34.11771347951894
 30
0.0
 11
-180.0000000000002
 21
34.48938014618561
 31
0.0
  0
LINE
  5
17DF
  8
250
 10
-177.77000000000021
 20
34.86104681285228
 30
0.0
 11
-180.0000000000002
 21
34.48938014618561
 31
0.0
  0
LINE
  5
17E0
  8
250
 10
-180.0000000000002
 20
34.48938014618561
 30
0.0
 11
-177.77000000000021
 21
34.48938014618561
 31
0.0
  0
TEXT
  5
17E1
  8
250
 10
-94.200000000000074
 20
42.48938014618561
 30
0.0
 40
2.7999999999999989
  1
180
  0
LINE
  5
17E2
  8
250
 10
-2.2299999999999889
 20
41.86104681285228
 30
0.0
 11
0.0
 21
41.489380146185603
 31
0.0
  0
LINE
  5
17E3
  8
250
 10
-2.2299999999999889
 20
41.11771347951894
 30
0.0
 11
0.0
 21
41.489380146185603
 31
0.0
  0
LINE
  5
17E4
  8
250
 10
0.0
 20
41.489380146185603
 30
0.0
 11
-2.2299999999999889
 21
41.489380146185603
 31
0.0
  0
LINE
  5
17E5
  8
250
 10
-177.77000000000021
 20
41.11771347951894
 30
0.0
 11
-180.0000000000002
 21
41.489380146185603
 31
0.0
  0
LINE
  5
17E6
  8
250
 10
-177.77000000000021
 20
41.86104681285228
 30
0.0
 11
-180.0000000000002
 21
41.489380146185603
 31
0.0
  0
LINE
  5
17E7
  8
250
 10
-180.0000000000002
 20
41.489380146185603
 30
0.0
 11
-177.77000000000021
 21
41.489380146185603
 31
0.0
  0
TEXT
  5
18FB
  8
241
 10
-201.40000000000001
 20
55.99999999999774
 30
0.0
 40
5.0
  1
ST32-FCR33103-180
  7
YOKO
 11
-201.40000000000001
 21
55.99999999999774
 31
0.0
 73
     1
  0
VIEWPORT
  5
22
 67
     1
  8
0
 10
261.51769911504419
 20
148.5
 30
0.0
 40
523.0353982300885
 41
297.0
 68
     1
 69
     1
1001
ACAD
1000
MVIEW
1002
{
1070
    16
1010
0.0
1020
0.0
1030
0.0
1010
0.0
1020
0.0
1030
1.0
1040
0.0
1040
297.0
1040
261.51769911504419
1040
148.5
1040
50.0
1040
0.0
1040
0.0
1070
     0
1070
   100
1070
     1
1070
     1
1070
     0
1070
     0
1070
     0
1070
     0
1040
0.0
1040
0.0
1040
0.0
1040
1.0
1040
1.0
1040
10.0
1040
10.0
1070
     0
1002
{
1002
}
1002
}
1001
GENIUS_GENODEF_13
1002
{
1000
HIER
1070
     0
1002
}
1002
{
1000
MANEDIT
1070
     0
1002
}
1002
{
1000
NOSEL
1070
     0
1002
}
1002
{
1000
BEHIND
1070
     0
1002
}
1002
{
1000
OTHER
1070
     0
1002
}
1002
{
1000
REACTOR
1002
}
1001
GENIUS_GENOBJ-N-SDF_13
1002
{
1000
OWNER
1000
GEN
1002
}
1001
GENIUS_GENSCREG_15
1000
PF
1040
1.0
1000
DF
1040
1.0
1000
MIN
1011
0.0
1021
0.0
1031
0.0
1021
0.0
1031
0.0
1000
MAX
1011
523.0353982300885
1021
0.0
1031
0.0
1021
297.0
1031
0.0
1000
FLAGS
1070
     2
  0
ENDSEC
  0
EOF
