  0
SECTION
  2
HEADER
  9
$ACADVER
  1
AC1009
  9
$INSBASE
 10
0.0
 20
0.0
 30
0.0
  9
$EXTMIN
 10
-15.8066459285767
 20
-26.021962685299631
 30
-0.0000000000074783
  9
$EXTMAX
 10
193.00919794705919
 20
61.002173955516241
 30
0.0000000000044428
  9
$LIMMIN
 10
0.0
 20
0.0
  9
$LIMMAX
 10
420.0
 20
297.0
  9
$ORTHOMODE
 70
     1
  9
$REGENMODE
 70
     1
  9
$FILLMODE
 70
     1
  9
$QTEXTMODE
 70
     0
  9
$MIRRTEXT
 70
     1
  9
$DRAGMODE
 70
     2
  9
$LTSCALE
 40
10.0
  9
$OSMODE
 70
    39
  9
$ATTMODE
 70
     1
  9
$TEXTSIZE
 40
3.0
  9
$TRACEWID
 40
1.0
  9
$TEXTSTYLE
  7
YOKO
  9
$CLAYER
  8
240
  9
$CELTYPE
  6
BYLAYER
  9
$CECOLOR
 62
   256
  9
$DIMSCALE
 40
1.0
  9
$DIMASZ
 40
2.2299999999999991
  9
$DIMEXO
 40
0.5
  9
$DIMDLI
 40
2.5
  9
$DIMRND
 40
0.0
  9
$DIMDLE
 40
0.0
  9
$DIMEXE
 40
1.0
  9
$DIMTP
 40
0.0
  9
$DIMTM
 40
0.0
  9
$DIMTXT
 40
2.799999999999998
  9
$DIMCEN
 40
0.0
  9
$DIMTSZ
 40
0.0
  9
$DIMTOL
 70
     0
  9
$DIMLIM
 70
     0
  9
$DIMTIH
 70
     0
  9
$DIMTOH
 70
     0
  9
$DIMSE1
 70
     0
  9
$DIMSE2
 70
     0
  9
$DIMTAD
 70
     3
  9
$DIMZIN
 70
     8
  9
$DIMBLK
  1

  9
$DIMASO
 70
     1
  9
$DIMSHO
 70
     1
  9
$DIMPOST
  1

  9
$DIMAPOST
  1

  9
$DIMALT
 70
     0
  9
$DIMALTD
 70
     2
  9
$DIMALTF
 40
25.399999999999999
  9
$DIMLFAC
 40
1.0
  9
$DIMTOFL
 70
     1
  9
$DIMTVP
 40
0.0
  9
$DIMTIX
 70
     1
  9
$DIMSOXD
 70
     0
  9
$DIMSAH
 70
     1
  9
$DIMBLK1
  1
OPEN
  9
$DIMBLK2
  1
OPEN
  9
$DIMSTYLE
  2
BIGT
  9
$DIMCLRD
 70
   256
  9
$DIMCLRE
 70
   256
  9
$DIMCLRT
 70
    40
  9
$DIMTFAC
 40
1.0
  9
$DIMGAP
 40
1.0
  9
$LUNITS
 70
     2
  9
$LUPREC
 70
     3
  9
$SKETCHINC
 40
1.0
  9
$FILLETRAD
 40
0.0
  9
$AUNITS
 70
     0
  9
$AUPREC
 70
     3
  9
$MENU
  1
.
  9
$ELEVATION
 40
0.0
  9
$PELEVATION
 40
0.0
  9
$THICKNESS
 40
0.0
  9
$LIMCHECK
 70
     0
  9
$BLIPMODE
 70
     0
  9
$CHAMFERA
 40
10.0
  9
$CHAMFERB
 40
10.0
  9
$SKPOLY
 70
     0
  9
$TDCREATE
 40
2455146.3747733911
  9
$TDUPDATE
 40
2456093.6024388201
  9
$TDINDWG
 40
0.0851816898
  9
$TDUSRTIMER
 40
0.0851815162
  9
$USRTIMER
 70
     1
  9
$ANGBASE
 50
0.0
  9
$ANGDIR
 70
     0
  9
$PDMODE
 70
     1
  9
$PDSIZE
 40
-5.0
  9
$PLINEWID
 40
0.0
  9
$COORDS
 70
     2
  9
$SPLFRAME
 70
     0
  9
$SPLINETYPE
 70
     6
  9
$SPLINESEGS
 70
     8
  9
$ATTDIA
 70
     1
  9
$ATTREQ
 70
     1
  9
$HANDLING
 70
     1
  9
$HANDSEED
  5
FE5
  9
$SURFTAB1
 70
     6
  9
$SURFTAB2
 70
     6
  9
$SURFTYPE
 70
     6
  9
$SURFU
 70
     6
  9
$SURFV
 70
     6
  9
$UCSNAME
  2

  9
$UCSORG
 10
0.0
 20
0.0
 30
0.0
  9
$UCSXDIR
 10
1.0
 20
0.0
 30
0.0
  9
$UCSYDIR
 10
0.0
 20
1.0
 30
0.0
  9
$PUCSNAME
  2

  9
$PUCSORG
 10
0.0
 20
0.0
 30
0.0
  9
$PUCSXDIR
 10
1.0
 20
0.0
 30
0.0
  9
$PUCSYDIR
 10
0.0
 20
1.0
 30
0.0
  9
$USERI1
 70
     1
  9
$USERI2
 70
     0
  9
$USERI3
 70
     0
  9
$USERI4
 70
     0
  9
$USERI5
 70
     0
  9
$USERR1
 40
0.0
  9
$USERR2
 40
0.0
  9
$USERR3
 40
0.0
  9
$USERR4
 40
0.0
  9
$USERR5
 40
0.0
  9
$WORLDVIEW
 70
     1
  9
$SHADEDGE
 70
     3
  9
$SHADEDIF
 70
    70
  9
$TILEMODE
 70
     1
  9
$MAXACTVP
 70
    16
  9
$PLIMCHECK
 70
     0
  9
$PEXTMIN
 10
1.0000000000000000E+020
 20
1.0000000000000000E+020
 30
1.0000000000000000E+020
  9
$PEXTMAX
 10
-1.0000000000000000E+020
 20
-1.0000000000000000E+020
 30
-1.0000000000000000E+020
  9
$PLIMMIN
 10
0.0
 20
0.0
  9
$PLIMMAX
 10
420.0
 20
297.0
  9
$UNITMODE
 70
     0
  9
$VISRETAIN
 70
     0
  9
$PLINEGEN
 70
     0
  9
$PSLTSCALE
 70
     1
  0
ENDSEC
  0
SECTION
  2
TABLES
  0
TABLE
  2
VPORT
 70
    37
  0
VPORT
  2
*ACTIVE
 70
     0
 10
0.0
 20
0.0
 11
1.0
 21
1.0
 12
88.601276009241261
 22
17.490105635108311
 13
0.0
 23
0.0
 14
7.0
 24
7.0
 15
7.0
 25
7.0
 16
0.0
 26
0.0
 36
1.0
 17
0.0
 27
0.0
 37
0.0
 40
151.17327694814551
 41
1.3877995642701519
 42
50.0
 43
0.0
 44
0.0
 50
0.0
 51
0.0
 71
     0
 72
  2000
 73
     1
 74
     0
 75
     0
 76
     0
 77
     0
 78
     0
  0
ENDTAB
  0
TABLE
  2
LTYPE
 70
    21
  0
LTYPE
  2
CONTINUOUS
 70
     0
  3
Solid line
 72
    65
 73
     0
 40
0.0
  0
LTYPE
  2
CENTER2
 70
     0
  3
___ _ ___ _ ___ _ ___ _ ___ _ ___ _ ___ _ ___ _
 72
    65
 73
     4
 40
1.125
 49
0.75
 49
-0.125
 49
0.125
 49
-0.125
  0
LTYPE
  2
PHANTOM2
 70
     0
  3
___ _ _ ___ _ _ ___ _ _ ___ _ _ ___ _ _ ___ _ _
 72
    65
 73
     6
 40
1.25
 49
0.625
 49
-0.125
 49
0.125
 49
-0.125
 49
0.125
 49
-0.125
  0
LTYPE
  2
HIDDEN2
 70
     0
  3
_ _ _ _ _ _ _ _ _ _ _ _ _ _ _ _ _ _ _ _ _ _ _ _
 72
    65
 73
     2
 40
0.1875
 49
0.125
 49
-0.0625
  0
LTYPE
  2
AMCONSTR
 70
     0
  3
_______________________
 72
    65
 73
     2
 40
9999.0
 49
9999.0
 49
0.0
  0
LTYPE
  2
HIDDEN
 70
     0
  3
Hidden __ __ __ __ __ __ __ __ __ __ __ __ __ _
 72
    65
 73
     2
 40
9.5249999999999986
 49
6.3499999999999979
 49
-3.174999999999998
  0
LTYPE
  2
CENTER
 70
     0
  3
____ _ ____ _ ____ _ ____ _ ____ _ ____ _ ____ 
 72
    65
 73
     4
 40
2.0
 49
1.25
 49
-0.25
 49
0.25
 49
-0.25
  0
LTYPE
  2
ACANSTGB
 70
     0
  3
__ . . __ . .
 72
    65
 73
     6
 40
0.35433070866
 49
0.15748031496
 49
-0.03937007874
 49
0.03937007874
 49
-0.03937007874
 49
0.03937007874
 49
-0.03937007874
  0
LTYPE
  2
ACANSTGL
 70
     0
  3
_ _ _ _ _
 72
    65
 73
     2
 40
0.11811023622
 49
0.07874015748
 49
-0.03937007874
  0
LTYPE
  2
AMZIGZAG2
 70
     0
  3
/\/-/\/-/\/-/\/-/\/-/\/
 72
    65
 73
     2
 40
0.4401
 49
0.0001
 49
-0.4400000000000001
  0
ENDTAB
  0
TABLE
  2
LAYER
 70
     8
  0
LAYER
  2
0
 70
     0
 62
     7
  6
CONTINUOUS
  0
LAYER
  2
240
 70
     0
 62
     4
  6
CONTINUOUS
  0
LAYER
  2
241
 70
     0
 62
   211
  6
CONTINUOUS
  0
LAYER
  2
245
 70
     0
 62
     2
  6
CENTER2
  0
LAYER
  2
250
 70
     0
 62
     3
  6
CONTINUOUS
  0
LAYER
  2
DEFPOINTS
 70
     0
 62
     7
  6
CONTINUOUS
  0
ENDTAB
  0
TABLE
  2
STYLE
 70
     9
  0
STYLE
  2
STANDARD
 70
     0
 40
0.0
 41
1.0
 50
0.0
 71
     0
 42
3.0
  3
romans.shx
  4
BIGFONT.SHX
  0
STYLE
  2
YOKO
 70
     0
 40
0.0
 41
1.0
 50
0.0
 71
     0
 42
3.0
  3
romans.shx
  4
extfont.shx
  0
STYLE
  2
ACANSTS
 70
     0
 40
1.0
 41
1.0
 50
0.0
 71
     0
 42
3.0
  3
romans.shx
  4
extfont.shx
  0
STYLE
  2
ACANSGDT
 70
     0
 40
0.0
 41
1.0
 50
0.0
 71
     0
 42
3.0
  3
amgdtans.shx
  4

  0
STYLE
  2

 70
     1
 40
0.0
 41
1.0
 50
0.0
 71
     0
 42
3.0
  3
ltypeshp.shx
  4

  0
ENDTAB
  0
TABLE
  2
VIEW
 70
     0
  0
ENDTAB
  0
TABLE
  2
UCS
 70
     0
  0
ENDTAB
  0
TABLE
  2
APPID
 70
    35
  0
APPID
  2
ACAD
 70
     0
  0
APPID
  2
GLOBAL
 70
     0
  0
APPID
  2
DETAIL
 70
     0
  0
APPID
  2
GRPNAME
 70
     0
  0
APPID
  2
GPARA
 70
     0
  0
APPID
  2
DCO15
 70
     0
  0
APPID
  2
ITEMNAME
 70
     0
  0
APPID
  2
GRADE_0
 70
     0
  0
APPID
  2
HATCH_TYPE
 70
     0
  0
APPID
  2
HATCH_DISPLAY
 70
     0
  0
APPID
  2
HATCH_DISTANCE
 70
     0
  0
APPID
  2
CONTENTBLOCKICON
 70
     0
  0
APPID
  2
MCAD_NO_VIS
 70
     0
  0
APPID
  2
ACAD_TEMP_GRAPHIC
 70
     0
  0
APPID
  2
ACATTRIBSERVICES
 70
     0
  0
APPID
  2
GENIUS_GENSCREG_15
 70
     0
  0
APPID
  2
GENIUS_GENODEF_13
 70
     0
  0
APPID
  2
GENIUS_GENOBJ-N-SDF_13
 70
     0
  0
APPID
  2
GENIUS_GENREC_14
 70
     0
  0
APPID
  2
GENIUS_GENOBJ-N-REC_13
 70
     0
  0
APPID
  2
GENIUS_GENDIMSH_14
 70
     0
  0
APPID
  2
GENIUS_GENOBJ-N-DIM_13
 70
     0
  0
APPID
  2
GENIUS_GENDIM_13
 70
     0
  0
APPID
  2
GENIUS_GENDTOL_13
 70
     0
  0
APPID
  2
GENIUS_GENOLIS_13
 70
     0
  0
APPID
  2
GENIUS_GENOENT_13
 70
     0
  0
APPID
  2
GENIUS_GENOBJ-F-FEM_13
 70
     0
  0
APPID
  2
GENIUS_GENOREF_13
 70
     0
  0
APPID
  2
GENIUS_GEFFEM_13
 70
     0
  0
APPID
  2
GENIUS_GEFFEMP_13
 70
     0
  0
APPID
  2
AD_DRAW
 70
     0
  0
APPID
  2
DESIGNERASSEMBLIES
 70
     0
  0
APPID
  2
ACADM_DIM_EDIT
 70
     0
  0
APPID
  2
AMDT_DM_ADJ
 70
     0
  0
APPID
  2
GENIUS_GENOBJ-N-FIL_13
 70
     0
  0
ENDTAB
  0
TABLE
  2
DIMSTYLE
 70
    29
  0
DIMSTYLE
  2
BIGT
 70
     0
  3

  4

  5

  6

  7

 40
1.0
 41
2.2299999999999991
 42
0.5
 43
7.0
 44
1.0
 45
0.0
 46
0.0
 47
0.0
 48
0.01
140
2.799999999999998
141
0.0
142
0.0
143
25.399999999999999
144
1.0
145
0.0
146
1.0
147
1.0
 71
     0
 72
     0
 73
     0
 74
     0
 75
     0
 76
     0
 77
     3
 78
     9
170
     0
171
     2
172
     1
173
     0
174
     1
175
     0
176
   256
177
   256
178
    40
  0
DIMSTYLE
  2
AM_ANSI
 70
     0
  3

  4
mm
  5

  6

  7

 40
1.0
 41
0.1
 42
0.05
 43
0.5
 44
0.1
 45
0.0
 46
0.0
 47
0.1
 48
0.1
140
0.12
141
0.0
142
0.0
143
25.399999999999999
144
1.0
145
0.0
146
0.71
147
0.06
 71
     0
 72
     0
 73
     1
 74
     1
 75
     0
 76
     0
 77
     0
 78
     7
170
     0
171
     2
172
     0
173
     0
174
     0
175
     0
176
   256
177
   256
178
     2
  0
DIMSTYLE
  2
AM_ANSI$3
 70
     0
  3

  4
mm
  5

  6

  7

 40
1.0
 41
0.1
 42
0.05
 43
0.5
 44
0.1
 45
0.0
 46
0.0
 47
0.1
 48
0.1
140
0.12
141
0.0
142
0.0
143
25.399999999999999
144
1.0
145
0.0
146
0.71
147
0.06
 71
     0
 72
     0
 73
     1
 74
     1
 75
     0
 76
     0
 77
     0
 78
     7
170
     0
171
     2
172
     0
173
     0
174
     0
175
     0
176
   256
177
   256
178
     2
  0
DIMSTYLE
  2
AM_ANSI$4
 70
     0
  3

  4
mm
  5

  6

  7

 40
1.0
 41
0.1
 42
0.05
 43
0.5
 44
0.1
 45
0.0
 46
0.0
 47
0.1
 48
0.1
140
0.12
141
0.0
142
0.0
143
25.399999999999999
144
1.0
145
0.0
146
0.71
147
0.06
 71
     0
 72
     0
 73
     1
 74
     1
 75
     0
 76
     0
 77
     0
 78
     7
170
     0
171
     2
172
     0
173
     0
174
     0
175
     0
176
   256
177
   256
178
     2
  0
DIMSTYLE
  2
AM_ANSI$7
 70
     0
  3

  4
mm
  5

  6

  7

 40
1.0
 41
0.1
 42
0.05
 43
0.5
 44
0.1
 45
0.0
 46
0.0
 47
0.1
 48
0.1
140
0.24
141
0.0
142
0.0
143
25.399999999999999
144
1.0
145
0.0
146
0.71
147
0.06
 71
     0
 72
     0
 73
     1
 74
     1
 75
     0
 76
     0
 77
     0
 78
     7
170
     0
171
     2
172
     0
173
     0
174
     0
175
     0
176
   256
177
   256
178
     2
  0
DIMSTYLE
  2
AM_ANSI$SF
 70
     0
  3

  4
mm
  5

  6

  7

 40
1.0
 41
0.1
 42
0.05
 43
0.5
 44
0.1
 45
0.0
 46
0.0
 47
0.1
 48
0.1
140
0.12
141
0.0
142
0.0
143
25.399999999999999
144
1.0
145
0.0
146
0.71
147
0.06
 71
     0
 72
     0
 73
     1
 74
     1
 75
     1
 76
     1
 77
     0
 78
     7
170
     0
171
     2
172
     0
173
     0
174
     0
175
     0
176
   256
177
   256
178
     2
  0
DIMSTYLE
  2
AM_ANSI$SH
 70
     0
  3

  4
mm
  5

  6

  7

 40
1.0
 41
0.1
 42
0.05
 43
0.5
 44
0.1
 45
0.0
 46
0.0
 47
0.1
 48
0.1
140
0.12
141
0.0
142
0.0
143
25.399999999999999
144
1.0
145
0.0
146
0.71
147
0.06
 71
     0
 72
     0
 73
     1
 74
     1
 75
     1
 76
     1
 77
     0
 78
     7
170
     0
171
     2
172
     0
173
     1
174
     0
175
     0
176
   256
177
   256
178
     2
  0
ENDTAB
  0
ENDSEC
  0
SECTION
  2
BLOCKS
  0
BLOCK
  8
0
  2
$MODEL_SPACE
 70
     0
 10
0.0
 20
0.0
 30
0.0
  3
$MODEL_SPACE
  1

  0
ENDBLK
  5
E71
  8
0
  0
BLOCK
 67
     1
  8
0
  2
$PAPER_SPACE
 70
     0
 10
0.0
 20
0.0
 30
0.0
  3
$PAPER_SPACE
  1

  0
ENDBLK
  5
E6D
 67
     1
  8
0
  0
BLOCK
  8
0
  2
_OPEN
 70
     0
 10
0.0
 20
0.0
 30
0.0
  3
_OPEN
  1

  0
LINE
  5
C71
  8
0
  6
BYBLOCK
 62
     0
 10
-1.0
 20
0.1666666666666666
 30
0.0
 11
0.0
 21
0.0
 31
0.0
  0
LINE
  5
C72
  8
0
  6
BYBLOCK
 62
     0
 10
-1.0
 20
-0.1666666666666666
 30
0.0
 11
0.0
 21
0.0
 31
0.0
  0
LINE
  5
C73
  8
0
  6
BYBLOCK
 62
     0
 10
0.0
 20
0.0
 30
0.0
 11
-1.0
 21
0.0
 31
0.0
  0
ENDBLK
  5
C74
  8
0
  0
BLOCK
  8
0
  2
矢印なし
 70
     0
 10
0.0
 20
0.0
 30
0.0
  3
矢印なし
  1

  0
ENDBLK
  5
6E5
  8
0
  0
ENDSEC
  0
SECTION
  2
ENTITIES
  0
INSERT
  5
6E6
  8
245
  2
矢印なし
 10
175.62382697000001
 20
90.551235719999994
 30
0.0
  0
LINE
  5
99D
  8
250
 10
7.5787339400000002
 20
-26.017036690000001
 30
0.0
 11
-7.3545993999999979
 21
-26.017036690000001
 31
0.0
1001
ITEMNAME
1000
LNSP2
  0
TEXT
  5
9A5
  8
241
 10
0.0
 20
56.0
 30
0.0
 40
5.0
  1
ST32-FCM33112-180
  7
YOKO
 11
0.0
 21
56.0
 31
0.0
 73
     1
  0
LINE
  5
CD7
  8
240
  6
CONTINUOUS
 10
131.39999999
 20
16.0
 30
0.0
 11
2.0000000099999991
 21
16.0
 31
0.0
  0
LINE
  5
CD8
  8
240
  6
CONTINUOUS
 10
131.39999999
 20
-16.0
 30
0.0
 11
2.0000000099999991
 21
-16.0
 31
0.0
  0
LINE
  5
CD9
  8
245
  6
CENTER2
 10
-1.0
 20
0.0
 30
0.0
 11
181.0
 21
0.0
 31
0.0
  0
LINE
  5
CDA
  8
241
  6
CONTINUOUS
 10
2.0
 20
-16.0
 30
0.0
 11
2.0
 21
0.0
 31
0.0
  0
LINE
  5
CDB
  8
240
  6
CONTINUOUS
 10
0.0
 20
-14.84529946
 30
0.0
 11
2.0
 21
-16.0
 31
0.0
  0
LINE
  5
CDC
  8
240
  6
CONTINUOUS
 10
0.0
 20
14.84529946
 30
0.0
 11
0.0
 21
0.0
 31
0.0
  0
LINE
  5
CDD
  8
241
  6
CONTINUOUS
 10
2.0
 20
16.0
 30
0.0
 11
2.0
 21
0.0
 31
0.0
  0
LINE
  5
CDE
  8
240
  6
CONTINUOUS
 10
0.0
 20
-14.84529946
 30
0.0
 11
0.0
 21
0.0
 31
0.0
  0
LINE
  5
CDF
  8
240
  6
CONTINUOUS
 10
0.0
 20
14.84529946
 30
0.0
 11
2.0000000099999991
 21
16.0
 31
0.0
  0
LINE
  5
CE0
  8
240
  6
CONTINUOUS
 10
167.49029678926979
 20
15.800000000000001
 30
0.0
 11
131.74641016000001
 21
15.800000000000001
 31
0.0
  0
LINE
  5
CE1
  8
240
  6
CONTINUOUS
 10
166.98038471500001
 20
-15.800000000000001
 30
0.0
 11
131.74641016000001
 21
-15.800000000000001
 31
0.0
  0
LINE
  5
CE2
  8
241
  6
CONTINUOUS
 10
131.40000000000001
 20
-16.0
 30
0.0
 11
131.40000000000001
 21
0.0
 31
0.0
  0
LINE
  5
CE3
  8
240
  6
CONTINUOUS
 10
131.74641016000001
 20
-15.800000000000001
 30
0.0
 11
131.40000000000001
 21
-16.0
 31
0.0
  0
LINE
  5
CE4
  8
241
  6
CONTINUOUS
 10
133.40000000000001
 20
15.78171652
 30
0.0
 11
133.40000000000001
 21
0.0
 31
0.0
  0
LINE
  5
CE5
  8
241
  6
CONTINUOUS
 10
131.40000000000001
 20
16.0
 30
0.0
 11
131.40000000000001
 21
0.0
 31
0.0
  0
LINE
  5
CE6
  8
241
  6
CONTINUOUS
 10
133.40000000000001
 20
-15.78171652
 30
0.0
 11
133.40000000000001
 21
0.0
 31
0.0
  0
LINE
  5
CE7
  8
240
  6
CONTINUOUS
 10
131.74641016000001
 20
15.800000000000001
 30
0.0
 11
131.39999999
 21
16.0
 31
0.0
  0
LINE
  5
D63
  8
240
 10
179.40000000000001
 20
-7.0000000000000258
 30
0.0
 11
179.40000000000001
 21
7.0000000000000258
 31
0.0
  0
LINE
  5
D65
  8
241
 10
153.40000000000001
 20
15.82500000000004
 30
0.0
 11
153.40000000000001
 21
15.304875013105139
 31
0.0
  0
LINE
  5
D66
  8
241
 10
178.67855052875041
 20
6.4709912545337991
 30
0.0
 11
154.84289894249909
 21
13.38403186184803
 31
0.0
  0
ARC
  5
D68
  8
241
 10
178.40000000000001
 20
5.5105696789052221
 30
0.0
 40
1.0
 50
0.0
 51
73.826285227451464
  0
ARC
  5
D69
  8
241
 10
155.40000000000001
 20
15.304875013105139
 30
0.0
 40
2.0
 50
180.0
 51
253.82628522745151
  0
LINE
  5
D6A
  8
245
 10
177.96783359767369
 20
11.63300000000001
 30
0.0
 11
168.7883785308828
 21
11.63300000000001
 31
0.0
  0
LINE
  5
D6B
  8
245
 10
173.6059999999998
 20
8.2159817742588892
 30
0.0
 11
173.60599999999991
 21
15.89177125310257
 31
0.0
  0
LINE
  5
D6C
  8
240
 10
179.72170321072991
 20
13.799999999999979
 30
0.0
 11
179.7217032107298
 21
7.0000000000000284
 31
0.0
  0
LINE
  5
D6D
  8
240
 10
180.0
 20
14.131661198420099
 30
0.0
 11
179.72170321072991
 21
13.799999999999979
 31
0.0
  0
LINE
  5
D6E
  8
240
 10
180.0
 20
16.5
 30
0.0
 11
180.0
 21
14.131661198420099
 31
0.0
  0
LINE
  5
D6F
  8
240
 10
167.49029678926979
 20
16.500000000000021
 30
0.0
 11
180.0
 21
16.5
 31
0.0
  0
LINE
  5
D70
  8
240
 10
167.49029678926979
 20
15.800000000000001
 30
0.0
 11
167.49029678926979
 21
16.500000000000021
 31
0.0
  0
LINE
  5
D71
  8
240
 10
179.7217032107298
 20
7.0000000000000284
 30
0.0
 11
179.40000000000001
 21
7.0000000000000258
 31
0.0
  0
CIRCLE
  5
D72
  8
241
 10
173.6059999999998
 20
11.63300000000001
 30
0.0
 40
2.8999999999999999
  0
LINE
  5
D73
  8
241
 10
179.40000000000001
 20
7.0000000000000258
 30
0.0
 11
176.85456758705141
 21
7.0000000000000231
 31
0.0
  0
LINE
  5
D74
  8
241
 10
167.49029678926979
 20
15.825000000000429
 30
0.0
 11
167.49029678926979
 21
9.7159141863062235
 31
0.0
  0
LINE
  5
D75
  8
241
 10
167.49029678926979
 20
16.500000000000021
 30
0.0
 11
172.9615072214666
 21
14.460477508030589
 31
0.0
  0
LINE
  5
D76
  8
241
 10
175.9440551858147
 20
13.34866253910379
 30
0.0
 11
179.72170321072991
 21
11.940455304335741
 31
0.0
  0
LINE
  5
D77
  8
241
 10
167.49029678926979
 20
11.5595446956643
 30
0.0
 11
171.07084673460781
 21
10.224810410146359
 31
0.0
  0
LINE
  5
D78
  8
241
 10
174.60076392850911
 20
8.9089506747239522
 30
0.0
 11
179.7217032107298
 21
7.0000000000000284
 31
0.0
  0
LINE
  5
D79
  8
241
 10
179.01061572856099
 20
-15.81033763555237
 30
0.0
 11
168.10000002999999
 21
-16.100000000000001
 31
0.0
1001
GRPNAME
1000
PASTMD0V
  0
LINE
  5
D7A
  8
240
 10
166.98038471500001
 20
-15.800000000000001
 30
0.0
 11
167.49029678926979
 21
-15.93663051963606
 31
0.0
1001
GRPNAME
1000
PASTMD0V
1001
GENIUS_GENOREF_13
1005
D7C
  0
ARC
  5
D7B
  8
241
 10
179.0
 20
-15.41047852748164
 30
0.0
 40
0.4
 50
271.52076966517808
 51
0.0
1001
GENIUS_GENODEF_13
1002
{
1000
HIER
1070
     0
1002
}
1002
{
1000
MANEDIT
1070
     0
1002
}
1002
{
1000
NOSEL
1070
     0
1002
}
1002
{
1000
BEHIND
1070
     0
1002
}
1002
{
1000
OTHER
1070
     0
1002
}
1002
{
1000
REACTOR
1002
}
1001
GENIUS_GENOBJ-N-FIL_13
1002
{
1000
OWNER
1000
GEN
1002
}
  0
POINT
  5
D7C
  8
0
 10
115.0
 20
0.0
 30
0.0
1001
GENIUS_GENOENT_13
1002
{
1000
MYREF
1005
D7C
1002
}
1002
{
1000
GRP
1005
0
1002
}
1001
GENIUS_GENOLIS_13
1002
{
1000
ENT
1005
D7A
1005
0
1002
}
1001
GENIUS_GENOBJ-N-FIL_13
1002
{
1000
OWNER
1000
GEN
1002
}
1001
GENIUS_GENODEF_13
1002
{
1000
HIER
1070
     1
1002
}
1002
{
1000
MANEDIT
1070
     1
1002
}
1002
{
1000
NOSEL
1070
     0
1002
}
1002
{
1000
BEHIND
1070
     0
1002
}
1002
{
1000
OTHER
1070
     0
1002
}
1002
{
1000
REACTOR
1002
}
  0
TEXT
  5
D81
  8
250
 10
-4.9545994000000011
 20
-25.017036690000001
 30
0.0
 40
2.799999999999998
  1
ST32
  7
YOKO
1001
ITEMNAME
1000
LNSP3
1001
ACAD
1000
MTEXTBEGIN
1070
    73
1070
     1
1070
    44
1040
1.0
1070
    74
1070
     0
1000
MTEXTEND
1000
MTEXTBEGIN
1070
    73
1070
     1
1070
    44
1040
1.0
1070
    74
1070
     0
1000
MTEXTEND
1000
MTEXTBEGIN
1070
    73
1070
     1
1070
    44
1040
1.0
1070
    74
1070
     0
1000
MTEXTEND
1000
MTEXTBEGIN
1070
    73
1070
     1
1070
    44
1040
1.0
1070
    74
1070
     0
1000
MTEXTEND
1000
MTEXTBEGIN
1070
    73
1070
     1
1070
    44
1040
1.0
1070
    74
1070
     0
1000
MTEXTEND
1000
MTEXTBEGIN
1070
    73
1070
     1
1070
    44
1040
1.0
1070
    74
1070
     0
1000
MTEXTEND
1000
MTEXTBEGIN
1070
    73
1070
     1
1070
    44
1040
1.0
1070
    74
1070
     0
1000
MTEXTEND
1000
MTEXTBEGIN
1070
    73
1070
     1
1070
    44
1040
1.0
1070
    74
1070
     0
1000
MTEXTEND
1000
MTEXTBEGIN
1070
    73
1070
     1
1070
    44
1040
1.0
1070
    74
1070
     0
1000
MTEXTEND
  0
LINE
  5
D82
  8
250
 10
1.5000000099999991
 20
-16.0
 30
0.0
 11
-13.0
 21
-16.0
 31
0.0
  0
LINE
  5
D83
  8
250
 10
1.5
 20
16.0
 30
0.0
 11
-13.0
 21
16.0
 31
0.0
  0
LINE
  5
D84
  8
250
 10
-12.0
 20
-13.77
 30
0.0
 11
-12.0
 21
13.77
 31
0.0
  0
LINE
  5
D88
  8
250
 10
0.0
 20
15.34529946
 30
0.0
 11
0.0
 21
43.0
 31
0.0
  0
LINE
  5
D89
  8
250
 10
180.0
 20
17.0
 30
0.0
 11
180.0
 21
43.0
 31
0.0
  0
LINE
  5
D8A
  8
250
 10
2.2299999999999991
 20
42.0
 30
0.0
 11
177.77000000000001
 21
42.0
 31
0.0
  0
LINE
  5
D8E
  8
250
 10
132.0
 20
16.300000000000001
 30
0.0
 11
132.0
 21
36.0
 31
0.0
  0
LINE
  5
D8F
  8
250
 10
180.0
 20
17.0
 30
0.0
 11
180.0
 21
36.0
 31
0.0
  0
LINE
  5
D90
  8
250
 10
134.22999999999999
 20
35.0
 30
0.0
 11
177.77000000000001
 21
35.0
 31
0.0
  0
LINE
  5
D94
  8
250
 10
169.0
 20
17.0
 30
0.0
 11
169.0
 21
29.0
 31
0.0
  0
LINE
  5
D95
  8
250
 10
180.0
 20
17.0
 30
0.0
 11
180.0
 21
29.0
 31
0.0
  0
LINE
  5
D96
  8
250
 10
171.22999999999999
 20
28.0
 30
0.0
 11
177.77000000000001
 21
28.0
 31
0.0
  0
LINE
  5
D9B
  8
250
 10
180.5
 20
16.5
 30
0.0
 11
193.0
 21
16.5
 31
0.0
  0
LINE
  5
D9C
  8
250
 10
192.0
 20
-14.27
 30
0.0
 11
192.0
 21
14.27
 31
0.0
  0
LINE
  5
DA0
  8
250
 10
12.24707276992102
 20
-17.9312366503937
 30
0.0
 11
7.5787339400000002
 21
-26.017036690000001
 31
0.0
1001
ACAD
1000
DSTYLE
1002
{
1070
     6
1000
OPEN
1070
   343
1005
594
1002
}
  0
LINE
  5
DA1
  8
250
 10
11.92519999485541
 20
-17.745403317047199
 30
0.0
 11
13.362072769999999
 21
-16.0
 31
0.0
  0
LINE
  5
DA2
  8
250
 10
12.56894554498664
 20
-18.117069983740201
 30
0.0
 11
13.362072769999999
 21
-16.0
 31
0.0
  0
LINE
  5
DA3
  8
250
 10
13.362072769999999
 20
-16.0
 30
0.0
 11
12.24707276992102
 21
-17.9312366503937
 31
0.0
  0
TEXT
  5
DA4
  8
250
 10
-13.0
 20
-3.7999999999999989
 30
0.0
 40
2.799999999999998
  1
\U+2205
 50
90.0
1001
ACAD
1000
MTEXTBEGIN
1070
    73
1070
     1
1070
    44
1040
1.0
1070
    74
1070
     0
1000
MTEXTEND
  0
TEXT
  5
DA5
  8
250
 10
-13.0
 20
-1.2666666666666651
 30
0.0
 40
2.799999999999998
  1
32
 50
90.0
1001
ACAD
1000
MTEXTBEGIN
1070
    73
1070
     1
1070
    44
1040
1.0
1070
    74
1070
     0
1000
MTEXTEND
  0
LINE
  5
DA6
  8
250
 10
-12.371666666666661
 20
13.77
 30
0.0
 11
-12.0
 21
16.0
 31
0.0
  0
LINE
  5
DA7
  8
250
 10
-11.62833333333333
 20
13.77
 30
0.0
 11
-12.0
 21
16.0
 31
0.0
  0
LINE
  5
DA8
  8
250
 10
-12.0
 20
16.0
 30
0.0
 11
-12.0
 21
13.77
 31
0.0
  0
LINE
  5
DA9
  8
250
 10
-11.62833333333333
 20
-13.77
 30
0.0
 11
-12.0
 21
-16.0
 31
0.0
  0
LINE
  5
DAA
  8
250
 10
-12.371666666666661
 20
-13.77
 30
0.0
 11
-12.0
 21
-16.0
 31
0.0
  0
LINE
  5
DAB
  8
250
 10
-12.0
 20
-16.0
 30
0.0
 11
-12.0
 21
-13.77
 31
0.0
  0
TEXT
  5
DAC
  8
250
 10
85.799999999999983
 20
43.0
 30
0.0
 40
2.799999999999998
  1
180
1001
ACAD
1000
MTEXTBEGIN
1070
    73
1070
     1
1070
    44
1040
1.0
1070
    74
1070
     0
1000
MTEXTEND
  0
LINE
  5
DAD
  8
250
 10
177.77000000000001
 20
42.371666666666663
 30
0.0
 11
180.0
 21
42.0
 31
0.0
  0
LINE
  5
DAE
  8
250
 10
177.77000000000001
 20
41.62833333333333
 30
0.0
 11
180.0
 21
42.0
 31
0.0
  0
LINE
  5
DAF
  8
250
 10
180.0
 20
42.0
 30
0.0
 11
177.77000000000001
 21
42.0
 31
0.0
  0
LINE
  5
DB0
  8
250
 10
2.2299999999999991
 20
41.62833333333333
 30
0.0
 11
0.0
 21
42.0
 31
0.0
  0
LINE
  5
DB1
  8
250
 10
2.2299999999999991
 20
42.371666666666663
 30
0.0
 11
0.0
 21
42.0
 31
0.0
  0
LINE
  5
DB2
  8
250
 10
0.0
 20
42.0
 30
0.0
 11
2.2299999999999991
 21
42.0
 31
0.0
  0
TEXT
  5
DB3
  8
250
 10
153.33333333333329
 20
36.0
 30
0.0
 40
2.799999999999998
  1
48
1001
ACAD
1000
MTEXTBEGIN
1070
    73
1070
     1
1070
    44
1040
1.0
1070
    74
1070
     0
1000
MTEXTEND
  0
LINE
  5
DB4
  8
250
 10
177.77000000000001
 20
35.37166666666667
 30
0.0
 11
180.0
 21
35.0
 31
0.0
  0
LINE
  5
DB5
  8
250
 10
177.77000000000001
 20
34.62833333333333
 30
0.0
 11
180.0
 21
35.0
 31
0.0
  0
LINE
  5
DB6
  8
250
 10
180.0
 20
35.0
 30
0.0
 11
177.77000000000001
 21
35.0
 31
0.0
  0
LINE
  5
DB7
  8
250
 10
134.22999999999999
 20
34.62833333333333
 30
0.0
 11
132.0
 21
35.0
 31
0.0
  0
LINE
  5
DB8
  8
250
 10
134.22999999999999
 20
35.37166666666667
 30
0.0
 11
132.0
 21
35.0
 31
0.0
  0
LINE
  5
DB9
  8
250
 10
132.0
 20
35.0
 30
0.0
 11
134.22999999999999
 21
35.0
 31
0.0
  0
TEXT
  5
DBA
  8
250
 10
172.0333333333333
 20
29.0
 30
0.0
 40
2.799999999999998
  1
11
1001
ACAD
1000
MTEXTBEGIN
1070
    73
1070
     1
1070
    44
1040
1.0
1070
    74
1070
     0
1000
MTEXTEND
1000
MTEXTBEGIN
1070
    73
1070
     1
1070
    44
1040
1.0
1070
    74
1070
     0
1000
MTEXTEND
  0
LINE
  5
DBB
  8
250
 10
177.77000000000001
 20
28.371666666666659
 30
0.0
 11
180.0
 21
28.0
 31
0.0
  0
LINE
  5
DBC
  8
250
 10
177.77000000000001
 20
27.62833333333333
 30
0.0
 11
180.0
 21
28.0
 31
0.0
  0
LINE
  5
DBD
  8
250
 10
180.0
 20
28.0
 30
0.0
 11
177.77000000000001
 21
28.0
 31
0.0
  0
LINE
  5
DBE
  8
250
 10
171.22999999999999
 20
27.62833333333333
 30
0.0
 11
169.0
 21
28.0
 31
0.0
  0
LINE
  5
DBF
  8
250
 10
171.22999999999999
 20
28.371666666666659
 30
0.0
 11
169.0
 21
28.0
 31
0.0
  0
LINE
  5
DC0
  8
250
 10
169.0
 20
28.0
 30
0.0
 11
171.22999999999999
 21
28.0
 31
0.0
  0
TEXT
  5
DC1
  8
250
 10
191.0
 20
-3.7999999999999989
 30
0.0
 40
2.799999999999998
  1
\U+2205
 50
90.0
1001
ACAD
1000
MTEXTBEGIN
1070
    73
1070
     1
1070
    44
1040
1.0
1070
    74
1070
     0
1000
MTEXTEND
  0
TEXT
  5
DC2
  8
250
 10
191.0
 20
-1.2666666666666671
 30
0.0
 40
2.799999999999998
  1
33
 50
90.0
1001
ACAD
1000
MTEXTBEGIN
1070
    73
1070
     1
1070
    44
1040
1.0
1070
    74
1070
     0
1000
MTEXTEND
  0
LINE
  5
DC3
  8
250
 10
191.6283333333333
 20
14.27
 30
0.0
 11
192.0
 21
16.5
 31
0.0
  0
LINE
  5
DC4
  8
250
 10
192.3716666666667
 20
14.27
 30
0.0
 11
192.0
 21
16.5
 31
0.0
  0
LINE
  5
DC5
  8
250
 10
192.0
 20
16.5
 30
0.0
 11
192.0
 21
14.27
 31
0.0
  0
LINE
  5
F72
  8
240
 10
179.72170321072991
 20
-13.799999999999979
 30
0.0
 11
179.7217032107298
 21
-7.0000000000000284
 31
0.0
  0
LINE
  5
F73
  8
240
 10
180.0
 20
-14.131661198420099
 30
0.0
 11
179.72170321072991
 21
-13.799999999999979
 31
0.0
  0
LINE
  5
F74
  8
240
 10
180.0
 20
-16.5
 30
0.0
 11
180.0
 21
-14.131661198420099
 31
0.0
  0
LINE
  5
F75
  8
240
 10
167.49029678926979
 20
-16.500000000000021
 30
0.0
 11
180.0
 21
-16.5
 31
0.0
  0
LINE
  5
F76
  8
240
 10
167.49029678926979
 20
-15.93663051963606
 30
0.0
 11
167.49029678926979
 21
-16.500000000000021
 31
0.0
  0
LINE
  5
F77
  8
240
 10
179.7217032107298
 20
-7.0000000000000284
 30
0.0
 11
179.40000000000001
 21
-7.0000000000000258
 31
0.0
  0
LINE
  5
F78
  8
250
 10
180.5
 20
-16.5
 30
0.0
 11
193.0
 21
-16.5
 31
0.0
  0
LINE
  5
F79
  8
250
 10
191.6283333333333
 20
-14.27
 30
0.0
 11
192.0
 21
-16.5
 31
0.0
  0
LINE
  5
F7A
  8
250
 10
192.3716666666667
 20
-14.27
 30
0.0
 11
192.0
 21
-16.5
 31
0.0
  0
LINE
  5
F7B
  8
250
 10
192.0
 20
-16.5
 30
0.0
 11
192.0
 21
-14.27
 31
0.0
  0
LINE
  5
F7D
  8
241
 10
166.98038471500001
 20
-15.800000000000001
 30
0.0
 11
166.98038471500001
 21
9.8638036980668389
 31
0.0
  0
LINE
  5
F7E
  8
241
 10
167.49029678926979
 20
-15.93663051963606
 30
0.0
 11
168.10000002999999
 21
-16.100000000000001
 31
0.0
  0
LINE
  5
F80
  8
241
 10
179.40000000000001
 20
-7.0000000000000258
 30
0.0
 11
179.40000000000001
 21
-15.41047852748164
 31
0.0
  0
VIEWPORT
  5
22
 67
     1
  8
0
 10
261.51769911999997
 20
148.5
 30
0.0
 40
523.03539823000006
 41
297.0
 68
     1
 69
     1
1001
ACAD
1000
MVIEW
1002
{
1070
    16
1010
0.0
1020
0.0
1030
0.0
1010
0.0
1020
0.0
1030
1.0
1040
0.0
1040
297.0
1040
261.51769911999997
1040
148.5
1040
50.0
1040
0.0
1040
0.0
1070
     0
1070
   100
1070
     1
1070
     1
1070
     0
1070
     0
1070
     0
1070
     0
1040
0.0
1040
0.0
1040
0.0
1040
1.0
1040
1.0
1040
10.0
1040
10.0
1070
     0
1002
{
1002
}
1002
}
1001
GENIUS_GENODEF_13
1002
{
1000
HIER
1070
     0
1002
}
1002
{
1000
MANEDIT
1070
     0
1002
}
1002
{
1000
NOSEL
1070
     0
1002
}
1002
{
1000
BEHIND
1070
     0
1002
}
1002
{
1000
OTHER
1070
     0
1002
}
1002
{
1000
REACTOR
1002
}
1001
GENIUS_GENOBJ-N-SDF_13
1002
{
1000
OWNER
1000
GEN
1002
}
1001
GENIUS_GENSCREG_15
1000
PF
1040
1.0
1000
DF
1040
1.0
1000
MIN
1011
0.0000000049999471
1021
5.5034072919807981E+228
1031
0.0
1021
0.0
1031
0.0
1000
MAX
1011
523.035398235
1021
5.5034072919807981E+228
1031
0.0
1021
297.0
1031
0.0
1000
FLAGS
1070
     2
  0
ENDSEC
  0
EOF
