  0
SECTION
  2
HEADER
  9
$ACADVER
  1
AC1009
  9
$INSBASE
 10
0.0
 20
0.0
 30
0.0
  9
$EXTMIN
 10
-82.3476381058230658
 20
-24.7469896599999615
 30
0.0
  9
$EXTMAX
 10
77.103686420000983
 20
54.0000000000000071
 30
0.0
  9
$LIMMIN
 10
0.0
 20
0.0
  9
$LIMMAX
 10
297.0
 20
210.0
  9
$ORTHOMODE
 70
     0
  9
$REGENMODE
 70
     1
  9
$FILLMODE
 70
     1
  9
$QTEXTMODE
 70
     0
  9
$MIRRTEXT
 70
     1
  9
$DRAGMODE
 70
     2
  9
$LTSCALE
 40
10.0
  9
$OSMODE
 70
   807
  9
$ATTMODE
 70
     1
  9
$TEXTSIZE
 40
3.0
  9
$TRACEWID
 40
1.0
  9
$TEXTSTYLE
  7
YOKO
  9
$CLAYER
  8
240
  9
$CELTYPE
  6
BYLAYER
  9
$CECOLOR
 62
   256
  9
$DIMSCALE
 40
1.0
  9
$DIMASZ
 40
2.2299999999999991
  9
$DIMEXO
 40
0.5
  9
$DIMDLI
 40
7.0
  9
$DIMRND
 40
0.0
  9
$DIMDLE
 40
0.0
  9
$DIMEXE
 40
1.0
  9
$DIMTP
 40
0.0
  9
$DIMTM
 40
0.01
  9
$DIMTXT
 40
2.799999999999998
  9
$DIMCEN
 40
0.0
  9
$DIMTSZ
 40
0.0
  9
$DIMTOL
 70
     0
  9
$DIMLIM
 70
     0
  9
$DIMTIH
 70
     0
  9
$DIMTOH
 70
     0
  9
$DIMSE1
 70
     0
  9
$DIMSE2
 70
     0
  9
$DIMTAD
 70
     3
  9
$DIMZIN
 70
     9
  9
$DIMBLK
  1
OPEN
  9
$DIMASO
 70
     1
  9
$DIMSHO
 70
     1
  9
$DIMPOST
  1

  9
$DIMAPOST
  1

  9
$DIMALT
 70
     0
  9
$DIMALTD
 70
     2
  9
$DIMALTF
 40
25.3999999999999986
  9
$DIMLFAC
 40
1.0
  9
$DIMTOFL
 70
     1
  9
$DIMTVP
 40
0.0
  9
$DIMTIX
 70
     1
  9
$DIMSOXD
 70
     0
  9
$DIMSAH
 70
     0
  9
$DIMBLK1
  1

  9
$DIMBLK2
  1

  9
$DIMSTYLE
  2
BIGT
  9
$DIMCLRD
 70
   256
  9
$DIMCLRE
 70
   256
  9
$DIMCLRT
 70
    40
  9
$DIMTFAC
 40
1.0
  9
$DIMGAP
 40
1.0
  9
$LUNITS
 70
     2
  9
$LUPREC
 70
     6
  9
$SKETCHINC
 40
1.0
  9
$FILLETRAD
 40
0.0
  9
$AUNITS
 70
     0
  9
$AUPREC
 70
     6
  9
$MENU
  1
.
  9
$ELEVATION
 40
0.0
  9
$PELEVATION
 40
0.0
  9
$THICKNESS
 40
0.0
  9
$LIMCHECK
 70
     0
  9
$BLIPMODE
 70
     0
  9
$CHAMFERA
 40
0.2
  9
$CHAMFERB
 40
0.2
  9
$SKPOLY
 70
     0
  9
$TDCREATE
 40
2457744.4406018517911434
  9
$TDUPDATE
 40
2458291.6770370369777083
  9
$TDINDWG
 40
0.0126023148
  9
$TDUSRTIMER
 40
0.0126022569
  9
$USRTIMER
 70
     1
  9
$ANGBASE
 50
0.0
  9
$ANGDIR
 70
     0
  9
$PDMODE
 70
     1
  9
$PDSIZE
 40
0.0
  9
$PLINEWID
 40
0.0
  9
$COORDS
 70
     1
  9
$SPLFRAME
 70
     0
  9
$SPLINETYPE
 70
     6
  9
$SPLINESEGS
 70
     4
  9
$ATTDIA
 70
     1
  9
$ATTREQ
 70
     1
  9
$HANDLING
 70
     1
  9
$HANDSEED
  5
49BF
  9
$SURFTAB1
 70
     6
  9
$SURFTAB2
 70
     6
  9
$SURFTYPE
 70
     6
  9
$SURFU
 70
     6
  9
$SURFV
 70
     6
  9
$UCSNAME
  2

  9
$UCSORG
 10
0.0
 20
0.0
 30
0.0
  9
$UCSXDIR
 10
1.0
 20
0.0
 30
0.0
  9
$UCSYDIR
 10
0.0
 20
1.0
 30
0.0
  9
$PUCSNAME
  2

  9
$PUCSORG
 10
0.0
 20
0.0
 30
0.0
  9
$PUCSXDIR
 10
1.0
 20
0.0
 30
0.0
  9
$PUCSYDIR
 10
0.0
 20
1.0
 30
0.0
  9
$USERI1
 70
     1
  9
$USERI2
 70
     0
  9
$USERI3
 70
     0
  9
$USERI4
 70
     0
  9
$USERI5
 70
     0
  9
$USERR1
 40
0.0
  9
$USERR2
 40
0.0
  9
$USERR3
 40
0.0
  9
$USERR4
 40
0.0
  9
$USERR5
 40
0.0
  9
$WORLDVIEW
 70
     1
  9
$SHADEDGE
 70
     3
  9
$SHADEDIF
 70
    70
  9
$TILEMODE
 70
     1
  9
$MAXACTVP
 70
    16
  9
$PLIMCHECK
 70
     0
  9
$PEXTMIN
 10
1.0000000000000000E+20
 20
1.0000000000000000E+20
 30
1.0000000000000000E+20
  9
$PEXTMAX
 10
-1.0000000000000000E+20
 20
-1.0000000000000000E+20
 30
-1.0000000000000000E+20
  9
$PLIMMIN
 10
0.0
 20
0.0
  9
$PLIMMAX
 10
420.0
 20
297.0
  9
$UNITMODE
 70
     0
  9
$VISRETAIN
 70
     1
  9
$PLINEGEN
 70
     0
  9
$PSLTSCALE
 70
     1
  0
ENDSEC
  0
SECTION
  2
TABLES
  0
TABLE
  2
VPORT
 70
     1
  0
VPORT
  2
*ACTIVE
 70
     0
 10
0.0
 20
0.0
 11
1.0
 21
1.0
 12
30.6781560868474301
 22
8.7296505179876931
 13
0.0
 23
0.0
 14
7.0
 24
7.0
 15
7.0
 25
7.0
 16
0.0
 26
0.0
 36
1.0
 17
0.0
 27
0.0
 37
0.0
 40
167.5305190356739899
 41
1.887387387387387
 42
50.0
 43
0.0
 44
0.0
 50
0.0
 51
0.0
 71
     0
 72
  2000
 73
     1
 74
     0
 75
     1
 76
     1
 77
     0
 78
     0
  0
ENDTAB
  0
TABLE
  2
LTYPE
 70
    17
  0
LTYPE
  2
CONTINUOUS
 70
     0
  3
Solid line
 72
    65
 73
     0
 40
0.0
  0
LTYPE
  2
CENTER2
 70
     0
  3
___ _ ___ _ ___ _ ___ _ ___ _ ___ _ ___ _ ___ _
 72
    65
 73
     4
 40
1.125
 49
0.75
 49
-0.125
 49
0.125
 49
-0.125
  0
LTYPE
  2
HIDDEN2
 70
     0
  3
_ _ _ _ _ _ _ _ _ _ _ _ _ _ _ _ _ _ _ _ _ _ _ _
 72
    65
 73
     2
 40
0.1875
 49
0.125
 49
-0.0625
  0
LTYPE
  2
PHANTOM2
 70
     0
  3
___ _ _ ___ _ _ ___ _ _ ___ _ _ ___ _ _ ___ _ _
 72
    65
 73
     6
 40
1.25
 49
0.625
 49
-0.125
 49
0.125
 49
-0.125
 49
0.125
 49
-0.125
  0
LTYPE
  2
AMCONSTR
 70
     0
  3
_______________________
 72
    65
 73
     2
 40
9999.0
 49
9999.0
 49
0.0
  0
LTYPE
  2
HIDDEN
 70
     0
  3
Hidden __ __ __ __ __ __ __ __ __ __ __ __ __ _
 72
    65
 73
     2
 40
0.375
 49
0.25
 49
-0.125
  0
LTYPE
  2
CENTER
 70
     0
  3
Center ____ _ ____ _ ____ _ ____ _ ____ _ ____
 72
    65
 73
     4
 40
2.0
 49
1.25
 49
-0.25
 49
0.25
 49
-0.25
  0
LTYPE
  2
AMZIGZAG2
 70
     0
  3
/\/-/\/-/\/-/\/-/\/-/\/
 72
    65
 73
     2
 40
0.4401
 49
0.0001
 49
-0.4400000000000002
  0
LTYPE
  2
ACANSTGB
 70
     0
  3
__ . . __ . .
 72
    65
 73
     6
 40
0.35433070866
 49
0.15748031496
 49
-0.03937007874
 49
0.03937007874
 49
-0.03937007874
 49
0.03937007874
 49
-0.03937007874
  0
LTYPE
  2
ACANSTGL
 70
     0
  3
_ _ _ _ _
 72
    65
 73
     2
 40
0.11811023622
 49
0.07874015748
 49
-0.03937007874
  0
ENDTAB
  0
TABLE
  2
LAYER
 70
     9
  0
LAYER
  2
0
 70
     0
 62
     7
  6
CONTINUOUS
  0
LAYER
  2
240
 70
     0
 62
     4
  6
CONTINUOUS
  0
LAYER
  2
DEFPOINTS
 70
     0
 62
     7
  6
CONTINUOUS
  0
LAYER
  2
245
 70
     0
 62
     2
  6
CENTER2
  0
LAYER
  2
241
 70
     0
 62
   211
  6
CONTINUOUS
  0
LAYER
  2
242
 70
     0
 62
     3
  6
CONTINUOUS
  0
LAYER
  2
243
 70
     0
 62
   211
  6
HIDDEN2
  0
LAYER
  2
247
 70
     0
 62
    60
  6
CONTINUOUS
  0
LAYER
  2
250
 70
     0
 62
     3
  6
CONTINUOUS
  0
ENDTAB
  0
TABLE
  2
STYLE
 70
     6
  0
STYLE
  2
STANDARD
 70
     0
 40
0.0
 41
1.0
 50
0.0
 71
     0
 42
3.0
  3
romans.shx
  4
extfont.shx
  0
STYLE
  2
YOKO
 70
     0
 40
0.0
 41
1.0
 50
0.0
 71
     0
 42
3.0
  3
romans.shx
  4
extfont.shx
  0
STYLE
  2
ACANSGDT
 70
     0
 40
0.0
 41
1.0
 50
0.0
 71
     0
 42
3.0
  3
amgdt.shx
  4

  0
ENDTAB
  0
TABLE
  2
VIEW
 70
     0
  0
ENDTAB
  0
TABLE
  2
UCS
 70
     0
  0
ENDTAB
  0
TABLE
  2
APPID
 70
    47
  0
APPID
  2
ACAD
 70
     0
  0
APPID
  2
ACADANNOTATIVE
 70
     0
  0
APPID
  2
GLOBAL
 70
     0
  0
APPID
  2
DETAIL
 70
     0
  0
APPID
  2
GRPNAME
 70
     0
  0
APPID
  2
GPARA
 70
     0
  0
APPID
  2
MCAD_NO_VIS
 70
     0
  0
APPID
  2
ACAD_TEMP_GRAPHIC
 70
     0
  0
APPID
  2
ACATTRIBSERVICES
 70
     0
  0
APPID
  2
GENIUS_GENSCREG_15
 70
     0
  0
APPID
  2
GENIUS_GENODEF_13
 70
     0
  0
APPID
  2
GENIUS_GENOBJ-N-SDF_13
 70
     0
  0
APPID
  2
GENIUS_GENREC_14
 70
     0
  0
APPID
  2
GENIUS_GENOBJ-N-REC_13
 70
     0
  0
APPID
  2
GENIUS_GENDIMSH_14
 70
     0
  0
APPID
  2
GENIUS_GENOBJ-N-DIM_13
 70
     0
  0
APPID
  2
GENIUS_GENDIM_13
 70
     0
  0
APPID
  2
GENIUS_GENDTOL_13
 70
     0
  0
APPID
  2
GENIUS_GENOLIS_13
 70
     0
  0
APPID
  2
GENIUS_GENOENT_13
 70
     0
  0
APPID
  2
GENIUS_GENOBJ-F-FEM_13
 70
     0
  0
APPID
  2
GENIUS_GENOREF_13
 70
     0
  0
APPID
  2
GENIUS_GEFFEM_13
 70
     0
  0
APPID
  2
GENIUS_GEFFEMP_13
 70
     0
  0
APPID
  2
AD_DRAW
 70
     0
  0
APPID
  2
DESIGNERASSEMBLIES
 70
     0
  0
APPID
  2
ACADM_DIM_EDIT
 70
     0
  0
APPID
  2
AMDT_DM_ADJ
 70
     0
  0
APPID
  2
ITEMNAME
 70
     0
  0
APPID
  2
GENIUS_GENOBJ-N-FIL_13
 70
     0
  0
APPID
  2
GENIUS_GENFIL_13
 70
     0
  0
APPID
  2
GENIUS_GENOBJ-N-CHA_13
 70
     0
  0
APPID
  2
ACAD_NAV_VCDISPLAY
 70
     0
  0
APPID
  2
LAYER_SCALE
 70
     0
  0
APPID
  2
ACAD_PSEXT
 70
     0
  0
APPID
  2
ASK_MEN_XD
 70
     0
  0
APPID
  2
GRADIENTCOLOR1ACI
 70
     0
  0
APPID
  2
GRADIENTCOLOR2ACI
 70
     0
  0
APPID
  2
ACAD_EXEMPT_FROM_CAD_STANDARDS
 70
     0
  0
APPID
  2
ACAD_DSTYLE_DIMJAG
 70
     0
  0
APPID
  2
ACAD_DSTYLE_DIMBREAK
 70
     0
  0
APPID
  2
ACAECLAYERSTANDARD
 70
     0
  0
APPID
  2
ACAD_MLEADERVER
 70
     0
  0
APPID
  2
ACAD_DSTYLE_DIMARC_LENGTH_
 70
     0
  0
APPID
  2
ACAD_DSTYLE_DIM_LINETYPE
 70
     0
  0
APPID
  2
ACAD_DSTYLE_DIM_EXT1_LINETYPE
 70
     0
  0
APPID
  2
ACAD_DSTYLE_DIM_EXT2_LINETYPE
 70
     0
  0
ENDTAB
  0
TABLE
  2
DIMSTYLE
 70
     9
  0
DIMSTYLE
  2
STANDARD
 70
     0
  3

  4

  5

  6

  7

 40
1.0
 41
0.18
 42
0.0625
 43
0.38
 44
0.18
 45
0.0
 46
0.0
 47
0.0
 48
0.0
140
0.18
141
0.09
142
0.0
143
25.3999999999999986
144
1.0
145
0.0
146
1.0
147
0.09
 71
     0
 72
     0
 73
     1
 74
     1
 75
     0
 76
     0
 77
     0
 78
     0
170
     0
171
     2
172
     0
173
     0
174
     0
175
     0
176
     0
177
     0
178
     0
  0
DIMSTYLE
  2
BIGT
 70
     0
  3

  4

  5

  6

  7

 40
1.0
 41
2.2299999999999991
 42
0.5
 43
7.0
 44
1.0
 45
0.0
 46
0.0
 47
0.0
 48
0.01
140
2.799999999999998
141
0.0
142
0.0
143
25.3999999999999986
144
1.0
145
0.0
146
1.0
147
1.0
 71
     0
 72
     0
 73
     0
 74
     0
 75
     0
 76
     0
 77
     3
 78
     9
170
     0
171
     2
172
     1
173
     0
174
     1
175
     0
176
   256
177
   256
178
    40
  0
DIMSTYLE
  2
AM_ANSI
 70
     0
  3

  4
mm
  5

  6

  7

 40
1.0
 41
0.12
 42
0.05
 43
0.5
 44
0.1
 45
0.0
 46
0.0
 47
0.1
 48
0.1
140
0.12
141
0.0
142
0.0
143
25.3999999999999986
144
1.0
145
0.0
146
0.71
147
0.06
 71
     0
 72
     0
 73
     1
 74
     1
 75
     0
 76
     0
 77
     0
 78
     7
170
     0
171
     2
172
     0
173
     0
174
     0
175
     0
176
   256
177
   256
178
     2
  0
DIMSTYLE
  2
AM_ANSI$3
 70
     0
  3

  4
mm
  5

  6

  7

 40
1.0
 41
0.12
 42
0.05
 43
0.5
 44
0.1
 45
0.0
 46
0.0
 47
0.1
 48
0.1
140
0.12
141
0.0
142
0.0
143
25.3999999999999986
144
1.0
145
0.0
146
0.71
147
0.06
 71
     0
 72
     0
 73
     1
 74
     1
 75
     0
 76
     0
 77
     0
 78
     7
170
     0
171
     2
172
     0
173
     0
174
     0
175
     0
176
   256
177
   256
178
     2
  0
DIMSTYLE
  2
AM_ANSI$4
 70
     0
  3

  4
mm
  5

  6

  7

 40
1.0
 41
0.12
 42
0.05
 43
0.5
 44
0.1
 45
0.0
 46
0.0
 47
0.1
 48
0.1
140
0.12
141
0.0
142
0.0
143
25.3999999999999986
144
1.0
145
0.0
146
0.71
147
0.06
 71
     0
 72
     0
 73
     1
 74
     1
 75
     0
 76
     0
 77
     0
 78
     7
170
     0
171
     2
172
     0
173
     0
174
     0
175
     0
176
   256
177
   256
178
     2
  0
DIMSTYLE
  2
AM_ANSI$7
 70
     0
  3

  4
mm
  5

  6

  7

 40
1.0
 41
0.12
 42
0.05
 43
0.5
 44
0.1
 45
0.0
 46
0.0
 47
0.1
 48
0.1
140
0.12
141
0.0
142
0.0
143
25.3999999999999986
144
1.0
145
0.0
146
0.71
147
0.06
 71
     0
 72
     0
 73
     1
 74
     1
 75
     0
 76
     0
 77
     0
 78
     7
170
     0
171
     2
172
     0
173
     0
174
     0
175
     0
176
   256
177
   256
178
     2
  0
DIMSTYLE
  2
AM_ANSI$SF
 70
     0
  3

  4
mm
  5

  6

  7

 40
1.0
 41
0.12
 42
0.05
 43
0.5
 44
0.1
 45
0.0
 46
0.0
 47
0.1
 48
0.1
140
0.12
141
0.0
142
0.0
143
25.3999999999999986
144
1.0
145
0.0
146
0.71
147
0.06
 71
     0
 72
     0
 73
     1
 74
     1
 75
     1
 76
     1
 77
     0
 78
     7
170
     0
171
     2
172
     0
173
     0
174
     0
175
     0
176
   256
177
   256
178
     2
  0
DIMSTYLE
  2
AM_ANSI$SH
 70
     0
  3

  4
mm
  5

  6

  7

 40
1.0
 41
0.12
 42
0.05
 43
0.5
 44
0.1
 45
0.0
 46
0.0
 47
0.1
 48
0.1
140
0.12
141
0.0
142
0.0
143
25.3999999999999986
144
1.0
145
0.0
146
0.71
147
0.06
 71
     0
 72
     0
 73
     1
 74
     1
 75
     1
 76
     1
 77
     0
 78
     7
170
     0
171
     2
172
     0
173
     1
174
     0
175
     0
176
   256
177
   256
178
     2
  0
ENDTAB
  0
ENDSEC
  0
SECTION
  2
BLOCKS
  0
BLOCK
  8
0
  2
$MODEL_SPACE
 70
     0
 10
0.0
 20
0.0
 30
0.0
  3
$MODEL_SPACE
  1

  0
ENDBLK
  5
489A
  8
0
  0
BLOCK
 67
     1
  8
0
  2
$PAPER_SPACE
 70
     0
 10
0.0
 20
0.0
 30
0.0
  3
$PAPER_SPACE
  1

  0
ENDBLK
  5
4896
 67
     1
  8
0
  0
BLOCK
  8
0
  2
_OPEN
 70
     0
 10
0.0
 20
0.0
 30
0.0
  3
_OPEN
  1

  0
LINE
  5
4579
  8
0
  6
BYBLOCK
 62
     0
 10
-1.0
 20
0.1666666666666666
 30
0.0
 11
0.0
 21
0.0
 31
0.0
  0
LINE
  5
457A
  8
0
  6
BYBLOCK
 62
     0
 10
-1.0
 20
-0.1666666666666666
 30
0.0
 11
0.0
 21
0.0
 31
0.0
  0
LINE
  5
457B
  8
0
  6
BYBLOCK
 62
     0
 10
0.0
 20
0.0
 30
0.0
 11
-1.0
 21
0.0
 31
0.0
  0
ENDBLK
  5
457C
  8
0
  0
BLOCK
  8
0
  2
_ACMFILLEDHALF
 70
     0
 10
0.0
 20
0.0
 30
0.0
  3
_ACMFILLEDHALF
  1

  0
TRACE
  5
47AC
  8
240
 62
     0
 10
-0.8
 20
0.0
 30
0.0
 11
-1.0
 21
0.166666666
 31
0.0
 12
0.0
 22
0.0
 32
0.0
 13
0.0
 23
0.0
 33
0.0
  0
LINE
  5
47AD
  8
240
 62
     0
 10
-1.0
 20
0.0
 30
0.0
 11
-0.8
 21
0.0
 31
0.0
  0
ENDBLK
  5
47AB
  8
0
  0
ENDSEC
  0
SECTION
  2
ENTITIES
  0
LINE
  5
4206
  8
245
  6
CENTER2
 10
-82.3476381058230658
 20
0.000000000000031
 30
0.0
 11
59.9467912631771398
 21
-0.0000000000000236
 31
0.0
  0
LINE
  5
4208
  8
240
  6
CONTINUOUS
 10
-0.0000000000019327
 20
-19.5000000000027818
 30
0.0
 11
-0.0000000000016058
 21
-15.9999999999999805
 31
0.0
  0
LINE
  5
420F
  8
240
  6
CONTINUOUS
 10
-80.000000000001819
 20
-15.9999999999999805
 30
0.0
 11
-80.000000000001819
 21
16.0
 31
0.0
  0
LINE
  5
4210
  8
240
  6
CONTINUOUS
 10
-80.000000000001819
 20
16.0
 30
0.0
 11
-0.0000000000029843
 21
16.0
 31
0.0
  0
LINE
  5
4211
  8
240
  6
CONTINUOUS
 10
-80.000000000001819
 20
-15.9999999999999805
 30
0.0
 11
-0.0000000000016058
 21
-15.9999999999999805
 31
0.0
  0
LINE
  5
4226
  8
240
  6
CONTINUOUS
 10
57.9999999999999289
 20
-19.4999999999999503
 30
0.0
 11
57.9999999999999289
 21
19.4999999999999609
 31
0.0
  0
LINE
  5
4232
  8
240
  6
CONTINUOUS
 10
57.9999999999999289
 20
19.4999999999999609
 30
0.0
 11
0.0000000000049738
 21
19.5000000000027889
 31
0.0
  0
LINE
  5
423D
  8
240
  6
CONTINUOUS
 10
57.9999999999999289
 20
-19.4999999999999503
 30
0.0
 11
-0.0000000000019327
 21
-19.5000000000027818
 31
0.0
  0
LINE
  5
423F
  8
240
  6
CONTINUOUS
 10
0.0000000000049738
 20
19.5000000000027889
 30
0.0
 11
-0.0000000000029843
 21
16.0
 31
0.0
  0
LINE
  5
424F
  8
241
  6
CONTINUOUS
 10
-0.0000000000016058
 20
-15.9999999999999805
 30
0.0
 11
-0.0000000000029843
 21
16.0
 31
0.0
  0
LINE
  5
42BF
  8
243
  6
HIDDEN2
 10
31.9499999999999602
 20
11.0000000000000195
 30
0.0
 11
57.9999999999999289
 21
11.0000000000000195
 31
0.0
1001
GRPNAME
1000
PASTMD03
  0
LINE
  5
42C0
  8
243
  6
HIDDEN2
 10
31.9499999999999602
 20
-11.0000000000000195
 30
0.0
 11
57.9999999999999289
 21
-11.0000000000000195
 31
0.0
1001
GRPNAME
1000
PASTMD03
  0
LINE
  5
42C1
  8
250
  6
CONTINUOUS
 10
58.5000000000009521
 20
-19.4999999999999503
 30
0.0
 11
72.0000000000009805
 21
-19.4999999999999503
 31
0.0
  0
LINE
  5
42C2
  8
250
  6
CONTINUOUS
 10
58.5000000000009521
 20
19.5000000000000391
 30
0.0
 11
72.0000000000009805
 21
19.5000000000000391
 31
0.0
  0
LINE
  5
42C3
  8
250
  6
CONTINUOUS
 10
71.0000000000009805
 20
-17.2699999999999392
 30
0.0
 11
71.0000000000009805
 21
17.2700000000000387
 31
0.0
  0
LINE
  5
42C4
  8
250
  6
CONTINUOUS
 10
71.3716666666676218
 20
-17.2699999999999392
 30
0.0
 11
71.0000000000009805
 21
-19.4999999999999503
 31
0.0
  0
LINE
  5
42C5
  8
250
  6
CONTINUOUS
 10
70.628333333334254
 20
-17.2699999999999392
 30
0.0
 11
71.0000000000009805
 21
-19.4999999999999503
 31
0.0
  0
LINE
  5
42C6
  8
250
  6
CONTINUOUS
 10
71.0000000000009805
 20
-19.4999999999999503
 30
0.0
 11
71.0000000000009805
 21
-17.2699999999999392
 31
0.0
  0
LINE
  5
42C7
  8
250
  6
CONTINUOUS
 10
70.628333333334254
 20
17.2700000000000387
 30
0.0
 11
71.0000000000009805
 21
19.5000000000000391
 31
0.0
  0
LINE
  5
42C8
  8
250
  6
CONTINUOUS
 10
71.3716666666676218
 20
17.2700000000000387
 30
0.0
 11
71.0000000000009805
 21
19.5000000000000391
 31
0.0
  0
LINE
  5
42C9
  8
250
  6
CONTINUOUS
 10
71.0000000000009805
 20
19.5000000000000391
 30
0.0
 11
71.0000000000009805
 21
17.2700000000000387
 31
0.0
  0
TEXT
  5
42CA
  8
250
  6
CONTINUOUS
 10
70.0000000000009663
 20
-3.866666666666617
 30
0.0
 40
2.799999999999998
  1
\U+220539
 50
90.0
1001
ACAD
1000
MTEXTBEGIN
1070
    73
1070
     1
1070
    44
1040
1.0
1070
    74
1070
     0
1000
MTEXTEND
  0
LINE
  5
42CB
  8
250
  6
CONTINUOUS
 10
55.3417627043247506
 20
21.0653841411253389
 30
0.0
 11
54.0530875700009616
 21
19.5000000000000604
 31
0.0
  0
LINE
  5
42CC
  8
250
  6
CONTINUOUS
 10
54.764412435077432
 20
21.3987174743587403
 30
0.0
 11
54.0530875700009616
 21
19.5000000000000604
 31
0.0
  0
LINE
  5
42CD
  8
250
  6
CONTINUOUS
 10
54.0530875700009616
 20
19.5000000000000604
 30
0.0
 11
55.0530875697010202
 21
21.2320508077420484
 31
0.0
  0
POLYLINE
  5
42CE
  8
250
  6
CONTINUOUS
 66
     1
 10
0.0
 20
0.0
 30
0.0
1001
ACAD
1000
DSTYLE
1002
{
1070
     6
1000
OPEN
1070
    41
1040
2.0
1070
    42
1040
2.0
1070
    44
1040
2.0
1070
    79
1070
     2
1070
   140
1040
4.0
1070
   179
1070
     3
1070
   343
1005
0
1070
   371
1070
    -1
1070
   372
1070
    -1
1002
}
  0
VERTEX
  5
42CF
  8
250
  6
CONTINUOUS
 10
55.0530875697010202
 20
21.2320508077420484
 30
0.0
  0
VERTEX
  5
42D0
  8
250
  6
CONTINUOUS
 10
63.9036864200009376
 20
36.5617377000000801
 30
0.0
  0
SEQEND
  5
42D1
  8
250
  6
CONTINUOUS
  0
TEXT
  5
42D2
  8
250
  6
CONTINUOUS
 10
66.3036864200008296
 20
37.5617377000000729
 30
0.0
 40
2.799999999999998
  1
CK4
  7
YOKO
1001
ITEMNAME
1000
LNSP3
1001
ACAD
1000
MTEXTBEGIN
1070
    73
1070
     1
1070
    44
1040
1.0
1070
    74
1070
     0
1000
MTEXTEND
1000
MTEXTBEGIN
1070
    73
1070
     1
1070
    44
1040
1.0
1070
    74
1070
     0
1000
MTEXTEND
  0
LINE
  5
42D3
  8
250
  6
CONTINUOUS
 10
63.9036864200009376
 20
36.5617377000000801
 30
0.0
 11
77.103686420000983
 21
36.5617377000000801
 31
0.0
1001
ITEMNAME
1000
LNSP2
  0
LINE
  5
42D4
  8
245
  6
CENTER2
 10
48.0000000000009521
 20
5.0000000000000444
 30
0.0
 11
48.0000000000009521
 21
-4.999999999999952
 31
0.0
  0
CIRCLE
  5
42D5
  8
242
  6
CONTINUOUS
 10
48.0000000000009521
 20
0.0000000000000462
 30
0.0
 40
3.5
  0
POLYLINE
  5
42D6
  8
241
  6
CONTINUOUS
 66
     1
 10
0.0
 20
0.0
 30
0.0
 70
     1
  0
VERTEX
  5
42D7
  8
241
  6
CONTINUOUS
 10
46.0000000000009166
 20
-1.1547005399999519
 30
0.0
  0
VERTEX
  5
42D8
  8
241
  6
CONTINUOUS
 10
48.0000000000009521
 20
-2.3094010799999518
 30
0.0
  0
VERTEX
  5
42D9
  8
241
  6
CONTINUOUS
 10
50.0000000000009521
 20
-1.1547005399999519
 30
0.0
  0
VERTEX
  5
42DA
  8
241
  6
CONTINUOUS
 10
50.0000000000009521
 20
1.1547005400000441
 30
0.0
  0
VERTEX
  5
42DB
  8
241
  6
CONTINUOUS
 10
48.0000000000009521
 20
2.3094010800000442
 30
0.0
  0
VERTEX
  5
42DC
  8
241
  6
CONTINUOUS
 10
46.0000000000009166
 20
1.1547005400000441
 30
0.0
  0
SEQEND
  5
42DD
  8
241
  6
CONTINUOUS
  0
CIRCLE
  5
42DE
  8
241
  6
CONTINUOUS
 10
48.0000000000009521
 20
0.0000000000000462
 30
0.0
 40
4.0
  0
LINE
  5
4315
  8
250
  6
CONTINUOUS
 10
-0.0000000000023022
 20
20.0000000000027889
 30
0.0
 11
-0.0000000000023022
 21
36.0
 31
0.0
  0
LINE
  5
4316
  8
250
  6
CONTINUOUS
 10
57.9999999999977405
 20
20.0
 30
0.0
 11
57.9999999999977405
 21
36.0
 31
0.0
  0
LINE
  5
4317
  8
250
  6
CONTINUOUS
 10
2.2299999999977
 20
35.0
 30
0.0
 11
55.7699999999977507
 21
35.0
 31
0.0
  0
LINE
  5
4318
  8
250
  6
CONTINUOUS
 10
2.2299999999977
 20
34.6283333333333303
 30
0.0
 11
-0.0000000000023022
 21
35.0
 31
0.0
  0
LINE
  5
4319
  8
250
  6
CONTINUOUS
 10
2.2299999999977
 20
35.3716666666666697
 30
0.0
 11
-0.0000000000023022
 21
35.0
 31
0.0
  0
LINE
  5
431A
  8
250
  6
CONTINUOUS
 10
-0.0000000000023022
 20
35.0
 30
0.0
 11
2.2299999999977
 21
35.0
 31
0.0
  0
LINE
  5
431B
  8
250
  6
CONTINUOUS
 10
55.7699999999977507
 20
35.3716666666666697
 30
0.0
 11
57.9999999999977405
 21
35.0
 31
0.0
  0
LINE
  5
431C
  8
250
  6
CONTINUOUS
 10
55.7699999999977507
 20
34.6283333333333303
 30
0.0
 11
57.9999999999977405
 21
35.0
 31
0.0
  0
LINE
  5
431D
  8
250
  6
CONTINUOUS
 10
57.9999999999977405
 20
35.0
 30
0.0
 11
55.7699999999977507
 21
35.0
 31
0.0
  0
TEXT
  5
431E
  8
250
  6
CONTINUOUS
 10
26.3333333333310406
 20
36.0
 30
0.0
 40
2.799999999999998
  1
58
1001
ACAD
1000
MTEXTBEGIN
1070
    73
1070
     1
1070
    44
1040
1.0
1070
    74
1070
     0
1000
MTEXTEND
1000
MTEXTBEGIN
1070
    73
1070
     1
1070
    44
1040
1.0
1070
    74
1070
     0
1000
MTEXTEND
  0
TEXT
  5
431F
  8
241
  6
CONTINUOUS
 10
-80.0000000000022737
 20
49.0
 30
0.0
 40
5.0
  1
ST32-CKB4-58
  7
YOKO
 11
-80.0000000000022737
 21
49.0
 31
0.0
 73
     1
  0
LINE
  5
433F
  8
247
  6
CONTINUOUS
 10
-73.2500000000718359
 20
-9.9999999999999662
 30
0.0
 11
-66.5576923080318608
 21
-9.9999999999999662
 31
0.0
  0
ARC
  5
4340
  8
247
  6
CONTINUOUS
 10
-73.2500000000718359
 20
-8.2500000000699973
 30
0.0
 40
1.7499999999299991
 50
90.0
 51
270.0
  0
ARC
  5
4341
  8
247
  6
CONTINUOUS
 10
-66.5576923080318608
 20
-8.2500000000699973
 30
0.0
 40
1.7499999999299991
 50
270.0
 51
90.0
  0
LINE
  5
4342
  8
247
  6
CONTINUOUS
 10
-72.3846153847218545
 20
-6.5000000001400284
 30
0.0
 11
-73.2448515419638682
 21
-9.5000000000199751
 31
0.0
  0
LINE
  5
4343
  8
247
  6
CONTINUOUS
 10
-71.4849838183376676
 20
-7.9230769231598623
 30
0.0
 11
-72.792676125977664
 21
-7.9230769231598623
 31
0.0
  0
ARC
  5
4344
  8
247
  6
CONTINUOUS
 10
-71.1451438160916041
 20
-7.0495986677028331
 30
0.0
 40
0.5538165441895349
 50
342.9978896752951982
 51
82.9241662185127524
  0
ARC
  5
4345
  8
247
  6
CONTINUOUS
 10
-71.5668783230306502
 20
-6.9360330444657956
 30
0.0
 40
0.9904354236226808
 50
274.7429368522014101
 51
343.8492262732664813
1001
GENIUS_GENOBJ-N-FIL_13
1002
{
1000
OWNER
1000
GEN
1002
}
1001
GENIUS_GENODEF_13
1002
{
1000
HIER
1070
     0
1002
}
1002
{
1000
MANEDIT
1070
     0
1002
}
1002
{
1000
NOSEL
1070
     0
1002
}
1002
{
1000
BEHIND
1070
     0
1002
}
1002
{
1000
OTHER
1070
     0
1002
}
1002
{
1000
REACTOR
1002
}
  0
LINE
  5
4346
  8
247
  6
CONTINUOUS
 10
-71.9371592343238433
 20
-9.5000000000199751
 30
0.0
 11
-73.2448515419638682
 21
-9.5000000000199751
 31
0.0
  0
LINE
  5
4347
  8
247
  6
CONTINUOUS
 10
-72.3846153847218545
 20
-6.5000000001400284
 30
0.0
 11
-71.0769230770818439
 21
-6.5000000001400284
 31
0.0
  0
ARC
  5
4348
  8
247
  6
CONTINUOUS
 10
-71.5609196365488174
 20
-8.4820242326654487
 30
0.0
 40
0.5640818586791229
 50
335.9909416525217125
 51
82.263443459069066
  0
ARC
  5
4349
  8
247
  6
CONTINUOUS
 10
-72.038262685348883
 20
-8.4874290391864768
 30
0.0
 40
1.0176059446230981
 50
275.7019851642580761
 51
347.2773384368222764
1001
GENIUS_GENOBJ-N-FIL_13
1002
{
1000
OWNER
1000
GEN
1002
}
1001
GENIUS_GENODEF_13
1002
{
1000
HIER
1070
     0
1002
}
1002
{
1000
MANEDIT
1070
     0
1002
}
1002
{
1000
NOSEL
1070
     0
1002
}
1002
{
1000
BEHIND
1070
     0
1002
}
1002
{
1000
OTHER
1070
     0
1002
}
1002
{
1000
REACTOR
1002
}
  0
LINE
  5
434A
  8
247
  6
CONTINUOUS
 10
-70.2833130805438486
 20
-9.5000000000199751
 30
0.0
 11
-69.4230769233018634
 21
-6.5000000001400284
 31
0.0
  0
LINE
  5
434B
  8
247
  6
CONTINUOUS
 10
-67.0000000003218616
 20
-6.5000000001400284
 30
0.0
 11
-67.5657366194584625
 21
-6.5000000001400284
 31
0.0
  0
LINE
  5
434C
  8
247
  6
CONTINUOUS
 10
-68.4615384618018368
 20
-9.5000000000199751
 30
0.0
 11
-67.8461538464418652
 21
-9.5000000000199751
 31
0.0
  0
ARC
  5
434D
  8
247
  6
CONTINUOUS
 10
-66.7087912091247119
 20
-8.5832851359733375
 30
0.0
 40
2.2526500823422122
 50
112.3594881415302069
 51
164.9932485428460041
  0
ARC
  5
434E
  8
247
  6
CONTINUOUS
 10
-67.3740694792150805
 20
-7.3083126551946069
 30
0.0
 40
0.8906723995727782
 50
4.9945893190754012
 51
65.1663289573004931
1001
GENIUS_GENOBJ-N-FIL_13
1002
{
1000
OWNER
1000
GEN
1002
}
1001
GENIUS_GENODEF_13
1002
{
1000
HIER
1070
     0
1002
}
1002
{
1000
MANEDIT
1070
     0
1002
}
1002
{
1000
NOSEL
1070
     0
1002
}
1002
{
1000
BEHIND
1070
     0
1002
}
1002
{
1000
OTHER
1070
     0
1002
}
1002
{
1000
REACTOR
1002
}
  0
ARC
  5
434F
  8
247
  6
CONTINUOUS
 10
-68.2264588862144308
 20
-8.1601458886677527
 30
0.0
 40
1.392781735586712
 50
285.8460965557807754
 51
352.3251370041621726
  0
ARC
  5
4350
  8
247
  6
CONTINUOUS
 10
-67.6422127258422137
 20
-8.4592434315272502
 30
0.0
 40
1.324563662670287
 50
159.7136016704899077
 51
231.788745656413198
1001
GENIUS_GENOBJ-N-FIL_13
1002
{
1000
OWNER
1000
GEN
1002
}
1001
GENIUS_GENODEF_13
1002
{
1000
HIER
1070
     0
1002
}
1002
{
1000
MANEDIT
1070
     0
1002
}
1002
{
1000
NOSEL
1070
     0
1002
}
1002
{
1000
BEHIND
1070
     0
1002
}
1002
{
1000
OTHER
1070
     0
1002
}
1002
{
1000
REACTOR
1002
}
  0
LINE
  5
4351
  8
247
  6
CONTINUOUS
 10
-67.538461538761851
 20
-8.3461538462199414
 30
0.0
 11
-66.8461538464818545
 21
-8.3461538462199414
 31
0.0
  0
LINE
  5
4352
  8
247
  6
CONTINUOUS
 10
-73.2500000000718927
 20
-6.5000000001400284
 30
0.0
 11
-72.5769230770219025
 21
-6.5000000001400284
 31
0.0
  0
LINE
  5
4353
  8
250
  6
CONTINUOUS
 10
-61.7178055143567335
 20
-17.7454033176972814
 30
0.0
 11
-60.2809327400018375
 21
-15.9999999999999698
 31
0.0
  0
LINE
  5
4354
  8
250
  6
CONTINUOUS
 10
-61.0740599640573407
 20
-18.1170699840990004
 30
0.0
 11
-60.2809327400018375
 21
-15.9999999999999698
 31
0.0
  0
LINE
  5
4355
  8
250
  6
CONTINUOUS
 10
-60.2809327400018375
 20
-15.9999999999999698
 30
0.0
 11
-61.3959327392070406
 21
-17.9312366508981391
 31
0.0
  0
LINE
  5
4356
  8
250
  6
CONTINUOUS
 10
-61.3959327392070406
 20
-17.9312366508981391
 30
0.0
 11
-65.3310095700018536
 21
-24.7469896599999615
 31
0.0
1001
ACAD
1000
DSTYLE
1002
{
1070
     6
1000
OPEN
1070
   343
1005
0
1002
}
  0
TEXT
  5
4357
  8
250
  6
CONTINUOUS
 10
-77.8643429100018665
 20
-23.7469896599999615
 30
0.0
 40
2.799999999999998
  1
ST32
  7
YOKO
1001
ITEMNAME
1000
LNSP3
  0
LINE
  5
4358
  8
250
  6
CONTINUOUS
 10
-65.3310095700018536
 20
-24.7469896599999615
 30
0.0
 11
-80.2643429100018437
 21
-24.7469896599999615
 31
0.0
1001
ITEMNAME
1000
LNSP2
  0
VIEWPORT
  5
22
 67
     1
  8
0
 10
261.517699115044195
 20
148.5
 30
0.0
 40
523.0353982300885036
 41
297.0
 68
     1
 69
     1
1001
ACAD
1000
MVIEW
1002
{
1070
    16
1010
0.0
1020
0.0
1030
0.0
1010
0.0
1020
0.0
1030
1.0
1040
0.0
1040
297.0
1040
261.517699115044195
1040
148.5
1040
50.0
1040
0.0
1040
0.0
1070
     0
1070
   100
1070
     1
1070
     1
1070
     0
1070
     0
1070
     0
1070
     0
1040
0.0
1040
0.0
1040
0.0
1040
1.0
1040
1.0
1040
10.0
1040
10.0
1070
     0
1002
{
1002
}
1002
}
1001
GENIUS_GENODEF_13
1002
{
1000
HIER
1070
     0
1002
}
1002
{
1000
MANEDIT
1070
     0
1002
}
1002
{
1000
NOSEL
1070
     0
1002
}
1002
{
1000
BEHIND
1070
     0
1002
}
1002
{
1000
OTHER
1070
     0
1002
}
1002
{
1000
REACTOR
1002
}
1001
GENIUS_GENOBJ-N-SDF_13
1002
{
1000
OWNER
1000
GEN
1002
}
1001
GENIUS_GENSCREG_15
1000
PF
1040
1.0
1000
DF
1040
1.0
1000
MIN
1011
0.0
1021
0.0
1031
0.0
1021
0.0
1031
0.0
1000
MAX
1011
523.0353982300885036
1021
0.0
1031
0.0
1021
297.0
1031
0.0
1000
FLAGS
1070
     4
  0
ENDSEC
  0
EOF
