  0
SECTION
  2
HEADER
  9
$ACADVER
  1
AC1009
  9
$INSBASE
 10
0.0
 20
0.0
 30
0.0
  9
$EXTMIN
 10
-81.4667335449472603
 20
-24.7469896600000006
 30
0.0
  9
$EXTMAX
 10
89.5866965099993564
 20
47.0000000000000071
 30
0.0
  9
$LIMMIN
 10
0.0
 20
0.0
  9
$LIMMAX
 10
297.0
 20
210.0
  9
$ORTHOMODE
 70
     1
  9
$REGENMODE
 70
     1
  9
$FILLMODE
 70
     1
  9
$QTEXTMODE
 70
     0
  9
$MIRRTEXT
 70
     1
  9
$DRAGMODE
 70
     2
  9
$LTSCALE
 40
10.0
  9
$OSMODE
 70
   807
  9
$ATTMODE
 70
     1
  9
$TEXTSIZE
 40
3.0
  9
$TRACEWID
 40
1.0
  9
$TEXTSTYLE
  7
YOKO
  9
$CLAYER
  8
240
  9
$CELTYPE
  6
BYLAYER
  9
$CECOLOR
 62
   256
  9
$DIMSCALE
 40
1.0
  9
$DIMASZ
 40
2.2299999999999991
  9
$DIMEXO
 40
0.5
  9
$DIMDLI
 40
7.0
  9
$DIMRND
 40
0.0
  9
$DIMDLE
 40
0.0
  9
$DIMEXE
 40
1.0
  9
$DIMTP
 40
0.0
  9
$DIMTM
 40
0.01
  9
$DIMTXT
 40
2.799999999999998
  9
$DIMCEN
 40
0.0
  9
$DIMTSZ
 40
0.0
  9
$DIMTOL
 70
     0
  9
$DIMLIM
 70
     0
  9
$DIMTIH
 70
     0
  9
$DIMTOH
 70
     0
  9
$DIMSE1
 70
     0
  9
$DIMSE2
 70
     0
  9
$DIMTAD
 70
     3
  9
$DIMZIN
 70
     9
  9
$DIMBLK
  1
OPEN
  9
$DIMASO
 70
     1
  9
$DIMSHO
 70
     1
  9
$DIMPOST
  1

  9
$DIMAPOST
  1

  9
$DIMALT
 70
     0
  9
$DIMALTD
 70
     2
  9
$DIMALTF
 40
25.3999999999999986
  9
$DIMLFAC
 40
1.0
  9
$DIMTOFL
 70
     1
  9
$DIMTVP
 40
0.0
  9
$DIMTIX
 70
     1
  9
$DIMSOXD
 70
     0
  9
$DIMSAH
 70
     0
  9
$DIMBLK1
  1

  9
$DIMBLK2
  1

  9
$DIMSTYLE
  2
BIGT
  9
$DIMCLRD
 70
   256
  9
$DIMCLRE
 70
   256
  9
$DIMCLRT
 70
    40
  9
$DIMTFAC
 40
1.0
  9
$DIMGAP
 40
1.0
  9
$LUNITS
 70
     2
  9
$LUPREC
 70
     6
  9
$SKETCHINC
 40
1.0
  9
$FILLETRAD
 40
3.0
  9
$AUNITS
 70
     0
  9
$AUPREC
 70
     6
  9
$MENU
  1
.
  9
$ELEVATION
 40
0.0
  9
$PELEVATION
 40
0.0
  9
$THICKNESS
 40
0.0
  9
$LIMCHECK
 70
     0
  9
$BLIPMODE
 70
     0
  9
$CHAMFERA
 40
0.2
  9
$CHAMFERB
 40
0.2
  9
$SKPOLY
 70
     0
  9
$TDCREATE
 40
2457744.4068055558018386
  9
$TDUPDATE
 40
2458291.6757754632271826
  9
$TDINDWG
 40
0.0265733681
  9
$TDUSRTIMER
 40
0.026573287
  9
$USRTIMER
 70
     1
  9
$ANGBASE
 50
0.0
  9
$ANGDIR
 70
     0
  9
$PDMODE
 70
     1
  9
$PDSIZE
 40
0.0
  9
$PLINEWID
 40
0.0
  9
$COORDS
 70
     1
  9
$SPLFRAME
 70
     0
  9
$SPLINETYPE
 70
     6
  9
$SPLINESEGS
 70
     4
  9
$ATTDIA
 70
     1
  9
$ATTREQ
 70
     1
  9
$HANDLING
 70
     1
  9
$HANDSEED
  5
4C7A
  9
$SURFTAB1
 70
     6
  9
$SURFTAB2
 70
     6
  9
$SURFTYPE
 70
     6
  9
$SURFU
 70
     6
  9
$SURFV
 70
     6
  9
$UCSNAME
  2

  9
$UCSORG
 10
0.0
 20
0.0
 30
0.0
  9
$UCSXDIR
 10
1.0
 20
0.0
 30
0.0
  9
$UCSYDIR
 10
0.0
 20
1.0
 30
0.0
  9
$PUCSNAME
  2

  9
$PUCSORG
 10
0.0
 20
0.0
 30
0.0
  9
$PUCSXDIR
 10
1.0
 20
0.0
 30
0.0
  9
$PUCSYDIR
 10
0.0
 20
1.0
 30
0.0
  9
$USERI1
 70
     1
  9
$USERI2
 70
     0
  9
$USERI3
 70
     0
  9
$USERI4
 70
     0
  9
$USERI5
 70
     0
  9
$USERR1
 40
0.0
  9
$USERR2
 40
0.0
  9
$USERR3
 40
0.0
  9
$USERR4
 40
0.0
  9
$USERR5
 40
0.0
  9
$WORLDVIEW
 70
     1
  9
$SHADEDGE
 70
     3
  9
$SHADEDIF
 70
    70
  9
$TILEMODE
 70
     1
  9
$MAXACTVP
 70
    16
  9
$PLIMCHECK
 70
     0
  9
$PEXTMIN
 10
1.0000000000000000E+20
 20
1.0000000000000000E+20
 30
1.0000000000000000E+20
  9
$PEXTMAX
 10
-1.0000000000000000E+20
 20
-1.0000000000000000E+20
 30
-1.0000000000000000E+20
  9
$PLIMMIN
 10
0.0
 20
0.0
  9
$PLIMMAX
 10
420.0
 20
297.0
  9
$UNITMODE
 70
     0
  9
$VISRETAIN
 70
     1
  9
$PLINEGEN
 70
     0
  9
$PSLTSCALE
 70
     1
  0
ENDSEC
  0
SECTION
  2
TABLES
  0
TABLE
  2
VPORT
 70
     1
  0
VPORT
  2
*ACTIVE
 70
     0
 10
0.0
 20
0.0
 11
1.0
 21
1.0
 12
5.6985776853317409
 22
11.7568583572926304
 13
0.0
 23
0.0
 14
7.0
 24
7.0
 15
7.0
 25
7.0
 16
0.0
 26
0.0
 36
1.0
 17
0.0
 27
0.0
 37
0.0
 40
116.2064461820646954
 41
1.887387387387387
 42
50.0
 43
0.0
 44
0.0
 50
0.0
 51
0.0
 71
     0
 72
  2000
 73
     1
 74
     0
 75
     0
 76
     1
 77
     0
 78
     0
  0
ENDTAB
  0
TABLE
  2
LTYPE
 70
    17
  0
LTYPE
  2
CONTINUOUS
 70
     0
  3
Solid line
 72
    65
 73
     0
 40
0.0
  0
LTYPE
  2
CENTER2
 70
     0
  3
___ _ ___ _ ___ _ ___ _ ___ _ ___ _ ___ _ ___ _
 72
    65
 73
     4
 40
1.125
 49
0.75
 49
-0.125
 49
0.125
 49
-0.125
  0
LTYPE
  2
HIDDEN2
 70
     0
  3
_ _ _ _ _ _ _ _ _ _ _ _ _ _ _ _ _ _ _ _ _ _ _ _
 72
    65
 73
     2
 40
0.1875
 49
0.125
 49
-0.0625
  0
LTYPE
  2
PHANTOM2
 70
     0
  3
___ _ _ ___ _ _ ___ _ _ ___ _ _ ___ _ _ ___ _ _
 72
    65
 73
     6
 40
1.25
 49
0.625
 49
-0.125
 49
0.125
 49
-0.125
 49
0.125
 49
-0.125
  0
LTYPE
  2
AMCONSTR
 70
     0
  3
_______________________
 72
    65
 73
     2
 40
9999.0
 49
9999.0
 49
0.0
  0
LTYPE
  2
HIDDEN
 70
     0
  3
Hidden __ __ __ __ __ __ __ __ __ __ __ __ __ _
 72
    65
 73
     2
 40
0.375
 49
0.25
 49
-0.125
  0
LTYPE
  2
CENTER
 70
     0
  3
Center ____ _ ____ _ ____ _ ____ _ ____ _ ____
 72
    65
 73
     4
 40
2.0
 49
1.25
 49
-0.25
 49
0.25
 49
-0.25
  0
LTYPE
  2
AMZIGZAG2
 70
     0
  3
/\/-/\/-/\/-/\/-/\/-/\/
 72
    65
 73
     2
 40
0.4401
 49
0.0001
 49
-0.4400000000000003
  0
LTYPE
  2
ACANSTGB
 70
     0
  3
__ . . __ . .
 72
    65
 73
     6
 40
0.35433070866
 49
0.15748031496
 49
-0.03937007874
 49
0.03937007874
 49
-0.03937007874
 49
0.03937007874
 49
-0.03937007874
  0
LTYPE
  2
ACANSTGL
 70
     0
  3
_ _ _ _ _
 72
    65
 73
     2
 40
0.11811023622
 49
0.07874015748
 49
-0.03937007874
  0
ENDTAB
  0
TABLE
  2
LAYER
 70
    10
  0
LAYER
  2
0
 70
     0
 62
     7
  6
CONTINUOUS
  0
LAYER
  2
240
 70
     0
 62
     4
  6
CONTINUOUS
  0
LAYER
  2
DEFPOINTS
 70
     0
 62
     7
  6
CONTINUOUS
  0
LAYER
  2
245
 70
     0
 62
     2
  6
CENTER2
  0
LAYER
  2
241
 70
     0
 62
   211
  6
CONTINUOUS
  0
LAYER
  2
242
 70
     0
 62
     3
  6
CONTINUOUS
  0
LAYER
  2
243
 70
     0
 62
   211
  6
HIDDEN2
  0
LAYER
  2
247
 70
     0
 62
    60
  6
CONTINUOUS
  0
LAYER
  2
250
 70
     0
 62
     3
  6
CONTINUOUS
  0
ENDTAB
  0
TABLE
  2
STYLE
 70
     6
  0
STYLE
  2
STANDARD
 70
     0
 40
0.0
 41
1.0
 50
0.0
 71
     0
 42
3.0
  3
romans.shx
  4
extfont.shx
  0
STYLE
  2
YOKO
 70
     0
 40
0.0
 41
1.0
 50
0.0
 71
     0
 42
3.0
  3
romans.shx
  4
extfont.shx
  0
STYLE
  2
ACANSGDT
 70
     0
 40
0.0
 41
1.0
 50
0.0
 71
     0
 42
3.0
  3
amgdt.shx
  4

  0
ENDTAB
  0
TABLE
  2
VIEW
 70
     0
  0
ENDTAB
  0
TABLE
  2
UCS
 70
     0
  0
ENDTAB
  0
TABLE
  2
APPID
 70
    47
  0
APPID
  2
ACAD
 70
     0
  0
APPID
  2
ACADANNOTATIVE
 70
     0
  0
APPID
  2
GLOBAL
 70
     0
  0
APPID
  2
DETAIL
 70
     0
  0
APPID
  2
GRPNAME
 70
     0
  0
APPID
  2
GPARA
 70
     0
  0
APPID
  2
MCAD_NO_VIS
 70
     0
  0
APPID
  2
ACAD_TEMP_GRAPHIC
 70
     0
  0
APPID
  2
ACATTRIBSERVICES
 70
     0
  0
APPID
  2
GENIUS_GENSCREG_15
 70
     0
  0
APPID
  2
GENIUS_GENODEF_13
 70
     0
  0
APPID
  2
GENIUS_GENOBJ-N-SDF_13
 70
     0
  0
APPID
  2
GENIUS_GENREC_14
 70
     0
  0
APPID
  2
GENIUS_GENOBJ-N-REC_13
 70
     0
  0
APPID
  2
GENIUS_GENDIMSH_14
 70
     0
  0
APPID
  2
GENIUS_GENOBJ-N-DIM_13
 70
     0
  0
APPID
  2
GENIUS_GENDIM_13
 70
     0
  0
APPID
  2
GENIUS_GENDTOL_13
 70
     0
  0
APPID
  2
GENIUS_GENOLIS_13
 70
     0
  0
APPID
  2
GENIUS_GENOENT_13
 70
     0
  0
APPID
  2
GENIUS_GENOBJ-F-FEM_13
 70
     0
  0
APPID
  2
GENIUS_GENOREF_13
 70
     0
  0
APPID
  2
GENIUS_GEFFEM_13
 70
     0
  0
APPID
  2
GENIUS_GEFFEMP_13
 70
     0
  0
APPID
  2
AD_DRAW
 70
     0
  0
APPID
  2
DESIGNERASSEMBLIES
 70
     0
  0
APPID
  2
ACADM_DIM_EDIT
 70
     0
  0
APPID
  2
AMDT_DM_ADJ
 70
     0
  0
APPID
  2
ITEMNAME
 70
     0
  0
APPID
  2
GENIUS_GENOBJ-N-FIL_13
 70
     0
  0
APPID
  2
GENIUS_GENFIL_13
 70
     0
  0
APPID
  2
GENIUS_GENOBJ-N-CHA_13
 70
     0
  0
APPID
  2
ACAD_NAV_VCDISPLAY
 70
     0
  0
APPID
  2
LAYER_SCALE
 70
     0
  0
APPID
  2
ACAD_PSEXT
 70
     0
  0
APPID
  2
ASK_MEN_XD
 70
     0
  0
APPID
  2
GRADIENTCOLOR1ACI
 70
     0
  0
APPID
  2
GRADIENTCOLOR2ACI
 70
     0
  0
APPID
  2
ACAD_EXEMPT_FROM_CAD_STANDARDS
 70
     0
  0
APPID
  2
ACAD_DSTYLE_DIMJAG
 70
     0
  0
APPID
  2
ACAD_DSTYLE_DIMBREAK
 70
     0
  0
APPID
  2
ACAECLAYERSTANDARD
 70
     0
  0
APPID
  2
ACAD_MLEADERVER
 70
     0
  0
APPID
  2
ACAD_DSTYLE_DIMARC_LENGTH_
 70
     0
  0
APPID
  2
ACAD_DSTYLE_DIM_LINETYPE
 70
     0
  0
APPID
  2
ACAD_DSTYLE_DIM_EXT1_LINETYPE
 70
     0
  0
APPID
  2
ACAD_DSTYLE_DIM_EXT2_LINETYPE
 70
     0
  0
ENDTAB
  0
TABLE
  2
DIMSTYLE
 70
     9
  0
DIMSTYLE
  2
STANDARD
 70
     0
  3

  4

  5

  6

  7

 40
1.0
 41
0.18
 42
0.0625
 43
0.38
 44
0.18
 45
0.0
 46
0.0
 47
0.0
 48
0.0
140
0.18
141
0.09
142
0.0
143
25.3999999999999986
144
1.0
145
0.0
146
1.0
147
0.09
 71
     0
 72
     0
 73
     1
 74
     1
 75
     0
 76
     0
 77
     0
 78
     0
170
     0
171
     2
172
     0
173
     0
174
     0
175
     0
176
     0
177
     0
178
     0
  0
DIMSTYLE
  2
BIGT
 70
     0
  3

  4

  5

  6

  7

 40
1.0
 41
2.2299999999999991
 42
0.5
 43
7.0
 44
1.0
 45
0.0
 46
0.0
 47
0.0
 48
0.01
140
2.799999999999998
141
0.0
142
0.0
143
25.3999999999999986
144
1.0
145
0.0
146
1.0
147
1.0
 71
     0
 72
     0
 73
     0
 74
     0
 75
     0
 76
     0
 77
     3
 78
     9
170
     0
171
     2
172
     1
173
     0
174
     1
175
     0
176
   256
177
   256
178
    40
  0
DIMSTYLE
  2
AM_ANSI
 70
     0
  3

  4
mm
  5

  6

  7

 40
1.0
 41
0.12
 42
0.05
 43
0.5
 44
0.1
 45
0.0
 46
0.0
 47
0.1
 48
0.1
140
0.12
141
0.0
142
0.0
143
25.3999999999999986
144
1.0
145
0.0
146
0.71
147
0.06
 71
     0
 72
     0
 73
     1
 74
     1
 75
     0
 76
     0
 77
     0
 78
     7
170
     0
171
     2
172
     0
173
     0
174
     0
175
     0
176
   256
177
   256
178
     2
  0
DIMSTYLE
  2
AM_ANSI$3
 70
     0
  3

  4
mm
  5

  6

  7

 40
1.0
 41
0.12
 42
0.05
 43
0.5
 44
0.1
 45
0.0
 46
0.0
 47
0.1
 48
0.1
140
0.12
141
0.0
142
0.0
143
25.3999999999999986
144
1.0
145
0.0
146
0.71
147
0.06
 71
     0
 72
     0
 73
     1
 74
     1
 75
     0
 76
     0
 77
     0
 78
     7
170
     0
171
     2
172
     0
173
     0
174
     0
175
     0
176
   256
177
   256
178
     2
  0
DIMSTYLE
  2
AM_ANSI$4
 70
     0
  3

  4
mm
  5

  6

  7

 40
1.0
 41
0.12
 42
0.05
 43
0.5
 44
0.1
 45
0.0
 46
0.0
 47
0.1
 48
0.1
140
0.12
141
0.0
142
0.0
143
25.3999999999999986
144
1.0
145
0.0
146
0.71
147
0.06
 71
     0
 72
     0
 73
     1
 74
     1
 75
     0
 76
     0
 77
     0
 78
     7
170
     0
171
     2
172
     0
173
     0
174
     0
175
     0
176
   256
177
   256
178
     2
  0
DIMSTYLE
  2
AM_ANSI$7
 70
     0
  3

  4
mm
  5

  6

  7

 40
1.0
 41
0.12
 42
0.05
 43
0.5
 44
0.1
 45
0.0
 46
0.0
 47
0.1
 48
0.1
140
0.12
141
0.0
142
0.0
143
25.3999999999999986
144
1.0
145
0.0
146
0.71
147
0.06
 71
     0
 72
     0
 73
     1
 74
     1
 75
     0
 76
     0
 77
     0
 78
     7
170
     0
171
     2
172
     0
173
     0
174
     0
175
     0
176
   256
177
   256
178
     2
  0
DIMSTYLE
  2
AM_ANSI$SF
 70
     0
  3

  4
mm
  5

  6

  7

 40
1.0
 41
0.12
 42
0.05
 43
0.5
 44
0.1
 45
0.0
 46
0.0
 47
0.1
 48
0.1
140
0.12
141
0.0
142
0.0
143
25.3999999999999986
144
1.0
145
0.0
146
0.71
147
0.06
 71
     0
 72
     0
 73
     1
 74
     1
 75
     1
 76
     1
 77
     0
 78
     7
170
     0
171
     2
172
     0
173
     0
174
     0
175
     0
176
   256
177
   256
178
     2
  0
DIMSTYLE
  2
AM_ANSI$SH
 70
     0
  3

  4
mm
  5

  6

  7

 40
1.0
 41
0.12
 42
0.05
 43
0.5
 44
0.1
 45
0.0
 46
0.0
 47
0.1
 48
0.1
140
0.12
141
0.0
142
0.0
143
25.3999999999999986
144
1.0
145
0.0
146
0.71
147
0.06
 71
     0
 72
     0
 73
     1
 74
     1
 75
     1
 76
     1
 77
     0
 78
     7
170
     0
171
     2
172
     0
173
     1
174
     0
175
     0
176
   256
177
   256
178
     2
  0
ENDTAB
  0
ENDSEC
  0
SECTION
  2
BLOCKS
  0
BLOCK
  8
0
  2
$MODEL_SPACE
 70
     0
 10
0.0
 20
0.0
 30
0.0
  3
$MODEL_SPACE
  1

  0
ENDBLK
  5
4B56
  8
0
  0
BLOCK
 67
     1
  8
0
  2
$PAPER_SPACE
 70
     0
 10
0.0
 20
0.0
 30
0.0
  3
$PAPER_SPACE
  1

  0
ENDBLK
  5
4B52
 67
     1
  8
0
  0
BLOCK
  8
0
  2
_OPEN
 70
     0
 10
0.0
 20
0.0
 30
0.0
  3
_OPEN
  1

  0
LINE
  5
45AC
  8
0
  6
BYBLOCK
 62
     0
 10
-1.0
 20
0.1666666666666666
 30
0.0
 11
0.0
 21
0.0
 31
0.0
  0
LINE
  5
45AD
  8
0
  6
BYBLOCK
 62
     0
 10
-1.0
 20
-0.1666666666666666
 30
0.0
 11
0.0
 21
0.0
 31
0.0
  0
LINE
  5
45AE
  8
0
  6
BYBLOCK
 62
     0
 10
0.0
 20
0.0
 30
0.0
 11
-1.0
 21
0.0
 31
0.0
  0
ENDBLK
  5
45AF
  8
0
  0
BLOCK
  8
0
  2
_ACMFILLEDHALF
 70
     0
 10
0.0
 20
0.0
 30
0.0
  3
_ACMFILLEDHALF
  1

  0
TRACE
  5
47DF
  8
240
 62
     0
 10
-0.8
 20
0.0
 30
0.0
 11
-1.0
 21
0.166666666
 31
0.0
 12
0.0
 22
0.0
 32
0.0
 13
0.0
 23
0.0
 33
0.0
  0
LINE
  5
47E0
  8
240
 62
     0
 10
-1.0
 20
0.0
 30
0.0
 11
-0.8
 21
0.0
 31
0.0
  0
ENDBLK
  5
47DE
  8
0
  0
ENDSEC
  0
SECTION
  2
ENTITIES
  0
LINE
  5
422B
  8
240
  6
CONTINUOUS
 10
-0.00000000000189
 20
-19.0
 30
0.0
 11
-0.0000000000016058
 21
-16.0
 31
0.0
  0
LINE
  5
422C
  8
240
  6
CONTINUOUS
 10
-0.0000000000018474
 20
16.0
 30
0.0
 11
-0.0000000000018474
 21
19.0
 31
0.0
  0
LINE
  5
4230
  8
240
  6
CONTINUOUS
 10
-0.0000000000018474
 20
19.0
 30
0.0
 11
4.9999999999981499
 21
19.0
 31
0.0
  0
LINE
  5
4236
  8
240
  6
CONTINUOUS
 10
-0.00000000000189
 20
-19.0
 30
0.0
 11
4.9999999999981499
 21
-19.0
 31
0.0
  0
LINE
  5
423E
  8
240
  6
CONTINUOUS
 10
-80.000000000001819
 20
-16.0
 30
0.0
 11
-80.000000000001819
 21
16.0
 31
0.0
  0
LINE
  5
423F
  8
240
  6
CONTINUOUS
 10
-80.000000000001819
 20
16.0
 30
0.0
 11
-0.0000000000018474
 21
16.0
 31
0.0
  0
LINE
  5
4240
  8
240
  6
CONTINUOUS
 10
-80.000000000001819
 20
-16.0
 30
0.0
 11
-0.0000000000016058
 21
-16.0
 31
0.0
  0
LINE
  5
424F
  8
240
  6
CONTINUOUS
 10
4.9999999999981499
 20
19.0
 30
0.0
 11
4.9999999999981499
 21
15.0
 31
0.0
  0
LINE
  5
4250
  8
240
  6
CONTINUOUS
 10
72.4999999999982805
 20
-12.0
 30
0.0
 11
72.4999999999982805
 21
11.9999999999999893
 31
0.0
  0
LINE
  5
4265
  8
240
  6
CONTINUOUS
 10
71.7499999999983089
 20
-12.0
 30
0.0
 11
62.9999999999983089
 21
-12.0
 31
0.0
  0
LINE
  5
4267
  8
240
  6
CONTINUOUS
 10
72.4999999999982805
 20
11.9999999999999893
 30
0.0
 11
7.9999999999981499
 21
12.0
 31
0.0
  0
LINE
  5
4268
  8
240
  6
CONTINUOUS
 10
4.9999999999981499
 20
-19.0
 30
0.0
 11
4.9999999999981499
 21
-15.0
 31
0.0
  0
LINE
  5
426A
  8
240
  6
CONTINUOUS
 10
72.4999999999982805
 20
-12.0
 30
0.0
 11
7.9999999999981499
 21
-12.0
 31
0.0
  0
LINE
  5
427C
  8
245
  6
CENTER2
 10
-81.4667335449472603
 20
0.0
 30
0.0
 11
74.5467922143655812
 21
-0.0000000000000044
 31
0.0
  0
ARC
  5
427D
  8
240
  6
CONTINUOUS
 10
7.9999999999981499
 20
-15.0
 30
0.0
 40
3.0
 50
90.0
 51
180.0
1001
GENIUS_GENODEF_13
1002
{
1000
HIER
1070
     0
1002
}
1002
{
1000
MANEDIT
1070
     0
1002
}
1002
{
1000
NOSEL
1070
     0
1002
}
1002
{
1000
BEHIND
1070
     0
1002
}
1002
{
1000
OTHER
1070
     0
1002
}
1002
{
1000
REACTOR
1002
}
1001
GENIUS_GENOBJ-N-FIL_13
1002
{
1000
OWNER
1000
GEN
1002
}
  0
ARC
  5
427F
  8
240
  6
CONTINUOUS
 10
7.9999999999981499
 20
15.0
 30
0.0
 40
3.0
 50
180.0
 51
270.0
1001
GENIUS_GENODEF_13
1002
{
1000
HIER
1070
     0
1002
}
1002
{
1000
MANEDIT
1070
     0
1002
}
1002
{
1000
NOSEL
1070
     0
1002
}
1002
{
1000
BEHIND
1070
     0
1002
}
1002
{
1000
OTHER
1070
     0
1002
}
1002
{
1000
REACTOR
1002
}
1001
GENIUS_GENOBJ-N-FIL_13
1002
{
1000
OWNER
1000
GEN
1002
}
  0
LINE
  5
4280
  8
241
  6
CONTINUOUS
 10
-0.0000000000016058
 20
-16.0
 30
0.0
 11
-0.0000000000018474
 21
16.0
 31
0.0
  0
LINE
  5
4281
  8
241
  6
CONTINUOUS
 10
4.9999999999981499
 20
-15.0
 30
0.0
 11
4.9999999999981499
 21
15.0
 31
0.0
  0
LINE
  5
42EE
  8
243
  6
HIDDEN2
 10
54.9499999999982904
 20
6.9999999999999938
 30
0.0
 11
72.4999999999982805
 21
6.9999999999999938
 31
0.0
1001
GRPNAME
1000
PASTMD01
  0
LINE
  5
42EF
  8
243
  6
HIDDEN2
 10
54.9499999999983686
 20
-7.0000000000001048
 30
0.0
 11
72.4999999999982805
 21
-7.0000000000000657
 31
0.0
1001
GRPNAME
1000
PASTMD01
  0
LINE
  5
42F0
  8
250
  6
CONTINUOUS
 10
72.9999999999993605
 20
-11.9999999999999396
 30
0.0
 11
83.4999999999993747
 21
-11.9999999999999396
 31
0.0
  0
LINE
  5
42F1
  8
250
  6
CONTINUOUS
 10
72.9999999999993605
 20
12.0000000000000302
 30
0.0
 11
83.4999999999993747
 21
12.0000000000000302
 31
0.0
  0
LINE
  5
42F2
  8
250
  6
CONTINUOUS
 10
82.4999999999993463
 20
-9.7699999999999481
 30
0.0
 11
82.4999999999993463
 21
9.7700000000000475
 31
0.0
  0
LINE
  5
42F3
  8
250
  6
CONTINUOUS
 10
82.8716666666660444
 20
-9.7699999999999481
 30
0.0
 11
82.4999999999993463
 21
-11.9999999999999396
 31
0.0
  0
LINE
  5
42F4
  8
250
  6
CONTINUOUS
 10
82.1283333333327903
 20
-9.7699999999999481
 30
0.0
 11
82.4999999999993463
 21
-11.9999999999999396
 31
0.0
  0
LINE
  5
42F5
  8
250
  6
CONTINUOUS
 10
82.4999999999993463
 20
-11.9999999999999396
 30
0.0
 11
82.4999999999993463
 21
-9.7699999999999481
 31
0.0
  0
LINE
  5
42F6
  8
250
  6
CONTINUOUS
 10
82.1283333333327903
 20
9.7700000000000475
 30
0.0
 11
82.4999999999993463
 21
12.0000000000000302
 31
0.0
  0
LINE
  5
42F7
  8
250
  6
CONTINUOUS
 10
82.8716666666660444
 20
9.7700000000000475
 30
0.0
 11
82.4999999999993463
 21
12.0000000000000302
 31
0.0
  0
LINE
  5
42F8
  8
250
  6
CONTINUOUS
 10
82.4999999999993463
 20
12.0000000000000302
 30
0.0
 11
82.4999999999993463
 21
9.7700000000000475
 31
0.0
  0
TEXT
  5
42F9
  8
250
  6
CONTINUOUS
 10
81.4999999999993605
 20
-3.9999999999999512
 30
0.0
 40
2.799999999999998
  1
\U+220524
 50
90.0
1001
ACAD
1000
MTEXTBEGIN
1070
    73
1070
     1
1070
    44
1040
1.0
1070
    74
1070
     0
1000
MTEXTEND
  0
LINE
  5
42FA
  8
250
  6
CONTINUOUS
 10
69.8042479746430757
 20
13.5653841408620508
 30
0.0
 11
68.5155728399993933
 21
12.0000000000001101
 31
0.0
  0
LINE
  5
42FB
  8
250
  6
CONTINUOUS
 10
69.2268977054639123
 20
13.8987174742134094
 30
0.0
 11
68.5155728399993933
 21
12.0000000000001101
 31
0.0
  0
LINE
  5
42FC
  8
250
  6
CONTINUOUS
 10
68.5155728399993933
 20
12.0000000000001101
 30
0.0
 11
69.5155728400535793
 21
13.7320508075377301
 31
0.0
  0
LINE
  5
42FD
  8
250
  6
CONTINUOUS
 10
69.5155728400535793
 20
13.7320508075377301
 30
0.0
 11
76.5200298399993954
 21
25.8641262100001192
 31
0.0
1001
ACAD
1000
DSTYLE
1002
{
1070
     6
1000
OPEN
1070
    41
1040
2.0
1070
    42
1040
2.0
1070
    44
1040
2.0
1070
    79
1070
     2
1070
   140
1040
4.0
1070
   179
1070
     3
1070
   343
1005
0
1070
   371
1070
    -1
1070
   372
1070
    -1
1002
}
  0
TEXT
  5
42FE
  8
250
  6
CONTINUOUS
 10
78.9200298399993869
 20
26.8641262100001086
 30
0.0
 40
2.799999999999998
  1
CK2
  7
YOKO
1001
ITEMNAME
1000
LNSP3
1001
ACAD
1000
MTEXTBEGIN
1070
    73
1070
     1
1070
    44
1040
1.0
1070
    74
1070
     0
1000
MTEXTEND
1000
MTEXTBEGIN
1070
    73
1070
     1
1070
    44
1040
1.0
1070
    74
1070
     0
1000
MTEXTEND
  0
LINE
  5
42FF
  8
250
  6
CONTINUOUS
 10
76.5200298399993954
 20
25.8641262100001192
 30
0.0
 11
89.5866965099993564
 21
25.8641262100001192
 31
0.0
1001
ITEMNAME
1000
LNSP2
  0
CIRCLE
  5
4300
  8
241
  6
CONTINUOUS
 10
65.9999999999993605
 20
0.000000000000048
 30
0.0
 40
2.6000000000000001
  0
CIRCLE
  5
4301
  8
242
  6
CONTINUOUS
 10
65.9999999999993605
 20
0.000000000000048
 30
0.0
 40
2.25
  0
LINE
  5
4302
  8
245
  6
CENTER2
 10
65.9999999999993605
 20
3.6000000000000449
 30
0.0
 11
65.9999999999993605
 21
-3.5999999999999481
 31
0.0
  0
POLYLINE
  5
4303
  8
241
  6
CONTINUOUS
 66
     1
 10
0.0
 20
0.0
 30
0.0
 70
     1
  0
VERTEX
  5
4304
  8
241
  6
CONTINUOUS
 10
64.7499999999993605
 20
-0.721687839999952
 30
0.0
  0
VERTEX
  5
4305
  8
241
  6
CONTINUOUS
 10
65.9999999999993605
 20
-1.443375669999948
 30
0.0
  0
VERTEX
  5
4306
  8
241
  6
CONTINUOUS
 10
67.2499999999993605
 20
-0.721687839999952
 30
0.0
  0
VERTEX
  5
4307
  8
241
  6
CONTINUOUS
 10
67.2499999999993605
 20
0.721687840000048
 30
0.0
  0
VERTEX
  5
4308
  8
241
  6
CONTINUOUS
 10
65.9999999999993605
 20
1.443375670000046
 30
0.0
  0
VERTEX
  5
4309
  8
241
  6
CONTINUOUS
 10
64.7499999999993605
 20
0.721687840000048
 30
0.0
  0
SEQEND
  5
430A
  8
241
  6
CONTINUOUS
  0
LINE
  5
4352
  8
250
  6
CONTINUOUS
 10
-0.0000000000017337
 20
19.5
 30
0.0
 11
-0.0000000000017337
 21
29.0
 31
0.0
  0
LINE
  5
4353
  8
250
  6
CONTINUOUS
 10
72.4995794777199052
 20
12.5
 30
0.0
 11
72.4995794777199052
 21
29.0
 31
0.0
  0
LINE
  5
4354
  8
250
  6
CONTINUOUS
 10
2.229999999998268
 20
28.0
 30
0.0
 11
70.269579477719887
 21
28.0
 31
0.0
  0
LINE
  5
4355
  8
250
  6
CONTINUOUS
 10
2.229999999998268
 20
27.6283333333333303
 30
0.0
 11
-0.0000000000017337
 21
28.0
 31
0.0
  0
LINE
  5
4356
  8
250
  6
CONTINUOUS
 10
2.229999999998268
 20
28.3716666666666697
 30
0.0
 11
-0.0000000000017337
 21
28.0
 31
0.0
  0
LINE
  5
4357
  8
250
  6
CONTINUOUS
 10
-0.0000000000017337
 20
28.0
 30
0.0
 11
2.229999999998268
 21
28.0
 31
0.0
  0
LINE
  5
4358
  8
250
  6
CONTINUOUS
 10
70.269579477719887
 20
28.371666666666659
 30
0.0
 11
72.4995794777199052
 21
28.0
 31
0.0
  0
LINE
  5
4359
  8
250
  6
CONTINUOUS
 10
70.269579477719887
 20
27.6283333333333303
 30
0.0
 11
72.4995794777199052
 21
28.0
 31
0.0
  0
LINE
  5
435A
  8
250
  6
CONTINUOUS
 10
72.4995794777199052
 20
28.0
 30
0.0
 11
70.269579477719887
 21
28.0
 31
0.0
  0
TEXT
  5
435B
  8
250
  6
CONTINUOUS
 10
31.58333333333157
 20
29.0
 30
0.0
 40
2.799999999999998
  1
72.5
1001
ACAD
1000
MTEXTBEGIN
1070
    73
1070
     1
1070
    44
1040
1.0
1070
    74
1070
     0
1000
MTEXTEND
1000
MTEXTBEGIN
1070
    73
1070
     1
1070
    44
1040
1.0
1070
    74
1070
     0
1000
MTEXTEND
1000
MTEXTBEGIN
1070
    73
1070
     1
1070
    44
1040
1.0
1070
    74
1070
     0
1000
MTEXTEND
  0
TEXT
  5
435C
  8
241
  6
CONTINUOUS
 10
-80.0000000000017337
 20
42.0
 30
0.0
 40
5.0
  1
ST32-CKB2-73
  7
YOKO
 11
-80.0000000000017337
 21
42.0
 31
0.0
 73
     1
  0
LINE
  5
437C
  8
247
  6
CONTINUOUS
 10
-73.2500000000718074
 20
-10.0
 30
0.0
 11
-66.5576923080318608
 21
-10.0
 31
0.0
  0
ARC
  5
437D
  8
247
  6
CONTINUOUS
 10
-73.2500000000718074
 20
-8.2500000000700311
 30
0.0
 40
1.7499999999299991
 50
90.0
 51
270.0
  0
ARC
  5
437E
  8
247
  6
CONTINUOUS
 10
-66.5576923080318608
 20
-8.2500000000700311
 30
0.0
 40
1.7499999999299991
 50
270.0
 51
90.0
  0
LINE
  5
437F
  8
247
  6
CONTINUOUS
 10
-72.3846153847218545
 20
-6.5000000001400622
 30
0.0
 11
-73.2448515419638682
 21
-9.5000000000200089
 31
0.0
  0
LINE
  5
4380
  8
247
  6
CONTINUOUS
 10
-71.4849838183376676
 20
-7.9230769231598961
 30
0.0
 11
-72.792676125977664
 21
-7.9230769231598961
 31
0.0
  0
ARC
  5
4381
  8
247
  6
CONTINUOUS
 10
-71.1451438160915899
 20
-7.049598667702865
 30
0.0
 40
0.5538165441895349
 50
342.9978896752951982
 51
82.9241662185127524
  0
ARC
  5
4382
  8
247
  6
CONTINUOUS
 10
-71.5668783230306502
 20
-6.9360330444658302
 30
0.0
 40
0.9904354236226808
 50
274.7429368522014101
 51
343.8492262732664813
1001
GENIUS_GENOBJ-N-FIL_13
1002
{
1000
OWNER
1000
GEN
1002
}
1001
GENIUS_GENODEF_13
1002
{
1000
HIER
1070
     0
1002
}
1002
{
1000
MANEDIT
1070
     0
1002
}
1002
{
1000
NOSEL
1070
     0
1002
}
1002
{
1000
BEHIND
1070
     0
1002
}
1002
{
1000
OTHER
1070
     0
1002
}
1002
{
1000
REACTOR
1002
}
  0
LINE
  5
4383
  8
247
  6
CONTINUOUS
 10
-71.9371592343238433
 20
-9.5000000000200089
 30
0.0
 11
-73.2448515419638682
 21
-9.5000000000200089
 31
0.0
  0
LINE
  5
4384
  8
247
  6
CONTINUOUS
 10
-72.3846153847218545
 20
-6.5000000001400622
 30
0.0
 11
-71.0769230770818439
 21
-6.5000000001400622
 31
0.0
  0
ARC
  5
4385
  8
247
  6
CONTINUOUS
 10
-71.5609196365488174
 20
-8.4820242326654807
 30
0.0
 40
0.5640818586791229
 50
335.9909416525217125
 51
82.263443459069066
  0
ARC
  5
4386
  8
247
  6
CONTINUOUS
 10
-72.0382626853488688
 20
-8.4874290391865088
 30
0.0
 40
1.0176059446230981
 50
275.7019851642580761
 51
347.2773384368222764
1001
GENIUS_GENOBJ-N-FIL_13
1002
{
1000
OWNER
1000
GEN
1002
}
1001
GENIUS_GENODEF_13
1002
{
1000
HIER
1070
     0
1002
}
1002
{
1000
MANEDIT
1070
     0
1002
}
1002
{
1000
NOSEL
1070
     0
1002
}
1002
{
1000
BEHIND
1070
     0
1002
}
1002
{
1000
OTHER
1070
     0
1002
}
1002
{
1000
REACTOR
1002
}
  0
LINE
  5
4387
  8
247
  6
CONTINUOUS
 10
-70.2833130805438486
 20
-9.5000000000200089
 30
0.0
 11
-69.4230769233018634
 21
-6.5000000001400622
 31
0.0
  0
LINE
  5
4388
  8
247
  6
CONTINUOUS
 10
-67.0000000003218616
 20
-6.5000000001400622
 30
0.0
 11
-67.5657366194584625
 21
-6.5000000001400622
 31
0.0
  0
LINE
  5
4389
  8
247
  6
CONTINUOUS
 10
-68.461538461801851
 20
-9.5000000000200089
 30
0.0
 11
-67.8461538464418652
 21
-9.5000000000200089
 31
0.0
  0
ARC
  5
438A
  8
247
  6
CONTINUOUS
 10
-66.7087912091247119
 20
-8.5832851359733695
 30
0.0
 40
2.2526500823422122
 50
112.3594881415302069
 51
164.9932485428460041
  0
ARC
  5
438B
  8
247
  6
CONTINUOUS
 10
-67.3740694792150805
 20
-7.3083126551946389
 30
0.0
 40
0.8906723995727782
 50
4.9945893190754012
 51
65.1663289573004931
1001
GENIUS_GENOBJ-N-FIL_13
1002
{
1000
OWNER
1000
GEN
1002
}
1001
GENIUS_GENODEF_13
1002
{
1000
HIER
1070
     0
1002
}
1002
{
1000
MANEDIT
1070
     0
1002
}
1002
{
1000
NOSEL
1070
     0
1002
}
1002
{
1000
BEHIND
1070
     0
1002
}
1002
{
1000
OTHER
1070
     0
1002
}
1002
{
1000
REACTOR
1002
}
  0
ARC
  5
438C
  8
247
  6
CONTINUOUS
 10
-68.2264588862144308
 20
-8.1601458886677847
 30
0.0
 40
1.392781735586712
 50
285.8460965557807754
 51
352.3251370041621726
  0
ARC
  5
438D
  8
247
  6
CONTINUOUS
 10
-67.6422127258422137
 20
-8.4592434315272822
 30
0.0
 40
1.324563662670287
 50
159.7136016704899077
 51
231.788745656413198
1001
GENIUS_GENOBJ-N-FIL_13
1002
{
1000
OWNER
1000
GEN
1002
}
1001
GENIUS_GENODEF_13
1002
{
1000
HIER
1070
     0
1002
}
1002
{
1000
MANEDIT
1070
     0
1002
}
1002
{
1000
NOSEL
1070
     0
1002
}
1002
{
1000
BEHIND
1070
     0
1002
}
1002
{
1000
OTHER
1070
     0
1002
}
1002
{
1000
REACTOR
1002
}
  0
LINE
  5
438E
  8
247
  6
CONTINUOUS
 10
-67.538461538761851
 20
-8.3461538462199751
 30
0.0
 11
-66.8461538464818545
 21
-8.3461538462199751
 31
0.0
  0
LINE
  5
438F
  8
247
  6
CONTINUOUS
 10
-73.2500000000718927
 20
-6.5000000001400622
 30
0.0
 11
-72.5769230770219025
 21
-6.5000000001400622
 31
0.0
  0
LINE
  5
4390
  8
250
  6
CONTINUOUS
 10
-61.7178055143567335
 20
-17.7454033176973205
 30
0.0
 11
-60.2809327400018375
 21
-16.0
 31
0.0
  0
LINE
  5
4391
  8
250
  6
CONTINUOUS
 10
-61.0740599640573407
 20
-18.1170699840990395
 30
0.0
 11
-60.2809327400018375
 21
-16.0
 31
0.0
  0
LINE
  5
4392
  8
250
  6
CONTINUOUS
 10
-60.2809327400018375
 20
-16.0
 30
0.0
 11
-61.3959327392070193
 21
-17.9312366508981818
 31
0.0
  0
LINE
  5
4393
  8
250
  6
CONTINUOUS
 10
-61.3959327392070193
 20
-17.9312366508981818
 30
0.0
 11
-65.3310095700018536
 21
-24.7469896600000006
 31
0.0
1001
ACAD
1000
DSTYLE
1002
{
1070
     6
1000
OPEN
1070
   343
1005
0
1002
}
  0
TEXT
  5
4394
  8
250
  6
CONTINUOUS
 10
-77.8643429100018665
 20
-23.7469896600000006
 30
0.0
 40
2.799999999999998
  1
ST32
  7
YOKO
1001
ITEMNAME
1000
LNSP3
  0
LINE
  5
4395
  8
250
  6
CONTINUOUS
 10
-65.3310095700018536
 20
-24.7469896600000006
 30
0.0
 11
-80.2643429100018437
 21
-24.7469896600000006
 31
0.0
1001
ITEMNAME
1000
LNSP2
  0
VIEWPORT
  5
22
 67
     1
  8
0
 10
261.517699115044195
 20
148.5
 30
0.0
 40
523.0353982300885036
 41
297.0
 68
     1
 69
     1
1001
ACAD
1000
MVIEW
1002
{
1070
    16
1010
0.0
1020
0.0
1030
0.0
1010
0.0
1020
0.0
1030
1.0
1040
0.0
1040
297.0
1040
261.517699115044195
1040
148.5
1040
50.0
1040
0.0
1040
0.0
1070
     0
1070
   100
1070
     1
1070
     1
1070
     0
1070
     0
1070
     0
1070
     0
1040
0.0
1040
0.0
1040
0.0
1040
1.0
1040
1.0
1040
10.0
1040
10.0
1070
     0
1002
{
1002
}
1002
}
1001
GENIUS_GENODEF_13
1002
{
1000
HIER
1070
     0
1002
}
1002
{
1000
MANEDIT
1070
     0
1002
}
1002
{
1000
NOSEL
1070
     0
1002
}
1002
{
1000
BEHIND
1070
     0
1002
}
1002
{
1000
OTHER
1070
     0
1002
}
1002
{
1000
REACTOR
1002
}
1001
GENIUS_GENOBJ-N-SDF_13
1002
{
1000
OWNER
1000
GEN
1002
}
1001
GENIUS_GENSCREG_15
1000
PF
1040
1.0
1000
DF
1040
1.0
1000
MIN
1011
0.0
1021
0.0
1031
0.0
1021
0.0
1031
0.0
1000
MAX
1011
523.0353982300885036
1021
0.0
1031
0.0
1021
297.0
1031
0.0
1000
FLAGS
1070
     4
  0
ENDSEC
  0
EOF
