  0
SECTION
  2
HEADER
  9
$ACADVER
  1
AC1009
  9
$INSBASE
 10
0.0
 20
0.0
 30
0.0
  9
$EXTMIN
 10
-278.82668314082412
 20
-26.369364291468059
 30
-0.0000000349181948
  9
$EXTMAX
 10
24.031899563118031
 20
61.000525725386922
 30
0.0000000814935746
  9
$LIMMIN
 10
0.0
 20
0.0
  9
$LIMMAX
 10
297.0
 20
210.0
  9
$ORTHOMODE
 70
     1
  9
$REGENMODE
 70
     1
  9
$FILLMODE
 70
     1
  9
$QTEXTMODE
 70
     0
  9
$MIRRTEXT
 70
     1
  9
$DRAGMODE
 70
     2
  9
$LTSCALE
 40
10.0
  9
$OSMODE
 70
  3071
  9
$ATTMODE
 70
     1
  9
$TEXTSIZE
 40
3.0
  9
$TRACEWID
 40
1.0
  9
$TEXTSTYLE
  7
YOKO
  9
$CLAYER
  8
240
  9
$CELTYPE
  6
BYLAYER
  9
$CECOLOR
 62
   256
  9
$DIMSCALE
 40
1.0
  9
$DIMASZ
 40
2.2299999999999991
  9
$DIMEXO
 40
0.5
  9
$DIMDLI
 40
7.0
  9
$DIMRND
 40
0.0
  9
$DIMDLE
 40
0.0
  9
$DIMEXE
 40
1.0
  9
$DIMTP
 40
0.0
  9
$DIMTM
 40
0.01
  9
$DIMTXT
 40
2.7999999999999989
  9
$DIMCEN
 40
0.0
  9
$DIMTSZ
 40
0.0
  9
$DIMTOL
 70
     0
  9
$DIMLIM
 70
     0
  9
$DIMTIH
 70
     0
  9
$DIMTOH
 70
     0
  9
$DIMSE1
 70
     0
  9
$DIMSE2
 70
     0
  9
$DIMTAD
 70
     3
  9
$DIMZIN
 70
     9
  9
$DIMBLK
  1
OPEN
  9
$DIMASO
 70
     1
  9
$DIMSHO
 70
     1
  9
$DIMPOST
  1

  9
$DIMAPOST
  1

  9
$DIMALT
 70
     0
  9
$DIMALTD
 70
     2
  9
$DIMALTF
 40
25.399999999999999
  9
$DIMLFAC
 40
1.0
  9
$DIMTOFL
 70
     1
  9
$DIMTVP
 40
0.0
  9
$DIMTIX
 70
     1
  9
$DIMSOXD
 70
     0
  9
$DIMSAH
 70
     0
  9
$DIMBLK1
  1

  9
$DIMBLK2
  1

  9
$DIMSTYLE
  2
BIGT
  9
$DIMCLRD
 70
   256
  9
$DIMCLRE
 70
   256
  9
$DIMCLRT
 70
    40
  9
$DIMTFAC
 40
1.0
  9
$DIMGAP
 40
1.0
  9
$LUNITS
 70
     2
  9
$LUPREC
 70
     3
  9
$SKETCHINC
 40
1.0
  9
$FILLETRAD
 40
0.0
  9
$AUNITS
 70
     0
  9
$AUPREC
 70
     3
  9
$MENU
  1
.
  9
$ELEVATION
 40
0.0
  9
$PELEVATION
 40
0.0
  9
$THICKNESS
 40
0.0
  9
$LIMCHECK
 70
     0
  9
$BLIPMODE
 70
     0
  9
$CHAMFERA
 40
0.25
  9
$CHAMFERB
 40
0.25
  9
$SKPOLY
 70
     0
  9
$TDCREATE
 40
2455933.4742521532
  9
$TDUPDATE
 40
2455933.4844597219
  9
$TDINDWG
 40
0.0100804514
  9
$TDUSRTIMER
 40
0.0100804514
  9
$USRTIMER
 70
     1
  9
$ANGBASE
 50
0.0
  9
$ANGDIR
 70
     0
  9
$PDMODE
 70
     1
  9
$PDSIZE
 40
0.0
  9
$PLINEWID
 40
0.0
  9
$COORDS
 70
     0
  9
$SPLFRAME
 70
     0
  9
$SPLINETYPE
 70
     6
  9
$SPLINESEGS
 70
     4
  9
$ATTDIA
 70
     1
  9
$ATTREQ
 70
     1
  9
$HANDLING
 70
     1
  9
$HANDSEED
  5
1AB8
  9
$SURFTAB1
 70
     6
  9
$SURFTAB2
 70
     6
  9
$SURFTYPE
 70
     6
  9
$SURFU
 70
     6
  9
$SURFV
 70
     6
  9
$UCSNAME
  2

  9
$UCSORG
 10
0.0
 20
0.0
 30
0.0
  9
$UCSXDIR
 10
1.0
 20
0.0
 30
0.0
  9
$UCSYDIR
 10
0.0
 20
1.0
 30
0.0
  9
$PUCSNAME
  2

  9
$PUCSORG
 10
0.0
 20
0.0
 30
0.0
  9
$PUCSXDIR
 10
1.0
 20
0.0
 30
0.0
  9
$PUCSYDIR
 10
0.0
 20
1.0
 30
0.0
  9
$USERI1
 70
     1
  9
$USERI2
 70
     0
  9
$USERI3
 70
     0
  9
$USERI4
 70
     0
  9
$USERI5
 70
     0
  9
$USERR1
 40
0.0
  9
$USERR2
 40
0.0
  9
$USERR3
 40
0.0
  9
$USERR4
 40
0.0
  9
$USERR5
 40
0.0
  9
$WORLDVIEW
 70
     1
  9
$SHADEDGE
 70
     3
  9
$SHADEDIF
 70
    70
  9
$TILEMODE
 70
     1
  9
$MAXACTVP
 70
    16
  9
$PLIMCHECK
 70
     0
  9
$PEXTMIN
 10
1.0000000000000000E+020
 20
1.0000000000000000E+020
 30
1.0000000000000000E+020
  9
$PEXTMAX
 10
-1.0000000000000000E+020
 20
-1.0000000000000000E+020
 30
-1.0000000000000000E+020
  9
$PLIMMIN
 10
0.0
 20
0.0
  9
$PLIMMAX
 10
420.0
 20
297.0
  9
$UNITMODE
 70
     0
  9
$VISRETAIN
 70
     1
  9
$PLINEGEN
 70
     0
  9
$PSLTSCALE
 70
     1
  0
ENDSEC
  0
SECTION
  2
TABLES
  0
TABLE
  2
VPORT
 70
    31
  0
VPORT
  2
*ACTIVE
 70
     0
 10
0.0
 20
0.0
 11
1.0
 21
1.0
 12
-127.397391788853
 22
17.315580716959438
 13
0.0
 23
0.0
 14
7.0
 24
7.0
 15
7.0
 25
7.0
 16
0.0
 26
0.0
 36
1.0
 17
0.0
 27
0.0
 37
0.0
 40
211.35351425009881
 41
1.439203354297693
 42
50.0
 43
0.0
 44
0.0
 50
0.0
 51
0.0
 71
     0
 72
  2000
 73
     1
 74
     0
 75
     0
 76
     0
 77
     0
 78
     0
  0
ENDTAB
  0
TABLE
  2
LTYPE
 70
    15
  0
LTYPE
  2
CONTINUOUS
 70
     0
  3
Solid line
 72
    65
 73
     0
 40
0.0
  0
LTYPE
  2
CENTER2
 70
     0
  3
___ _ ___ _ ___ _ ___ _ ___ _ ___ _ ___ _ ___ _
 72
    65
 73
     4
 40
1.125
 49
0.75
 49
-0.125
 49
0.125
 49
-0.125
  0
LTYPE
  2
HIDDEN2
 70
     0
  3
_ _ _ _ _ _ _ _ _ _ _ _ _ _ _ _ _ _ _ _ _ _ _ _
 72
    65
 73
     2
 40
0.1875
 49
0.125
 49
-0.0625
  0
LTYPE
  2
PHANTOM2
 70
     0
  3
___ _ _ ___ _ _ ___ _ _ ___ _ _ ___ _ _ ___ _ _
 72
    65
 73
     6
 40
1.25
 49
0.625
 49
-0.125
 49
0.125
 49
-0.125
 49
0.125
 49
-0.125
  0
LTYPE
  2
CENTER
 70
     0
  3
____ _ ____ _ ____ _ ____ _ ____ _ ____ _ ____ 
 72
    65
 73
     4
 40
2.0
 49
1.25
 49
-0.25
 49
0.25
 49
-0.25
  0
LTYPE
  2
AM_ISO02W050
 70
     0
  3
__ __ __ __ __ __ __ __ __ __ __ __ __ __ __
 72
    65
 73
     2
 40
7.5
 49
6.0
 49
-1.5
  0
LTYPE
  2
AMCONSTR
 70
     0
  3
_______________________
 72
    65
 73
     2
 40
9999.0
 49
9999.0
 49
0.0
  0
LTYPE
  2
ACISOWELD
 70
     0
  3
_ _ _ _ _
 72
    65
 73
     2
 40
2.0
 49
2.0
 49
-1.0
  0
LTYPE
  2
ACISOTGB
 70
     0
  3
__ . . __ . .
 72
    65
 73
     6
 40
9.0
 49
4.0
 49
-1.0
 49
1.0
 49
-1.0
 49
1.0
 49
-1.0
  0
LTYPE
  2
ACISOTGL
 70
     0
  3
_ _ _ _ _
 72
    65
 73
     2
 40
3.0
 49
2.0
 49
-1.0
  0
LTYPE
  2
ACJISTGB
 70
     0
  3
__ . . __ . .
 72
    65
 73
     6
 40
9.0
 49
4.0
 49
-1.0
 49
1.0
 49
-1.0
 49
1.0
 49
-1.0
  0
LTYPE
  2
ACJISTGL
 70
     0
  3
_ _ _ _ _
 72
    65
 73
     2
 40
3.0
 49
2.0
 49
-1.0
  0
LTYPE
  2
HIDDEN
 70
     0
  3
Hidden __ __ __ __ __ __ __ __ __ __ __ __ __ _
 72
    65
 73
     2
 40
9.5249999999999986
 49
6.3499999999999988
 49
-3.1749999999999989
  0
ENDTAB
  0
TABLE
  2
LAYER
 70
     8
  0
LAYER
  2
0
 70
     0
 62
     7
  6
CONTINUOUS
  0
LAYER
  2
DEFPOINTS
 70
     0
 62
     7
  6
CONTINUOUS
  0
LAYER
  2
245
 70
     0
 62
     2
  6
CENTER2
  0
LAYER
  2
240
 70
     0
 62
     4
  6
CONTINUOUS
  0
LAYER
  2
241
 70
     0
 62
   211
  6
CONTINUOUS
  0
LAYER
  2
247
 70
     0
 62
    60
  6
CONTINUOUS
  0
LAYER
  2
250
 70
     0
 62
     3
  6
CONTINUOUS
  0
LAYER
  2
AM_5
 70
     0
 62
     3
  6
CONTINUOUS
  0
ENDTAB
  0
TABLE
  2
STYLE
 70
     8
  0
STYLE
  2
STANDARD
 70
     0
 40
0.0
 41
1.0
 50
0.0
 71
     0
 42
3.0
  3
romans.shx
  4
extfont.shx
  0
STYLE
  2
ACISOTS
 70
     0
 40
1.0
 41
1.0
 50
0.0
 71
     0
 42
3.0
  3
amgdt.shx
  4
extfont.shx
  0
STYLE
  2
ACISOGDT
 70
     0
 40
0.0
 41
1.0
 50
0.0
 71
     0
 42
3.0
  3
amgdt.shx
  4
extfont.shx
  0
STYLE
  2
ACJISTS
 70
     0
 40
1.0
 41
1.0
 50
0.0
 71
     0
 42
3.0
  3
amgdt.shx
  4
extfont.shx
  0
STYLE
  2
ACJISGDT
 70
     0
 40
0.0
 41
1.0
 50
0.0
 71
     0
 42
3.0
  3
amgdt.shx
  4
extfont.shx
  0
STYLE
  2
YOKO
 70
     0
 40
0.0
 41
1.0
 50
0.0
 71
     0
 42
3.0
  3
romans.shx
  4
extfont.shx
  0
ENDTAB
  0
TABLE
  2
VIEW
 70
     0
  0
ENDTAB
  0
TABLE
  2
UCS
 70
     0
  0
ENDTAB
  0
TABLE
  2
APPID
 70
    31
  0
APPID
  2
ACAD
 70
     0
  0
APPID
  2
GLOBAL
 70
     0
  0
APPID
  2
DETAIL
 70
     0
  0
APPID
  2
GRPNAME
 70
     0
  0
APPID
  2
GPARA
 70
     0
  0
APPID
  2
MCAD_NO_VIS
 70
     0
  0
APPID
  2
ACAD_TEMP_GRAPHIC
 70
     0
  0
APPID
  2
ACATTRIBSERVICES
 70
     0
  0
APPID
  2
GENIUS_GENSCREG_15
 70
     0
  0
APPID
  2
GENIUS_GENODEF_13
 70
     0
  0
APPID
  2
GENIUS_GENOBJ-N-SDF_13
 70
     0
  0
APPID
  2
GENIUS_GENREC_14
 70
     0
  0
APPID
  2
GENIUS_GENOBJ-N-REC_13
 70
     0
  0
APPID
  2
GENIUS_GENDIMSH_14
 70
     0
  0
APPID
  2
GENIUS_GENOBJ-N-DIM_13
 70
     0
  0
APPID
  2
GENIUS_GENDIM_13
 70
     0
  0
APPID
  2
GENIUS_GENDTOL_13
 70
     0
  0
APPID
  2
GENIUS_GENOLIS_13
 70
     0
  0
APPID
  2
GENIUS_GENOENT_13
 70
     0
  0
APPID
  2
GENIUS_GENOBJ-F-FEM_13
 70
     0
  0
APPID
  2
GENIUS_GENOREF_13
 70
     0
  0
APPID
  2
GENIUS_GEFFEM_13
 70
     0
  0
APPID
  2
GENIUS_GEFFEMP_13
 70
     0
  0
APPID
  2
AD_DRAW
 70
     0
  0
APPID
  2
DESIGNERASSEMBLIES
 70
     0
  0
APPID
  2
ACADM_DIM_EDIT
 70
     0
  0
APPID
  2
AMDT_DM_ADJ
 70
     0
  0
APPID
  2
ITEMNAME
 70
     0
  0
APPID
  2
HATCH_TYPE
 70
     0
  0
APPID
  2
HATCH_DISPLAY
 70
     0
  0
APPID
  2
HATCH_DISTANCE
 70
     0
  0
ENDTAB
  0
TABLE
  2
DIMSTYLE
 70
    30
  0
DIMSTYLE
  2
BIGT
 70
     0
  3

  4

  5
OPEN
  6

  7

 40
1.0
 41
2.2299999999999991
 42
0.5
 43
7.0
 44
1.0
 45
0.0
 46
0.0
 47
0.0
 48
0.01
140
2.7999999999999989
141
0.0
142
0.0
143
25.399999999999999
144
1.0
145
0.0
146
1.0
147
1.0
 71
     0
 72
     0
 73
     0
 74
     0
 75
     0
 76
     0
 77
     3
 78
     9
170
     0
171
     2
172
     1
173
     0
174
     1
175
     0
176
   256
177
   256
178
    40
  0
DIMSTYLE
  2
AM_ISO
 70
     0
  3

  4
"
  5

  6

  7

 40
1.0
 41
2.5
 42
1.0
 43
10.0
 44
1.0
 45
0.0
 46
0.0
 47
0.1
 48
0.1
140
3.5
141
0.0
142
0.0
143
0.0393701
144
1.0
145
0.0
146
0.71
147
1.5
 71
     0
 72
     0
 73
     0
 74
     0
 75
     0
 76
     0
 77
     1
 78
     8
170
     0
171
     2
172
     1
173
     0
174
     0
175
     0
176
   256
177
   256
178
     2
  0
DIMSTYLE
  2
AM_ISO$3
 70
     0
  3

  4
"
  5

  6

  7

 40
1.0
 41
2.5
 42
1.0
 43
10.0
 44
1.0
 45
0.0
 46
0.0
 47
0.1
 48
0.1
140
3.5
141
0.0
142
0.0
143
0.0393701
144
1.0
145
0.0
146
0.71
147
1.5
 71
     0
 72
     0
 73
     0
 74
     1
 75
     0
 76
     0
 77
     1
 78
     8
170
     0
171
     2
172
     0
173
     0
174
     0
175
     0
176
   256
177
   256
178
     2
  0
DIMSTYLE
  2
AM_ISO$4
 70
     0
  3

  4
"
  5

  6

  7

 40
1.0
 41
2.5
 42
1.0
 43
10.0
 44
1.0
 45
0.0
 46
0.0
 47
0.1
 48
0.1
140
3.5
141
0.0
142
0.0
143
0.0393701
144
1.0
145
0.0
146
0.71
147
1.5
 71
     0
 72
     0
 73
     0
 74
     1
 75
     0
 76
     0
 77
     1
 78
     8
170
     0
171
     2
172
     0
173
     0
174
     0
175
     0
176
   256
177
   256
178
     2
  0
DIMSTYLE
  2
AM_ISO$6
 70
     0
  3

  4
"
  5

  6

  7

 40
1.0
 41
2.5
 42
1.0
 43
10.0
 44
1.0
 45
0.0
 46
0.0
 47
0.1
 48
0.1
140
3.5
141
0.0
142
0.0
143
0.0393701
144
1.0
145
0.0
146
0.71
147
1.5
 71
     0
 72
     0
 73
     0
 74
     0
 75
     0
 76
     0
 77
     0
 78
     8
170
     0
171
     2
172
     1
173
     0
174
     0
175
     0
176
   256
177
   256
178
     2
  0
DIMSTYLE
  2
AM_ISO$7
 70
     0
  3

  4
"
  5

  6

  7

 40
1.0
 41
2.5
 42
1.0
 43
10.0
 44
1.0
 45
0.0
 46
0.0
 47
0.1
 48
0.1
140
5.0
141
0.0
142
0.0
143
0.0393701
144
1.0
145
0.0
146
0.71
147
1.5
 71
     0
 72
     0
 73
     0
 74
     0
 75
     0
 76
     0
 77
     1
 78
     8
170
     0
171
     2
172
     1
173
     0
174
     0
175
     0
176
   256
177
   256
178
     2
  0
DIMSTYLE
  2
AM_ISO$SF
 70
     0
  3

  4
"
  5

  6

  7

 40
1.0
 41
2.5
 42
1.0
 43
10.0
 44
1.0
 45
0.0
 46
0.0
 47
0.1
 48
0.1
140
3.5
141
0.0
142
0.0
143
0.0393701
144
1.0
145
0.0
146
0.71
147
1.5
 71
     0
 72
     0
 73
     0
 74
     0
 75
     1
 76
     1
 77
     1
 78
     8
170
     0
171
     2
172
     1
173
     0
174
     0
175
     0
176
   256
177
   256
178
     2
  0
DIMSTYLE
  2
AM_ISO$SH
 70
     0
  3

  4
"
  5

  6
GENAXEH
  7

 40
1.0
 41
2.5
 42
1.0
 43
10.0
 44
1.0
 45
0.0
 46
0.0
 47
0.1
 48
0.1
140
3.5
141
0.0
142
0.0
143
0.0393701
144
2.0
145
0.0
146
0.71
147
1.5
 71
     0
 72
     0
 73
     0
 74
     0
 75
     1
 76
     1
 77
     1
 78
     8
170
     0
171
     2
172
     1
173
     1
174
     0
175
     0
176
   256
177
   256
178
     2
  0
DIMSTYLE
  2
BIGT$2
 70
     0
  3

  4

  5
OPEN
  6

  7

 40
1.0
 41
2.2299999999999991
 42
0.5
 43
7.0
 44
1.0
 45
0.0
 46
0.0
 47
0.0
 48
0.01
140
2.7999999999999989
141
0.0
142
0.0
143
25.399999999999999
144
1.0
145
0.0
146
1.0
147
1.0
 71
     0
 72
     0
 73
     0
 74
     0
 75
     0
 76
     0
 77
     3
 78
     9
170
     0
171
     2
172
     1
173
     0
174
     0
175
     0
176
   256
177
   256
178
    40
  0
DIMSTYLE
  2
BIGT$3
 70
     0
  3

  4

  5
OPEN
  6

  7

 40
1.0
 41
2.2299999999999991
 42
0.5
 43
2.5
 44
1.0
 45
0.0
 46
0.0
 47
0.0
 48
0.01
140
2.7999999999999989
141
0.0
142
0.0
143
25.399999999999999
144
1.0
145
0.0
146
1.0
147
1.0
 71
     0
 72
     0
 73
     0
 74
     0
 75
     0
 76
     0
 77
     3
 78
     9
170
     0
171
     2
172
     1
173
     0
174
     0
175
     0
176
   256
177
   256
178
    40
  0
DIMSTYLE
  2
BIGT$7
 70
     0
  3

  4

  5
OPEN
  6

  7

 40
0.0
 41
2.2299999999999991
 42
0.5
 43
7.0
 44
1.0
 45
0.0
 46
0.0
 47
0.0
 48
0.01
140
2.7999999999999989
141
0.0
142
0.0
143
25.399999999999999
144
1.0
145
0.0
146
1.0
147
1.0
 71
     0
 72
     0
 73
     0
 74
     0
 75
     0
 76
     0
 77
     3
 78
     9
170
     0
171
     2
172
     0
173
     0
174
     0
175
     0
176
   256
177
   256
178
    40
  0
DIMSTYLE
  2
BIGT$6
 70
     0
  3

  4

  5
OPEN
  6

  7

 40
1.0
 41
2.2299999999999991
 42
0.5
 43
2.5
 44
1.0
 45
0.0
 46
0.0
 47
0.0
 48
0.01
140
2.7999999999999989
141
0.0
142
0.0
143
25.399999999999999
144
1.0
145
0.0
146
1.0
147
1.0
 71
     0
 72
     0
 73
     0
 74
     0
 75
     0
 76
     0
 77
     3
 78
     9
170
     0
171
     2
172
     1
173
     0
174
     0
175
     0
176
   256
177
   256
178
    40
  0
DIMSTYLE
  2
BIGT$0
 70
     0
  3

  4

  5
OPEN
  6

  7

 40
1.0
 41
2.2299999999999991
 42
0.5
 43
7.0
 44
1.0
 45
0.0
 46
0.0
 47
0.0
 48
0.01
140
2.7999999999999989
141
0.0
142
0.0
143
25.399999999999999
144
1.0
145
0.0
146
1.0
147
1.0
 71
     0
 72
     0
 73
     0
 74
     0
 75
     0
 76
     0
 77
     3
 78
     9
170
     0
171
     2
172
     1
173
     0
174
     0
175
     0
176
   256
177
   256
178
    40
  0
DIMSTYLE
  2
BIGT$4
 70
     0
  3

  4

  5
OPEN
  6

  7

 40
1.0
 41
2.2299999999999991
 42
0.5
 43
2.5
 44
1.0
 45
0.0
 46
0.0
 47
0.0
 48
0.01
140
2.7999999999999989
141
0.0
142
0.0
143
25.399999999999999
144
1.0
145
0.0
146
1.0
147
1.0
 71
     0
 72
     0
 73
     0
 74
     0
 75
     0
 76
     0
 77
     3
 78
     9
170
     0
171
     2
172
     1
173
     0
174
     0
175
     0
176
   256
177
   256
178
    40
  0
DIMSTYLE
  2
BIGT$SH
 70
     0
  3

  4

  5
OPEN
  6

  7

 40
1.0
 41
2.2299999999999991
 42
0.5
 43
7.0
 44
1.0
 45
0.0
 46
0.0
 47
0.0
 48
0.0
140
2.7999999999999989
141
0.0
142
0.0
143
25.399999999999999
144
1.0
145
0.0
146
1.0
147
1.0
 71
     0
 72
     0
 73
     0
 74
     0
 75
     0
 76
     0
 77
     3
 78
     9
170
     0
171
     2
172
     1
173
     0
174
     0
175
     0
176
   256
177
   256
178
    40
  0
DIMSTYLE
  2
BIGT$SF
 70
     0
  3

  4

  5
OPEN
  6

  7

 40
1.0
 41
2.2299999999999991
 42
0.5
 43
7.0
 44
1.0
 45
0.0
 46
0.0
 47
0.0
 48
0.0
140
2.7999999999999989
141
0.0
142
0.0
143
25.399999999999999
144
1.0
145
0.0
146
1.0
147
1.0
 71
     0
 72
     0
 73
     0
 74
     0
 75
     0
 76
     0
 77
     3
 78
     9
170
     0
171
     2
172
     1
173
     0
174
     0
175
     0
176
   256
177
   256
178
    40
  0
DIMSTYLE
  2
TECHNICAL_OSAKA
 70
     0
  3

  4
"
  5
OPEN30
  6

  7

 40
1.0
 41
2.5
 42
1.0
 43
10.0
 44
1.0
 45
0.0
 46
0.0
 47
0.1
 48
0.1
140
2.7999999999999989
141
0.0
142
0.0
143
0.0393701
144
1.0
145
0.0
146
0.71
147
1.5
 71
     0
 72
     0
 73
     0
 74
     0
 75
     0
 76
     0
 77
     3
 78
     8
170
     0
171
     2
172
     1
173
     0
174
     0
175
     0
176
   256
177
   256
178
    40
  0
DIMSTYLE
  2
TECHNICAL_OSAKA$3
 70
     0
  3

  4
"
  5
OPEN30
  6

  7

 40
1.0
 41
2.5
 42
1.0
 43
10.0
 44
1.0
 45
0.0
 46
0.0
 47
0.1
 48
0.1
140
2.7999999999999989
141
0.0
142
0.0
143
0.0393701
144
1.0
145
0.0
146
0.71
147
1.5
 71
     0
 72
     0
 73
     0
 74
     1
 75
     0
 76
     0
 77
     3
 78
     8
170
     0
171
     2
172
     0
173
     0
174
     0
175
     0
176
   256
177
   256
178
    40
  0
DIMSTYLE
  2
TECHNICAL_OSAKA$4
 70
     0
  3

  4
"
  5
OPEN30
  6

  7

 40
1.0
 41
2.5
 42
1.0
 43
10.0
 44
1.0
 45
0.0
 46
0.0
 47
0.1
 48
0.1
140
2.7999999999999989
141
0.0
142
0.0
143
0.0393701
144
1.0
145
0.0
146
0.71
147
1.5
 71
     0
 72
     0
 73
     0
 74
     1
 75
     0
 76
     0
 77
     3
 78
     8
170
     0
171
     2
172
     0
173
     0
174
     0
175
     0
176
   256
177
   256
178
    40
  0
DIMSTYLE
  2
TECHNICAL_OSAKA$6
 70
     0
  3

  4
"
  5
OPEN30
  6

  7

 40
1.0
 41
2.5
 42
1.0
 43
10.0
 44
1.0
 45
0.0
 46
0.0
 47
0.1
 48
0.1
140
2.7999999999999989
141
0.0
142
0.0
143
0.0393701
144
1.0
145
0.0
146
0.71
147
1.5
 71
     0
 72
     0
 73
     0
 74
     0
 75
     0
 76
     0
 77
     0
 78
     8
170
     0
171
     2
172
     1
173
     0
174
     0
175
     0
176
   256
177
   256
178
    40
  0
DIMSTYLE
  2
TECHNICAL_OSAKA$7
 70
     0
  3

  4
"
  5
OPEN30
  6

  7

 40
1.0
 41
2.5
 42
1.0
 43
10.0
 44
1.0
 45
0.0
 46
0.0
 47
0.1
 48
0.1
140
2.7999999999999989
141
0.0
142
0.0
143
0.0393701
144
1.0
145
0.0
146
0.71
147
1.5
 71
     0
 72
     0
 73
     0
 74
     0
 75
     0
 76
     0
 77
     3
 78
     8
170
     0
171
     2
172
     1
173
     0
174
     0
175
     0
176
   256
177
   256
178
    40
  0
DIMSTYLE
  2
TECHNICAL_OSAKA$SF
 70
     0
  3

  4
"
  5
OPEN30
  6
OPEN30
  7
OPEN30
 40
1.0
 41
2.5
 42
1.0
 43
10.0
 44
1.0
 45
0.0
 46
0.0
 47
0.1
 48
0.1
140
3.5
141
0.0
142
0.0
143
0.0393701
144
1.0
145
0.0
146
0.71
147
1.5
 71
     0
 72
     0
 73
     0
 74
     0
 75
     1
 76
     1
 77
     3
 78
     8
170
     0
171
     2
172
     1
173
     0
174
     0
175
     0
176
   256
177
   256
178
    40
  0
DIMSTYLE
  2
TECHNICAL_OSAKA$SH
 70
     0
  3

  4
"
  5
OPEN30
  6
GENAXEH
  7
OPEN30
 40
1.0
 41
2.5
 42
1.0
 43
10.0
 44
1.0
 45
0.0
 46
0.0
 47
0.1
 48
0.1
140
3.5
141
0.0
142
0.0
143
0.0393701
144
2.0
145
0.0
146
0.71
147
1.5
 71
     0
 72
     0
 73
     0
 74
     0
 75
     1
 76
     1
 77
     3
 78
     8
170
     0
171
     2
172
     1
173
     1
174
     0
175
     0
176
   256
177
   256
178
    40
  0
DIMSTYLE
  2
STANDARD
 70
     0
  3

  4

  5

  6

  7

 40
1.0
 41
0.18
 42
0.0625
 43
0.38
 44
0.18
 45
0.0
 46
0.0
 47
0.0
 48
0.0
140
0.18
141
0.09
142
0.0
143
25.399999999999999
144
1.0
145
0.0
146
1.0
147
0.09
 71
     0
 72
     0
 73
     1
 74
     1
 75
     0
 76
     0
 77
     0
 78
     0
170
     0
171
     2
172
     0
173
     0
174
     0
175
     0
176
     0
177
     0
178
     0
  0
ENDTAB
  0
ENDSEC
  0
SECTION
  2
BLOCKS
  0
BLOCK
  8
0
  2
$MODEL_SPACE
 70
     0
 10
0.0
 20
0.0
 30
0.0
  3
$MODEL_SPACE
  1

  0
ENDBLK
  5
1C
  8
0
  0
BLOCK
 67
     1
  8
0
  2
$PAPER_SPACE
 70
     0
 10
0.0
 20
0.0
 30
0.0
  3
$PAPER_SPACE
  1

  0
ENDBLK
  5
19
 67
     1
  8
0
  0
BLOCK
  8
0
  2
_OPEN
 70
     0
 10
0.0
 20
0.0
 30
0.0
  3
_OPEN
  1

  0
LINE
  5
19FF
  8
0
  6
BYBLOCK
 62
     0
 10
-1.0
 20
0.1666666666666666
 30
0.0
 11
0.0
 21
0.0
 31
0.0
  0
LINE
  5
1A00
  8
0
  6
BYBLOCK
 62
     0
 10
-1.0
 20
-0.1666666666666666
 30
0.0
 11
0.0
 21
0.0
 31
0.0
  0
LINE
  5
1A01
  8
0
  6
BYBLOCK
 62
     0
 10
0.0
 20
0.0
 30
0.0
 11
-1.0
 21
0.0
 31
0.0
  0
ENDBLK
  5
1A02
  8
0
  0
BLOCK
  8
0
  2
GENAXEH
 70
     0
 10
0.0
 20
0.0
 30
0.0
  3
GENAXEH
  1

  0
LINE
  5
1A2A
  8
0
 10
-1.0
 20
0.0
 30
0.0
 11
1.0
 21
0.0
 31
0.0
  0
ENDBLK
  5
1A2B
  8
0
  0
BLOCK
  8
0
  2
_OPEN30
 70
     0
 10
0.0
 20
0.0
 30
0.0
  3
_OPEN30
  1

  0
LINE
  5
1A4F
  8
0
  6
BYBLOCK
 62
     0
 10
-1.0
 20
0.26794919
 30
0.0
 11
0.0
 21
0.0
 31
0.0
  0
LINE
  5
1A50
  8
0
  6
BYBLOCK
 62
     0
 10
0.0
 20
0.0
 30
0.0
 11
-1.0
 21
-0.26794919
 31
0.0
  0
LINE
  5
1A51
  8
0
  6
BYBLOCK
 62
     0
 10
0.0
 20
0.0
 30
0.0
 11
-1.0
 21
0.0
 31
0.0
  0
ENDBLK
  5
1A52
  8
0
  0
BLOCK
  8
0
  2
A$C47EC41DB
 70
     0
 10
0.0
 20
0.0
 30
0.0
  3
A$C47EC41DB
  1

  0
LINE
  5
18B6
  8
240
  6
CONTINUOUS
 10
-11.00000000000006
 20
-11.0
 30
0.0
 11
-23.499999999999911
 21
-10.999999999999989
 31
0.0
1001
GRPNAME
1000
PASTMD06
  0
LINE
  5
18B7
  8
240
  6
CONTINUOUS
 10
-10.999999999999989
 20
11.0
 30
0.0
 11
-23.500000000000021
 21
11.0
 31
0.0
1001
GRPNAME
1000
PASTMD06
  0
LINE
  5
18B8
  8
245
  6
CENTER2
 10
1.828830637359999
 20
-0.0000000000000002
 30
0.0
 11
-262.21585916007001
 21
0.0000000000000321
 31
0.0
1001
GRPNAME
1000
PASTMD06
  0
LINE
  5
18B9
  8
240
  6
CONTINUOUS
 10
0.0
 20
0.0
 30
0.0
 11
-10.999999999999989
 21
11.0
 31
0.0
1001
GRPNAME
1000
PASTMD06
  0
LINE
  5
18BA
  8
240
  6
CONTINUOUS
 10
0.0
 20
0.0
 30
0.0
 11
-11.00000000000006
 21
-11.0
 31
0.0
1001
GRPNAME
1000
PASTMD06
  0
LINE
  5
18BB
  8
241
 10
-139.99999999999969
 20
16.000000000000021
 30
0.0
 11
-139.9999999999998
 21
-15.99999999999998
 31
0.0
  0
LINE
  5
18BC
  8
241
 10
-258.0
 20
16.000000000000028
 30
0.0
 11
-258.0
 21
-15.99999999999997
 31
0.0
  0
LINE
  5
18BD
  8
240
  6
CONTINUOUS
 10
-260.0
 20
-13.99999999999997
 30
0.0
 11
-260.0
 21
14.00000000000003
 31
0.0
1001
GRPNAME
1000
PASTMD07
  0
LINE
  5
18BE
  8
240
 10
-139.9999999999998
 20
-15.99999999999998
 30
0.0
 11
-258.0
 21
-15.99999999999997
 31
0.0
  0
LINE
  5
18BF
  8
240
  6
CONTINUOUS
 10
-260.0
 20
-13.99999999999997
 30
0.0
 11
-258.0
 21
-15.99999999999997
 31
0.0
  0
LINE
  5
18C0
  8
240
 10
-139.99999999999969
 20
16.000000000000021
 30
0.0
 11
-258.0
 21
16.000000000000028
 31
0.0
  0
LINE
  5
18C1
  8
240
 10
-258.0
 20
16.000000000000028
 30
0.0
 11
-260.0
 21
14.00000000000003
 31
0.0
  0
LINE
  5
18C2
  8
240
 10
-39.124766112215468
 20
-10.006238305610911
 30
0.0
 11
-138.9999999999996
 21
-15.00000000000016
 31
0.0
  0
LINE
  5
18C3
  8
240
 10
-39.124766112215553
 20
10.00623830561096
 30
0.0
 11
-138.9999999999996
 21
15.000000000000259
 31
0.0
  0
LINE
  5
18C4
  8
240
  6
CONTINUOUS
 10
-24.499999999999918
 20
10.0
 30
0.0
 11
-39.000000000000291
 21
10.0
 31
0.0
1001
GRPNAME
1000
PASTMD06
  0
LINE
  5
18C5
  8
240
  6
CONTINUOUS
 10
-24.499999999999972
 20
-9.9999999999999964
 30
0.0
 11
-38.999999999999659
 21
-9.9999999999999947
 31
0.0
1001
GRPNAME
1000
PASTMD06
  0
ARC
  5
18C6
  8
240
  6
CONTINUOUS
 10
-38.875078027495988
 20
-15.000000000000099
 30
0.0
 40
5.0
 50
90.0
 51
92.862405226112585
  0
ARC
  5
18C7
  8
240
  6
CONTINUOUS
 10
-38.875078027496102
 20
15.000000000000171
 30
0.0
 40
5.0
 50
267.13759477388737
 51
270.0
  0
LINE
  5
18C8
  8
241
 10
-139.99999999999969
 20
16.000000000000082
 30
0.0
 11
-139.99999999999989
 21
-15.999999999999879
 31
0.0
  0
LINE
  5
18C9
  8
240
 10
-139.9999999999996
 20
-16.000000000000892
 30
0.0
 11
-138.9999999999996
 21
-15.00000000000016
 31
0.0
  0
LINE
  5
18CA
  8
240
 10
-139.9999999999996
 20
16.000000000000981
 30
0.0
 11
-138.9999999999996
 21
15.000000000000259
 31
0.0
  0
LINE
  5
18CB
  8
241
 10
-138.9999999999996
 20
15.000000000000259
 30
0.0
 11
-138.9999999999998
 21
-15.000000000000171
 31
0.0
  0
LINE
  5
18CC
  8
247
 10
-193.1277429219441
 20
13.04027652563189
 30
0.0
 11
-193.1277429219441
 21
13.04027652563189
 31
0.0
1001
HATCH_DISTANCE
1040
1.0
1001
HATCH_DISPLAY
1070
     0
1001
HATCH_TYPE
1070
     7
  0
LINE
  5
18CD
  8
247
 10
-193.21903244220769
 20
13.329777715817441
 30
0.0
 11
-193.1277429219441
 21
13.04027652563189
 31
0.0
1001
HATCH_DISTANCE
1040
1.0
1001
HATCH_DISPLAY
1070
     0
1001
HATCH_TYPE
1070
     7
  0
LINE
  5
18CE
  8
247
 10
-193.21903244220769
 20
13.329777715817441
 30
0.0
 11
-193.21903244220769
 21
13.329777715817441
 31
0.0
1001
HATCH_DISTANCE
1040
1.0
1001
HATCH_DISPLAY
1070
     0
1001
HATCH_TYPE
1070
     7
  0
LINE
  5
18CF
  8
247
 10
-193.1277429219441
 20
13.04027652563189
 30
0.0
 11
-193.21903244220769
 21
13.329777715817441
 31
0.0
1001
HATCH_DISTANCE
1040
1.0
1001
HATCH_DISPLAY
1070
     0
1001
HATCH_TYPE
1070
     7
  0
LINE
  5
18D0
  8
247
 10
-193.1277429219441
 20
13.04027652563189
 30
0.0
 11
-193.1277429219441
 21
13.04027652563189
 31
0.0
  0
LINE
  5
18D1
  8
247
 10
-193.21903244220769
 20
13.329777715817441
 30
0.0
 11
-193.1277429219441
 21
13.04027652563189
 31
0.0
  0
LINE
  5
18D2
  8
247
 10
-193.21903244220769
 20
13.329777715817441
 30
0.0
 11
-193.21903244220769
 21
13.329777715817441
 31
0.0
  0
LINE
  5
18D3
  8
247
 10
-193.1277429219441
 20
13.04027652563189
 30
0.0
 11
-193.21903244220769
 21
13.329777715817441
 31
0.0
  0
LINE
  5
18D4
  8
247
 10
-193.1277429219441
 20
13.04027652563189
 30
0.0
 11
-193.1277429219441
 21
13.04027652563189
 31
0.0
1001
HATCH_DISTANCE
1040
1.0
1001
HATCH_DISPLAY
1070
     0
1001
HATCH_TYPE
1070
     7
  0
LINE
  5
18D5
  8
247
 10
-193.21903244220769
 20
13.329777715817441
 30
0.0
 11
-193.1277429219441
 21
13.04027652563189
 31
0.0
1001
HATCH_DISTANCE
1040
1.0
1001
HATCH_DISPLAY
1070
     0
1001
HATCH_TYPE
1070
     7
  0
LINE
  5
18D6
  8
247
 10
-193.21903244220769
 20
13.329777715817441
 30
0.0
 11
-193.21903244220769
 21
13.329777715817441
 31
0.0
1001
HATCH_DISTANCE
1040
1.0
1001
HATCH_DISPLAY
1070
     0
1001
HATCH_TYPE
1070
     7
  0
LINE
  5
18D7
  8
247
 10
-193.1277429219441
 20
13.04027652563189
 30
0.0
 11
-193.21903244220769
 21
13.329777715817441
 31
0.0
1001
HATCH_DISTANCE
1040
1.0
1001
HATCH_DISPLAY
1070
     0
1001
HATCH_TYPE
1070
     7
  0
LINE
  5
18D8
  8
247
 10
-193.1277429219441
 20
13.04027652563189
 30
0.0
 11
-193.1277429219441
 21
13.04027652563189
 31
0.0
  0
LINE
  5
18D9
  8
247
 10
-193.21903244220769
 20
13.329777715817441
 30
0.0
 11
-193.1277429219441
 21
13.04027652563189
 31
0.0
  0
LINE
  5
18DA
  8
247
 10
-193.21903244220769
 20
13.329777715817441
 30
0.0
 11
-193.21903244220769
 21
13.329777715817441
 31
0.0
  0
LINE
  5
18DB
  8
247
 10
-193.1277429219441
 20
13.04027652563189
 30
0.0
 11
-193.21903244220769
 21
13.329777715817441
 31
0.0
  0
LINE
  5
18DC
  8
247
 10
-195.171600496407
 20
13.38236331762408
 30
0.0
 11
-195.95996109211009
 21
13.38236331762408
 31
0.0
1001
HATCH_DISTANCE
1040
1.0
1001
HATCH_DISPLAY
1070
     0
1001
HATCH_TYPE
1070
     7
  0
LINE
  5
18DD
  8
247
 10
-195.95388427936589
 20
10.65420591653918
 30
0.0
 11
-195.171600496407
 21
13.38236331762408
 31
0.0
1001
HATCH_DISTANCE
1040
1.0
1001
HATCH_DISPLAY
1070
     0
1001
HATCH_TYPE
1070
     7
  0
LINE
  5
18DE
  8
247
 10
-196.6318780537799
 20
10.65420591653918
 30
0.0
 11
-195.95388427936589
 21
10.65420591653918
 31
0.0
1001
HATCH_DISTANCE
1040
1.0
1001
HATCH_DISPLAY
1070
     0
1001
HATCH_TYPE
1070
     7
  0
LINE
  5
18DF
  8
247
 10
-195.94519821369209
 20
13.04892825903033
 30
0.0
 11
-196.6318780537799
 21
10.65420591653918
 31
0.0
1001
HATCH_DISTANCE
1040
1.0
1001
HATCH_DISPLAY
1070
     0
1001
HATCH_TYPE
1070
     7
  0
LINE
  5
18E0
  8
247
 10
-196.0555764790729
 20
13.04892825903033
 30
0.0
 11
-195.94519821369209
 21
13.04892825903033
 31
0.0
1001
HATCH_DISTANCE
1040
1.0
1001
HATCH_DISPLAY
1070
     0
1001
HATCH_TYPE
1070
     7
  0
LINE
  5
18E1
  8
247
 10
-195.95996109211009
 20
13.38236331762408
 30
0.0
 11
-196.0555764790729
 21
13.04892825903033
 31
0.0
1001
HATCH_DISTANCE
1040
1.0
1001
HATCH_DISPLAY
1070
     0
1001
HATCH_TYPE
1070
     7
  0
LINE
  5
18E2
  8
247
 10
-195.171600496407
 20
13.38236331762408
 30
0.0
 11
-195.95996109211009
 21
13.38236331762408
 31
0.0
  0
LINE
  5
18E3
  8
247
 10
-195.95388427936589
 20
10.65420591653918
 30
0.0
 11
-195.171600496407
 21
13.38236331762408
 31
0.0
  0
LINE
  5
18E4
  8
247
 10
-196.6318780537799
 20
10.65420591653918
 30
0.0
 11
-195.95388427936589
 21
10.65420591653918
 31
0.0
  0
LINE
  5
18E5
  8
247
 10
-195.94519821369209
 20
13.04892825903033
 30
0.0
 11
-196.6318780537799
 21
10.65420591653918
 31
0.0
  0
LINE
  5
18E6
  8
247
 10
-196.0555764790729
 20
13.04892825903033
 30
0.0
 11
-195.94519821369209
 21
13.04892825903033
 31
0.0
  0
LINE
  5
18E7
  8
247
 10
-195.95996109211009
 20
13.38236331762408
 30
0.0
 11
-196.0555764790729
 21
13.04892825903033
 31
0.0
  0
LINE
  5
18E8
  8
247
 10
-195.97170028601019
 20
10.65420591653918
 30
0.0
 11
-195.94672185476381
 21
10.67918434778568
 31
0.0
  0
LINE
  5
18E9
  8
247
 10
-196.30845989055041
 20
10.65420591653918
 30
0.0
 11
-195.81133712323069
 21
11.151328683858891
 31
0.0
  0
LINE
  5
18EA
  8
247
 10
-196.62651442917891
 20
10.67291098245083
 30
0.0
 11
-195.67595239169759
 21
11.623473019932121
 31
0.0
  0
LINE
  5
18EB
  8
247
 10
-196.49112785005781
 20
11.14505716611191
 30
0.0
 11
-195.54056766016441
 21
12.09561735600535
 31
0.0
  0
LINE
  5
18EC
  8
247
 10
-196.3557412709369
 20
11.617203349772989
 30
0.0
 11
-195.40518292863129
 21
12.56776169207857
 31
0.0
  0
LINE
  5
18ED
  8
247
 10
-196.22035469181591
 20
12.089349533434071
 30
0.0
 11
-195.2697981970982
 21
13.039906028151799
 31
0.0
  0
LINE
  5
18EE
  8
247
 10
-196.0849681126949
 20
12.561495717095161
 30
0.0
 11
-195.26410051216601
 21
13.38236331762406
 31
0.0
  0
LINE
  5
18EF
  8
247
 10
-195.94958153357391
 20
13.033641900756241
 30
0.0
 11
-195.60086011670609
 21
13.382363317624071
 31
0.0
  0
LINE
  5
18F0
  8
247
 10
-195.96894343913701
 20
13.351039599733189
 30
0.0
 11
-195.93761972124619
 21
13.382363317624071
 31
0.0
  0
LINE
  5
18F1
  8
247
 10
-192.30034975633029
 20
10.28444119173812
 30
0.0
 11
-191.30679833512059
 21
11.277992612947781
 31
0.0
  0
LINE
  5
18F2
  8
247
 10
-191.62266833942761
 20
11.29888221318082
 30
0.0
 11
-191.2246472773374
 21
11.69690327527103
 31
0.0
  0
LINE
  5
18F3
  8
247
 10
-192.7192604186535
 20
10.202290133954969
 30
0.0
 11
-192.3212393565633
 21
10.60031119604518
 31
0.0
  0
LINE
  5
18F4
  8
247
 10
-191.52634842668749
 20
11.73196173046111
 30
0.0
 11
-191.23842201444671
 21
12.01988814270187
 31
0.0
  0
LINE
  5
18F5
  8
247
 10
-193.05880088808141
 20
10.19950926906715
 30
0.0
 11
-192.7543188738436
 21
10.50399128330498
 31
0.0
  0
LINE
  5
18F6
  8
247
 10
-191.5502598762213
 20
12.04480988546737
 30
0.0
 11
-191.30287123256409
 21
12.292198529124541
 31
0.0
  0
LINE
  5
18F7
  8
247
 10
-193.39556049262151
 20
10.19950926906715
 30
0.0
 11
-193.09242939690731
 21
10.50264036478136
 31
0.0
  0
LINE
  5
18F8
  8
247
 10
-191.63043967485061
 20
12.30138969137816
 30
0.0
 11
-191.40318030279141
 21
12.52864906343733
 31
0.0
  0
LINE
  5
18F9
  8
247
 10
-193.73232009716159
 20
10.199509269067139
 30
0.0
 11
-193.42918900144741
 21
10.50264036478136
 31
0.0
  0
LINE
  5
18FA
  8
247
 10
-191.7501020580745
 20
12.518486912694369
 30
0.0
 11
-191.53274848652569
 21
12.735840484243131
 31
0.0
  0
LINE
  5
18FB
  8
247
 10
-194.0690797017017
 20
10.19950926906715
 30
0.0
 11
-193.76594860598749
 21
10.50264036478135
 31
0.0
  0
LINE
  5
18FC
  8
247
 10
-191.90289037294519
 20
12.702458202363809
 30
0.0
 11
-191.6885442813626
 21
12.91680429394631
 31
0.0
  0
LINE
  5
18FD
  8
247
 10
-194.4058393062418
 20
10.199509269067139
 30
0.0
 11
-194.1027082105276
 21
10.50264036478135
 31
0.0
  0
LINE
  5
18FE
  8
247
 10
-192.08707202699159
 20
12.855036152857499
 30
0.0
 11
-191.86967735699761
 21
13.072430822851439
 31
0.0
  0
LINE
  5
18FF
  8
247
 10
-194.74259891078179
 20
10.199509269067139
 30
0.0
 11
-194.4394678150677
 21
10.50264036478136
 31
0.0
  0
LINE
  5
1900
  8
247
 10
-192.304403886579
 20
12.9744638978101
 30
0.0
 11
-192.07705030901971
 21
13.20181747536942
 31
0.0
  0
LINE
  5
1901
  8
247
 10
-195.07935851532201
 20
10.19950926906715
 30
0.0
 11
-194.77622741960781
 21
10.50264036478136
 31
0.0
  0
LINE
  5
1902
  8
247
 10
-192.5612839877206
 20
13.0543434012086
 30
0.0
 11
-192.31371191756531
 21
13.30191547136398
 31
0.0
  0
LINE
  5
1903
  8
247
 10
-195.41611811986209
 20
10.19950926906715
 30
0.0
 11
-195.1129870241478
 21
10.50264036478136
 31
0.0
  0
LINE
  5
1904
  8
247
 10
-192.87461502155821
 20
13.077771971911099
 30
0.0
 11
-192.5862960768807
 21
13.366090916588631
 31
0.0
  0
LINE
  5
1905
  8
247
 10
-195.7528777244022
 20
10.19950926906715
 30
0.0
 11
-195.44974662868799
 21
10.50264036478136
 31
0.0
  0
LINE
  5
1906
  8
247
 10
-193.15678154907059
 20
13.132365048938819
 30
0.0
 11
-192.9097064362947
 21
13.37944016171469
 31
0.0
  0
LINE
  5
1907
  8
247
 10
-196.08963732894219
 20
10.19950926906715
 30
0.0
 11
-195.7865062332281
 21
10.50264036478136
 31
0.0
  0
LINE
  5
1908
  8
247
 10
-196.42639693348229
 20
10.19950926906715
 30
0.0
 11
-196.12326583776809
 21
10.502640364781371
 31
0.0
  0
LINE
  5
1909
  8
247
 10
-196.76315653802251
 20
10.19950926906715
 30
0.0
 11
-196.46002544230819
 21
10.502640364781371
 31
0.0
  0
LINE
  5
190A
  8
247
 10
-197.09991614256259
 20
10.19950926906715
 30
0.0
 11
-196.7967850468483
 21
10.502640364781371
 31
0.0
  0
LINE
  5
190B
  8
247
 10
-197.43667574710261
 20
10.19950926906716
 30
0.0
 11
-197.13354465138841
 21
10.50264036478136
 31
0.0
  0
LINE
  5
190C
  8
247
 10
-197.77343535164269
 20
10.19950926906716
 30
0.0
 11
-197.47030425592851
 21
10.50264036478136
 31
0.0
  0
LINE
  5
190D
  8
247
 10
-198.1101949561828
 20
10.199509269067169
 30
0.0
 11
-197.80706386046859
 21
10.50264036478136
 31
0.0
  0
LINE
  5
190E
  8
247
 10
-198.4469545607229
 20
10.19950926906716
 30
0.0
 11
-198.14382346500869
 21
10.50264036478136
 31
0.0
  0
LINE
  5
190F
  8
247
 10
-198.78371416526301
 20
10.19950926906716
 30
0.0
 11
-198.4805830695488
 21
10.50264036478136
 31
0.0
  0
LINE
  5
1910
  8
247
 10
-199.1136821100587
 20
10.20630092881151
 30
0.0
 11
-198.81734267408891
 21
10.50264036478136
 31
0.0
  0
LINE
  5
1911
  8
247
 10
-199.39777127233469
 20
10.25897137107569
 30
0.0
 11
-199.1421191364818
 21
10.51462350692843
 31
0.0
  0
LINE
  5
1912
  8
247
 10
-199.64313322571289
 20
10.35036902223756
 30
0.0
 11
-199.4116330948612
 21
10.581869153089221
 31
0.0
  0
LINE
  5
1913
  8
247
 10
-199.85789318630421
 20
10.47236866618632
 30
0.0
 11
-199.63860215796171
 21
10.691659694528701
 31
0.0
  0
LINE
  5
1914
  8
247
 10
-200.0458444603002
 20
10.621176996730391
 30
0.0
 11
-199.83128290994981
 21
10.83573854708081
 31
0.0
  0
LINE
  5
1915
  8
247
 10
-200.20839514469151
 20
10.79538591687921
 30
0.0
 11
-199.99244901624041
 21
11.01133204533026
 31
0.0
  0
LINE
  5
1916
  8
247
 10
-200.34513665102199
 20
10.995404015088839
 30
0.0
 11
-200.12131065072879
 21
11.21923001538195
 31
0.0
  0
LINE
  5
1917
  8
247
 10
-198.59806805654239
 20
13.079232214108449
 30
0.0
 11
-198.35925497735511
 21
13.31804529329578
 31
0.0
  0
LINE
  5
1918
  8
247
 10
-200.45368669386471
 20
11.2236135767862
 30
0.0
 11
-200.21301284888031
 21
11.46428742177056
 31
0.0
  0
LINE
  5
1919
  8
247
 10
-198.93482766108249
 20
13.07923221410846
 30
0.0
 11
-198.6316965575669
 21
13.38236331762408
 31
0.0
  0
LINE
  5
191A
  8
247
 10
-200.52864137717191
 20
11.485418498019079
 30
0.0
 11
-200.25472421992481
 21
11.75933565526624
 31
0.0
  0
LINE
  5
191B
  8
247
 10
-199.3213230640211
 20
13.029496415709961
 30
0.0
 11
-198.9684570080679
 21
13.382362471663161
 31
0.0
  0
LINE
  5
191C
  8
247
 10
-200.5582421065007
 20
11.79257737323039
 30
0.0
 11
-200.2053760505475
 21
12.145443429183601
 31
0.0
  0
LINE
  5
191D
  8
247
 10
-200.5107475941135
 20
12.176831490157721
 30
0.0
 11
-199.3527111249953
 21
13.33486795927592
 31
0.0
  0
LINE
  5
191E
  8
247
 10
-193.79362686026579
 20
10.811721715043079
 30
0.0
 11
-193.5094460260533
 21
11.095902549255509
 31
0.0
  0
LINE
  5
191F
  8
247
 10
-194.28330540357919
 20
10.658802776269869
 30
0.0
 11
-193.37405998517571
 21
11.568048194673329
 31
0.0
  0
LINE
  5
1920
  8
247
 10
-194.1402899810312
 20
11.13857780335797
 30
0.0
 11
-193.238673944298
 21
12.04019384009116
 31
0.0
  0
LINE
  5
1921
  8
247
 10
-194.59954897886709
 20
10.679318805521991
 30
0.0
 11
-194.2436681010374
 21
11.035199683351779
 31
0.0
  0
LINE
  5
1922
  8
247
 10
-193.98753404171839
 20
11.628093347210809
 30
0.0
 11
-193.4154616421059
 21
12.20016574682329
 31
0.0
  0
LINE
  5
1923
  8
247
 10
-194.84433122401251
 20
10.77129616491673
 30
0.0
 11
-194.57964454913991
 21
11.03598283978933
 31
0.0
  0
LINE
  5
1924
  8
247
 10
-194.0553523501616
 20
11.89703464330767
 30
0.0
 11
-193.752221246646
 21
12.200165746823309
 31
0.0
  0
LINE
  5
1925
  8
247
 10
-195.0416029237299
 20
10.910784069739361
 30
0.0
 11
-194.72056452239659
 21
11.2318224710727
 31
0.0
  0
LINE
  5
1926
  8
247
 10
-193.3091661620339
 20
12.97998043597547
 30
0.0
 11
-193.27760548645239
 21
13.01154111155698
 31
0.0
  0
LINE
  5
1927
  8
247
 10
-195.19741762906389
 20
11.09172896894551
 30
0.0
 11
-194.64522355936609
 21
11.64392303864329
 31
0.0
  0
LINE
  5
1928
  8
247
 10
-193.73029894588791
 20
12.89560725666156
 30
0.0
 11
-193.35833913330629
 21
13.267567069243199
 31
0.0
  0
LINE
  5
1929
  8
247
 10
-195.309287005839
 20
11.316619196710519
 30
0.0
 11
-194.50983705829199
 21
12.11606914425747
 31
0.0
  0
LINE
  5
192A
  8
247
 10
-193.92366174400311
 20
13.03900406308653
 30
0.0
 11
-193.69667923946841
 21
13.265986567621249
 31
0.0
  0
LINE
  5
192B
  8
247
 10
-195.36286043083419
 20
11.599805376255359
 30
0.0
 11
-194.37445055721801
 21
12.58821524987164
 31
0.0
  0
LINE
  5
192C
  8
247
 10
-195.31514333865141
 20
11.984282072978241
 30
0.0
 11
-193.94179760888181
 21
13.35762780274789
 31
0.0
  0
LINE
  5
192D
  8
247
 10
-195.20334156728259
 20
12.43284344888716
 30
0.0
 11
-194.2586544151994
 21
13.377530600970401
 31
0.0
  0
LINE
  5
192E
  8
240
  6
CONTINUOUS
 10
-23.99999999999995
 20
-10.13397459621549
 30
0.0
 11
-23.99999999999995
 21
-9.499999999999968
 31
0.0
1001
GRPNAME
1000
PASTMD04
  0
LINE
  5
192F
  8
240
  6
CONTINUOUS
 10
-23.499999999999911
 20
-10.999999999999989
 30
0.0
 11
-23.99999999999995
 21
-10.13397459621549
 31
0.0
1001
GRPNAME
1000
PASTMD04
  0
LINE
  5
1930
  8
240
  6
CONTINUOUS
 10
-23.99999999999995
 20
-9.499999999999968
 30
0.0
 11
-24.499999999999972
 21
-9.9999999999999964
 31
0.0
1001
GRPNAME
1000
PASTMD04
  0
LINE
  5
1931
  8
240
  6
CONTINUOUS
 10
-23.99999999999995
 20
10.133974596215779
 30
0.0
 11
-23.500000000000021
 21
11.0
 31
0.0
1001
GRPNAME
1000
PASTMD04
  0
LINE
  5
1932
  8
240
  6
CONTINUOUS
 10
-24.499999999999918
 20
10.0
 30
0.0
 11
-23.99999999999995
 21
9.5000000000000302
 31
0.0
1001
GRPNAME
1000
PASTMD04
  0
ARC
  5
1933
  8
241
  6
CONTINUOUS
 10
13.99532270208493
 20
34.44698068951633
 30
0.0
 40
37.181494539076617
 50
219.1813456617962
 51
247.88878579895271
1001
GRPNAME
1000
PASTMD04
  0
TEXT
  5
1934
  8
247
 10
-190.2145674867335
 20
10.63170481264566
 30
0.0
 40
2.5
  1
ST32-CBY09022-260
  7
YOKO
 11
-190.2145674867335
 21
10.63170481264566
 31
0.0
 73
     1
  0
ARC
  5
1935
  8
247
 10
-194.4110261555866
 20
11.305935857907279
 30
0.0
 40
0.3182872831821442
 50
164.00027305718439
 51
344.00027305718442
  0
ARC
  5
1936
  8
247
 10
-194.37847915851631
 20
11.639370916501029
 30
0.0
 40
0.9851760864257813
 50
163.99975070172769
 51
304.96387329163082
  0
ARC
  5
1937
  8
247
 10
-194.16117874347731
 20
12.39719867529009
 30
0.0
 40
0.9851660728454588
 50
53.444012197057283
 51
164.00018438768529
  0
LINE
  5
1938
  8
247
 10
-198.96681610309639
 20
10.502640364781371
 30
0.0
 11
-192.81329361164131
 21
10.50264036478136
 31
0.0
  0
LINE
  5
1939
  8
247
 10
-198.96681610309639
 20
10.19950926906716
 30
0.0
 11
-192.81329361164131
 21
10.19950926906715
 31
0.0
  0
ARC
  5
193A
  8
247
 10
-198.96681610309639
 20
11.79093646825884
 30
0.0
 40
1.2882957458496069
 50
90.0
 51
270.0
  0
ARC
  5
193B
  8
247
 10
-198.96681610309639
 20
11.79093646825884
 30
0.0
 40
1.591426849365233
 50
90.0
 51
270.0
  0
LINE
  5
193C
  8
247
 10
-195.95388427936589
 20
10.65420591653918
 30
0.0
 11
-195.171600496407
 21
13.38236331762408
 31
0.0
  0
ARC
  5
193D
  8
247
 10
-192.76776901447329
 20
11.587574957028369
 30
0.0
 40
2.5780792236328121
 50
155.20517736984209
 51
172.7948259620506
  0
LINE
  5
193E
  8
247
 10
-198.8077546712116
 20
10.65420591653918
 30
0.0
 11
-198.11238876545019
 21
13.079232214107581
 31
0.0
  0
LINE
  5
193F
  8
247
 10
-197.44379432023419
 20
11.539429114095951
 30
0.0
 11
-196.44981464430279
 21
12.53340879002738
 31
0.0
  0
LINE
  5
1940
  8
247
 10
-198.594061885191
 20
11.39944036275946
 30
0.0
 11
-197.53297268093121
 21
12.460529567019311
 31
0.0
  0
ARC
  5
1941
  8
247
 10
-197.54032150470769
 20
12.654850958004941
 30
0.0
 40
0.4546839594841006
 50
261.6626016879294
 51
66.338155095189762
  0
LINE
  5
1942
  8
247
 10
-197.56134717005281
 20
11.758635868817549
 30
0.0
 11
-196.47659896245301
 21
12.843384076417269
 31
0.0
  0
ARC
  5
1943
  8
247
 10
-197.2021371480181
 20
12.624547002926811
 30
0.0
 40
0.7578227519989014
 50
287.66957754739798
 51
90.236159842671626
  0
LINE
  5
1944
  8
247
 10
-198.45867626351409
 20
11.871585588976529
 30
0.0
 11
-197.39759152796131
 21
12.93267032452928
 31
0.0
  0
LINE
  5
1945
  8
247
 10
-197.35783837913971
 20
13.071309133450001
 30
0.0
 11
-197.60625091065469
 21
12.2049722894246
 31
0.0
  0
LINE
  5
1946
  8
247
 10
-196.6318780537799
 20
10.65420591653918
 30
0.0
 11
-195.94519821369209
 21
13.04892825903033
 31
0.0
  0
LINE
  5
1947
  8
247
 10
-195.95996109211009
 20
13.38236331762408
 30
0.0
 11
-195.171600496407
 21
13.38236331762408
 31
0.0
  0
LINE
  5
1948
  8
247
 10
-197.2935312417915
 20
13.03673061069912
 30
0.0
 11
-196.980903762157
 21
13.34935809033345
 31
0.0
  0
LINE
  5
1949
  8
247
 10
-197.1341979556432
 20
12.859304292307311
 30
0.0
 11
-196.7562158721002
 21
13.237286375850349
 31
0.0
  0
LINE
  5
194A
  8
247
 10
-198.18314758502979
 20
13.38236331762408
 30
0.0
 11
-197.2052607078453
 21
13.38236331762397
 31
0.0
  0
LINE
  5
194B
  8
247
 10
-198.18790502016009
 20
12.815876041410689
 30
0.0
 11
-197.62141774394669
 21
13.38236331762403
 31
0.0
  0
LINE
  5
194C
  8
247
 10
-198.34081283771539
 20
13.38236331762408
 30
0.0
 11
-198.4277307149128
 21
13.07923221410846
 31
0.0
  0
LINE
  5
194D
  8
247
 10
-198.27006546222759
 20
13.07923221410846
 30
0.0
 11
-198.11238876545019
 21
13.079232214107581
 31
0.0
  0
LINE
  5
194E
  8
247
 10
-198.18314758502979
 20
13.38236331762408
 30
0.0
 11
-198.27006546222759
 21
13.07923221410846
 31
0.0
  0
LINE
  5
194F
  8
247
 10
-198.2613084520024
 20
13.07923221410843
 30
0.0
 11
-197.9581773484868
 21
13.38236331762405
 31
0.0
  0
LINE
  5
1950
  8
247
 10
-198.96681610309639
 20
13.07923221410846
 30
0.0
 11
-198.4277307149128
 21
13.07923221410846
 31
0.0
  0
LINE
  5
1951
  8
247
 10
-198.96681610309639
 20
13.38236331762408
 30
0.0
 11
-198.34081283771539
 21
13.38236331762408
 31
0.0
  0
LINE
  5
1952
  8
247
 10
-197.09534515466771
 20
12.56139748874276
 30
0.0
 11
-196.58808451710169
 21
13.068658126308749
 31
0.0
  0
LINE
  5
1953
  8
247
 10
-198.3232906418371
 20
12.34373081519359
 30
0.0
 11
-197.2846581394067
 21
13.38236331762397
 31
0.0
  0
LINE
  5
1954
  8
247
 10
-196.0555764790729
 20
13.04892825903033
 30
0.0
 11
-195.94519821369209
 21
13.04892825903033
 31
0.0
  0
LINE
  5
1955
  8
247
 10
-196.0555764790729
 20
13.04892825903033
 30
0.0
 11
-195.95996109211009
 21
13.38236331762408
 31
0.0
  0
LINE
  5
1956
  8
247
 10
-197.992257913251
 20
10.65420591653918
 30
0.0
 11
-196.88000097339329
 21
11.766462856396879
 31
0.0
  0
ARC
  5
1957
  8
247
 10
-197.5498201008991
 20
11.412022588864311
 30
0.0
 40
0.7578163146972659
 50
270.0
 51
40.329840654167469
  0
LINE
  5
1958
  8
247
 10
-197.6554983087108
 20
10.65420591653916
 30
0.0
 11
-196.79851959135169
 21
11.51118463389818
 31
0.0
  0
LINE
  5
1959
  8
247
 10
-198.72944750686801
 20
10.9272951365424
 30
0.0
 11
-197.4468680354455
 21
12.209874607964849
 31
0.0
  0
ARC
  5
195A
  8
247
 10
-197.88800445758861
 20
11.442337988034231
 30
0.0
 40
0.4546969681978227
 50
261.6628542111489
 51
66.338192159110051
  0
LINE
  5
195B
  8
247
 10
-197.70551771409529
 20
11.858808780932719
 30
0.0
 11
-197.95393433231041
 21
10.992446240491059
 31
0.0
  0
LINE
  5
195C
  8
247
 10
-198.66577712233109
 20
10.65420591653918
 30
0.0
 11
-197.8037447156475
 21
11.51623832322284
 31
0.0
  0
LINE
  5
195D
  8
247
 10
-197.26192114665849
 20
10.711023474051361
 30
0.0
 11
-196.8488209860862
 21
11.124123634623709
 31
0.0
  0
LINE
  5
195E
  8
247
 10
-198.8077546712116
 20
10.65420591653918
 30
0.0
 11
-197.5498201008991
 21
10.65420591653918
 31
0.0
  0
LINE
  5
195F
  8
247
 10
-198.3290175177911
 20
10.65420591653918
 30
0.0
 11
-197.93912336141941
 21
11.044100072910849
 31
0.0
  0
LINE
  5
1960
  8
247
 10
-196.6318780537799
 20
10.65420591653918
 30
0.0
 11
-195.95388427936589
 21
10.65420591653918
 31
0.0
  0
ARC
  5
1961
  8
247
 10
-192.81329361164131
 20
11.79093646825884
 30
0.0
 40
1.2882957458496069
 50
270.0
 51
104.1274364964119
  0
ARC
  5
1962
  8
247
 10
-192.81329361164131
 20
11.79093646825884
 30
0.0
 40
1.591426849365233
 50
270.0
 51
104.7707939660941
  0
LINE
  5
1963
  8
247
 10
-194.71698394977611
 20
11.39366626562213
 30
0.0
 11
-194.30845276081121
 21
12.81837558569049
 31
0.0
  0
LINE
  5
1964
  8
247
 10
-193.1277429219441
 20
13.04027652563188
 30
0.0
 11
-193.21903244220769
 21
13.32977771581743
 31
0.0
  0
LINE
  5
1965
  8
247
 10
-193.2722932454304
 20
12.99469470800493
 30
0.0
 11
-193.36358276569399
 21
13.28419589819047
 31
0.0
  0
ARC
  5
1966
  8
247
 10
-192.81329361164131
 20
11.79093646825884
 30
0.0
 40
1.591427564620969
 50
110.22964506332001
 51
118.57168892371671
  0
ARC
  5
1967
  8
247
 10
-192.81329361164131
 20
11.79093646825884
 30
0.0
 40
1.288299322128293
 50
110.8721834020771
 51
132.54194893738401
  0
ARC
  5
1968
  8
247
 10
-194.00249496662181
 20
12.73063373388384
 30
0.0
 40
0.3182875066995621
 50
1.7101213820643151
 51
163.9983983544486
  0
LINE
  5
1969
  8
247
 10
-194.10506836139709
 20
11.218205450192441
 30
0.0
 11
-193.9104158040241
 21
11.897034643307681
 31
0.0
  0
LINE
  5
196A
  8
247
 10
-193.636100923653
 20
10.65420591653918
 30
0.0
 11
-193.19280258380931
 21
12.20016574682329
 31
0.0
  0
LINE
  5
196B
  8
247
 10
-194.0757714863972
 20
12.2001657468233
 30
0.0
 11
-193.19280258380931
 21
12.20016574682329
 31
0.0
  0
LINE
  5
196C
  8
247
 10
-194.1626893635945
 20
11.897034643307681
 30
0.0
 11
-193.9104158040241
 21
11.897034643307681
 31
0.0
  0
LINE
  5
196D
  8
247
 10
-194.1626893635945
 20
11.897034643307681
 30
0.0
 11
-194.0757714863972
 21
12.2001657468233
 31
0.0
  0
LINE
  5
196E
  8
247
 10
-193.81391922199279
 20
10.83201277078723
 30
0.0
 11
-193.636100923653
 21
10.65420591653918
 31
0.0
  0
LINE
  5
196F
  8
240
  6
CONTINUOUS
 10
-23.99999999999995
 20
9.5000000000000302
 30
0.0
 11
-23.99999999999995
 21
10.133974596215779
 31
0.0
1001
GRPNAME
1000
PASTMD04
  0
LINE
  5
1970
  8
241
  6
CONTINUOUS
 10
-23.99999999999995
 20
-9.499999999999968
 30
0.0
 11
-23.99999999999995
 21
9.5000000000000302
 31
0.0
1001
GRPNAME
1000
PASTMD04
  0
ENDBLK
  5
1974
  8
0
  0
ENDSEC
  0
SECTION
  2
ENTITIES
  0
TEXT
  5
1871
  8
250
 10
-5.7423155773667531
 20
-24.954575804228909
 30
0.0
 40
2.799999999999998
  1
CBY09022
  7
ACJISTS
1001
ACAD
1000
MTEXTBEGIN
1070
    73
1070
     1
1070
    44
1040
1.0
1070
    74
1070
     0
1000
MTEXTEND
  0
LINE
  5
1872
  8
250
 10
11.39346769459428
 20
-11.39346769459369
 30
0.0
 11
13.080149018043301
 21
-9.9043048045349416
 31
0.0
1001
GRPNAME
1000
DM700003
1001
ITEMNAME
1000
DI21000B
  0
LINE
  5
1873
  8
250
 10
12.637253028426009
 20
-9.5185015500073415
 30
0.0
 11
11.39346769459428
 21
-11.39346769459369
 31
0.0
1001
GRPNAME
1000
DM700003
1001
ITEMNAME
1000
DI21000B
  0
LINE
  5
1874
  8
250
 10
23.0
 20
-10.999999935317829
 30
0.0
 11
23.293683932495131
 21
-8.7692489972267644
 31
0.0
1001
GRPNAME
1000
DM100007
1001
ITEMNAME
1000
DI220007
  0
LINE
  5
1875
  8
250
 10
22.706316067504869
 20
-8.7692489972267644
 30
0.0
 11
23.0
 21
-10.999999935317829
 31
0.0
1001
GRPNAME
1000
DM100007
1001
ITEMNAME
1000
DI220007
  0
LINE
  5
1876
  8
250
 10
11.393467694068249
 20
11.393467694069811
 30
0.0
 11
12.637253027894239
 21
9.5185015494796232
 31
0.0
1001
GRPNAME
1000
DM700003
1001
ITEMNAME
1000
DI22000B
  0
LINE
  5
1877
  8
250
 10
13.080149017512721
 20
9.9043048040058643
 30
0.0
 11
11.393467694068249
 21
11.393467694069811
 31
0.0
1001
GRPNAME
1000
DM700003
1001
ITEMNAME
1000
DI22000B
  0
LINE
  5
1878
  8
250
 10
23.0
 20
11.00000000000003
 30
0.0
 11
22.706316067504869
 21
8.7692490619089511
 31
0.0
1001
GRPNAME
1000
DM100007
1001
ITEMNAME
1000
DI210007
  0
LINE
  5
1879
  8
250
 10
23.293683932495131
 20
8.7692490619089511
 30
0.0
 11
23.0
 21
11.00000000000003
 31
0.0
1001
GRPNAME
1000
DM100007
1001
ITEMNAME
1000
DI210007
  0
LINE
  5
187A
  8
250
 10
-15.39050139148798
 20
-10.99999999999995
 30
0.0
 11
-14.7040462205461
 21
-13.1419317194116
 31
0.0
  0
LINE
  5
187B
  8
250
 10
-14.438555056861389
 20
-13.01660560744801
 30
0.0
 11
-15.39050139148798
 21
-10.99999999999995
 31
0.0
  0
LINE
  5
187C
  8
250
 10
-8.1423155773667304
 20
-26.354575804228912
 30
0.0
 11
-14.438555056861389
 21
-13.01660560744801
 31
0.0
  0
LINE
  5
187D
  8
250
 10
15.19101775596658
 20
-26.354575804228912
 30
0.0
 11
-8.1423155773667304
 21
-26.354575804228912
 31
0.0
  0
TEXT
  5
187E
  8
250
 10
15.11279653623558
 20
-3.5000000000249361
 30
0.0
 40
2.799999999999998
  1
90ß
 50
90.000000000006509
 41
1.05
  7
YOKO
 11
15.11279653623558
 21
-3.5000000000249361
 31
0.0
 73
     1
1001
GRPNAME
1000
DM700003
1001
ITEMNAME
1000
DI01000B
  0
LINE
  5
187F
  8
250
 10
23.0
 20
11.00000000000003
 30
0.0
 11
23.0
 21
-10.999999935317829
 31
0.0
1001
GRPNAME
1000
DM100007
1001
ITEMNAME
1000
DI100007
  0
ARC
  5
1880
  8
250
 10
-0.0000000000005116
 20
0.0000000000005436
 30
0.0
 40
16.112796536155258
 50
315.00000000000051
 51
45.000000000000092
1001
GRPNAME
1000
DM700003
1001
ITEMNAME
1000
DI10000B
  0
TEXT
  5
1881
  8
250
 10
22.0
 20
-5.2499999676589031
 30
0.0
 40
2.799999999999998
  1
ƒÓ22
 50
90.000000000006509
 41
1.05
  7
YOKO
 11
22.0
 21
-5.2499999676589031
 31
0.0
 73
     1
1001
GRPNAME
1000
DM100007
1001
ITEMNAME
1000
DI010007
  0
LINE
  5
1882
  8
250
 10
24.0
 20
-10.999999935317829
 30
0.0
 11
-10.500000058708279
 21
-10.999999935317829
 31
0.0
1001
GRPNAME
1000
DM100007
1001
ITEMNAME
1000
DI320003
  0
LINE
  5
1883
  8
250
 10
24.0
 20
11.00000000000003
 30
0.0
 11
-10.500000000000449
 21
11.00000000000003
 31
0.0
1001
GRPNAME
1000
DM100007
1001
ITEMNAME
1000
DI310005
  0
LINE
  5
1884
  8
250
 10
12.10057447578083
 20
-12.100574475780229
 30
0.0
 11
0.3535533905932766
 21
-0.3535533905932304
 31
0.0
1001
GRPNAME
1000
DM700003
1001
ITEMNAME
1000
DI310008
  0
LINE
  5
1885
  8
250
 10
12.100574475254801
 20
12.100574475256391
 30
0.0
 11
0.3535533905928219
 21
0.3535533905938202
 31
0.0
1001
GRPNAME
1000
DM700003
1001
ITEMNAME
1000
DI320007
  0
LINE
  5
1886
  8
250
 10
-260.0
 20
15.056624327025951
 30
0.0
 11
-260.0
 21
36.000000000000043
 31
0.0
  0
LINE
  5
1887
  8
250
 10
-139.99999999999989
 20
16.500000000000028
 30
0.0
 11
-139.99999999999989
 21
36.000000000000043
 31
0.0
  0
LINE
  5
1888
  8
250
 10
-257.76999999999981
 20
35.000000000000057
 30
0.0
 11
-142.22999999999979
 21
35.000000000000057
 31
0.0
  0
LINE
  5
1889
  8
250
 10
-260.0
 20
15.056624327025951
 30
0.0
 11
-260.0
 21
43.000000000000028
 31
0.0
  0
LINE
  5
188A
  8
250
 10
0.0
 20
0.500000000000032
 30
0.0
 11
0.0000000000000568
 21
43.000000000000028
 31
0.0
  0
LINE
  5
188B
  8
250
 10
-257.76999999999981
 20
42.000000000000021
 30
0.0
 11
-2.2299999999999609
 21
42.000000000000021
 31
0.0
  0
LINE
  5
188C
  8
250
 10
-258.49999999999989
 20
16.000000000000021
 30
0.0
 11
-275.99999999999932
 21
16.000000000000028
 31
0.0
  0
LINE
  5
188D
  8
250
 10
-258.49999999999989
 20
-15.99999999999997
 30
0.0
 11
-275.99999999999932
 21
-15.99999999999995
 31
0.0
  0
LINE
  5
188E
  8
250
 10
-274.99999999999932
 20
13.77000000000003
 30
0.0
 11
-274.99999999999932
 21
-13.769999999999969
 31
0.0
  0
TEXT
  5
188F
  8
250
 10
-275.99999999999932
 20
-3.7999999999999661
 30
0.0
 40
2.799999999999998
  1
\U+220532
 50
90.0
  0
LINE
  5
1890
  8
250
 10
-274.62833333333248
 20
-13.769999999999969
 30
0.0
 11
-274.99999999999932
 21
-15.99999999999997
 31
0.0
  0
LINE
  5
1891
  8
250
 10
-275.3716666666661
 20
-13.769999999999969
 30
0.0
 11
-274.99999999999932
 21
-15.99999999999997
 31
0.0
  0
LINE
  5
1892
  8
250
 10
-274.99999999999932
 20
-15.99999999999997
 30
0.0
 11
-274.99999999999932
 21
-13.769999999999969
 31
0.0
  0
LINE
  5
1893
  8
250
 10
-275.3716666666661
 20
13.77000000000003
 30
0.0
 11
-274.99999999999932
 21
16.000000000000028
 31
0.0
  0
LINE
  5
1894
  8
250
 10
-274.62833333333248
 20
13.77000000000003
 30
0.0
 11
-274.99999999999932
 21
16.000000000000028
 31
0.0
  0
LINE
  5
1895
  8
250
 10
-274.99999999999932
 20
16.000000000000028
 30
0.0
 11
-274.99999999999932
 21
13.77000000000003
 31
0.0
  0
TEXT
  5
1896
  8
250
 10
-135.9230486567244
 20
43.000000000000028
 30
0.0
 40
2.799999999999998
  1
260
  0
LINE
  5
1897
  8
250
 10
-2.2299999999999609
 20
42.371666666666677
 30
0.0
 11
0.0000000000000568
 21
42.000000000000021
 31
0.0
  0
LINE
  5
1898
  8
250
 10
-2.2299999999999609
 20
41.628333333333359
 30
0.0
 11
0.0000000000000568
 21
42.000000000000021
 31
0.0
  0
LINE
  5
1899
  8
250
 10
0.0000000000000568
 20
42.000000000000021
 30
0.0
 11
-2.2299999999999609
 21
42.000000000000021
 31
0.0
  0
LINE
  5
189A
  8
250
 10
-257.76999999999981
 20
41.628333333333359
 30
0.0
 11
-260.0
 21
42.000000000000021
 31
0.0
  0
LINE
  5
189B
  8
250
 10
-257.76999999999981
 20
42.371666666666677
 30
0.0
 11
-260.0
 21
42.000000000000021
 31
0.0
  0
LINE
  5
189C
  8
250
 10
-260.0
 20
42.000000000000021
 30
0.0
 11
-257.76999999999981
 21
42.000000000000021
 31
0.0
  0
TEXT
  5
189D
  8
250
 10
-204.1999999999999
 20
36.000000000000043
 30
0.0
 40
2.799999999999998
  1
120
  0
LINE
  5
189E
  8
250
 10
-142.22999999999979
 20
35.371666666666727
 30
0.0
 11
-139.99999999999989
 21
35.000000000000057
 31
0.0
  0
LINE
  5
189F
  8
250
 10
-142.22999999999979
 20
34.62833333333338
 30
0.0
 11
-139.99999999999989
 21
35.000000000000057
 31
0.0
  0
LINE
  5
18A0
  8
250
 10
-139.99999999999989
 20
35.000000000000057
 30
0.0
 11
-142.22999999999979
 21
35.000000000000057
 31
0.0
  0
LINE
  5
18A1
  8
250
 10
-257.76999999999981
 20
34.62833333333338
 30
0.0
 11
-260.0
 21
35.000000000000057
 31
0.0
  0
LINE
  5
18A2
  8
250
 10
-257.76999999999981
 20
35.371666666666727
 30
0.0
 11
-260.0
 21
35.000000000000057
 31
0.0
  0
LINE
  5
18A3
  8
250
 10
-260.0
 20
35.000000000000057
 30
0.0
 11
-257.76999999999981
 21
35.000000000000057
 31
0.0
  0
TEXT
  5
18AF
  8
241
 10
-260.99999999999932
 20
56.000000000000007
 30
0.0
 40
5.0
  1
ST32-CBY09022-260
  7
YOKO
  0
INSERT
  5
1976
  8
240
  2
A$C47EC41DB
 10
0.0
 20
0.0
 30
0.0
  0
VIEWPORT
  5
22
 67
     1
  8
0
 10
261.51769911504419
 20
148.5
 30
0.0
 40
523.0353982300885
 41
297.0
 68
     1
 69
     1
1001
ACAD
1000
MVIEW
1002
{
1070
    16
1010
0.0
1020
0.0
1030
0.0
1010
0.0
1020
0.0
1030
1.0
1040
0.0
1040
297.0
1040
261.51769911504419
1040
148.5
1040
50.0
1040
0.0
1040
0.0
1070
     0
1070
   100
1070
     1
1070
     1
1070
     0
1070
     0
1070
     0
1070
     0
1040
0.0
1040
0.0
1040
0.0
1040
1.0
1040
1.0
1040
10.0
1040
10.0
1070
     0
1002
{
1002
}
1002
}
1001
GENIUS_GENODEF_13
1002
{
1000
HIER
1070
     0
1002
}
1002
{
1000
MANEDIT
1070
     0
1002
}
1002
{
1000
NOSEL
1070
     0
1002
}
1002
{
1000
BEHIND
1070
     0
1002
}
1002
{
1000
OTHER
1070
     0
1002
}
1002
{
1000
REACTOR
1002
}
1001
GENIUS_GENOBJ-N-SDF_13
1002
{
1000
OWNER
1000
GEN
1002
}
1001
GENIUS_GENSCREG_15
1000
PF
1040
1.0
1000
DF
1040
1.0
1000
MIN
1011
0.0
1021
-1048576.0007476807
1031
0.0
1021
0.0
1031
0.0
1000
MAX
1011
523.0353982300885
1021
-1048576.0007476807
1031
0.0
1021
297.0
1031
0.0
1000
FLAGS
1070
     2
  0
ENDSEC
  0
EOF
