  0
SECTION
  2
HEADER
  9
$ACADVER
  1
AC1009
  9
$INSBASE
 10
0.0
 20
0.0
 30
0.0
  9
$EXTMIN
 10
-98.800000999998929
 20
-34.500000000000092
 30
0.0
  9
$EXTMAX
 10
85.000000000000014
 20
68.000000000000028
 30
0.0
  9
$LIMMIN
 10
0.0
 20
0.0
  9
$LIMMAX
 10
297.0
 20
210.0
  9
$ORTHOMODE
 70
     0
  9
$REGENMODE
 70
     1
  9
$FILLMODE
 70
     1
  9
$QTEXTMODE
 70
     0
  9
$MIRRTEXT
 70
     1
  9
$DRAGMODE
 70
     2
  9
$LTSCALE
 40
10.0
  9
$OSMODE
 70
  3071
  9
$ATTMODE
 70
     1
  9
$TEXTSIZE
 40
5.0
  9
$TRACEWID
 40
1.0
  9
$TEXTSTYLE
  7
STANDARD
  9
$CLAYER
  8
245
  9
$CELTYPE
  6
BYLAYER
  9
$CECOLOR
 62
   256
  9
$DIMSCALE
 40
1.0
  9
$DIMASZ
 40
2.2299999999999991
  9
$DIMEXO
 40
0.5
  9
$DIMDLI
 40
7.0
  9
$DIMRND
 40
0.0
  9
$DIMDLE
 40
0.0
  9
$DIMEXE
 40
1.0
  9
$DIMTP
 40
0.0
  9
$DIMTM
 40
0.01
  9
$DIMTXT
 40
2.7999999999999989
  9
$DIMCEN
 40
0.0
  9
$DIMTSZ
 40
0.0
  9
$DIMTOL
 70
     0
  9
$DIMLIM
 70
     0
  9
$DIMTIH
 70
     0
  9
$DIMTOH
 70
     0
  9
$DIMSE1
 70
     0
  9
$DIMSE2
 70
     0
  9
$DIMTAD
 70
     3
  9
$DIMZIN
 70
     9
  9
$DIMBLK
  1
OPEN
  9
$DIMASO
 70
     1
  9
$DIMSHO
 70
     1
  9
$DIMPOST
  1

  9
$DIMAPOST
  1

  9
$DIMALT
 70
     0
  9
$DIMALTD
 70
     2
  9
$DIMALTF
 40
25.399999999999999
  9
$DIMLFAC
 40
1.0
  9
$DIMTOFL
 70
     1
  9
$DIMTVP
 40
0.0
  9
$DIMTIX
 70
     1
  9
$DIMSOXD
 70
     0
  9
$DIMSAH
 70
     0
  9
$DIMBLK1
  1

  9
$DIMBLK2
  1

  9
$DIMSTYLE
  2
BIGT
  9
$DIMCLRD
 70
   256
  9
$DIMCLRE
 70
   256
  9
$DIMCLRT
 70
    40
  9
$DIMTFAC
 40
1.0
  9
$DIMGAP
 40
1.0
  9
$LUNITS
 70
     2
  9
$LUPREC
 70
     3
  9
$SKETCHINC
 40
1.0
  9
$FILLETRAD
 40
4.0
  9
$AUNITS
 70
     0
  9
$AUPREC
 70
     3
  9
$MENU
  1
.
  9
$ELEVATION
 40
0.0
  9
$PELEVATION
 40
0.0
  9
$THICKNESS
 40
0.0
  9
$LIMCHECK
 70
     0
  9
$BLIPMODE
 70
     0
  9
$CHAMFERA
 40
0.25
  9
$CHAMFERB
 40
0.25
  9
$SKPOLY
 70
     0
  9
$TDCREATE
 40
2455812.5274925809
  9
$TDUPDATE
 40
2455812.5569114238
  9
$TDINDWG
 40
0.0149399653
  9
$TDUSRTIMER
 40
0.0149399653
  9
$USRTIMER
 70
     1
  9
$ANGBASE
 50
0.0
  9
$ANGDIR
 70
     0
  9
$PDMODE
 70
     1
  9
$PDSIZE
 40
0.0
  9
$PLINEWID
 40
0.0
  9
$COORDS
 70
     1
  9
$SPLFRAME
 70
     0
  9
$SPLINETYPE
 70
     6
  9
$SPLINESEGS
 70
     4
  9
$ATTDIA
 70
     1
  9
$ATTREQ
 70
     1
  9
$HANDLING
 70
     1
  9
$HANDSEED
  5
1977
  9
$SURFTAB1
 70
     6
  9
$SURFTAB2
 70
     6
  9
$SURFTYPE
 70
     6
  9
$SURFU
 70
     6
  9
$SURFV
 70
     6
  9
$UCSNAME
  2

  9
$UCSORG
 10
0.0
 20
0.0
 30
0.0
  9
$UCSXDIR
 10
1.0
 20
0.0
 30
0.0
  9
$UCSYDIR
 10
0.0
 20
1.0
 30
0.0
  9
$PUCSNAME
  2

  9
$PUCSORG
 10
0.0
 20
0.0
 30
0.0
  9
$PUCSXDIR
 10
1.0
 20
0.0
 30
0.0
  9
$PUCSYDIR
 10
0.0
 20
1.0
 30
0.0
  9
$USERI1
 70
     1
  9
$USERI2
 70
     0
  9
$USERI3
 70
     0
  9
$USERI4
 70
     0
  9
$USERI5
 70
     0
  9
$USERR1
 40
0.0
  9
$USERR2
 40
0.0
  9
$USERR3
 40
0.0
  9
$USERR4
 40
0.0
  9
$USERR5
 40
0.0
  9
$WORLDVIEW
 70
     1
  9
$SHADEDGE
 70
     3
  9
$SHADEDIF
 70
    70
  9
$TILEMODE
 70
     1
  9
$MAXACTVP
 70
    16
  9
$PLIMCHECK
 70
     0
  9
$PEXTMIN
 10
1.0000000000000000E+020
 20
1.0000000000000000E+020
 30
1.0000000000000000E+020
  9
$PEXTMAX
 10
-1.0000000000000000E+020
 20
-1.0000000000000000E+020
 30
-1.0000000000000000E+020
  9
$PLIMMIN
 10
0.0
 20
0.0
  9
$PLIMMAX
 10
420.0
 20
297.0
  9
$UNITMODE
 70
     0
  9
$VISRETAIN
 70
     1
  9
$PLINEGEN
 70
     0
  9
$PSLTSCALE
 70
     1
  0
ENDSEC
  0
SECTION
  2
TABLES
  0
TABLE
  2
VPORT
 70
     1
  0
VPORT
  2
*ACTIVE
 70
     0
 10
0.0
 20
0.0
 11
1.0
 21
1.0
 12
-6.897490944477596
 22
16.752319722148059
 13
0.0
 23
0.0
 14
7.0
 24
7.0
 15
7.0
 25
7.0
 16
0.0
 26
0.0
 36
1.0
 17
0.0
 27
0.0
 37
0.0
 40
103.3214867038761
 41
1.8471023427866831
 42
50.0
 43
0.0
 44
0.0
 50
0.0
 51
0.0
 71
     0
 72
  2000
 73
     1
 74
     0
 75
     0
 76
     1
 77
     0
 78
     0
  0
ENDTAB
  0
TABLE
  2
LTYPE
 70
    13
  0
LTYPE
  2
CONTINUOUS
 70
     0
  3
Solid line
 72
    65
 73
     0
 40
0.0
  0
LTYPE
  2
CENTER2
 70
     0
  3
___ _ ___ _ ___ _ ___ _ ___ _ ___ _ ___ _ ___ _
 72
    65
 73
     4
 40
1.125
 49
0.75
 49
-0.125
 49
0.125
 49
-0.125
  0
LTYPE
  2
HIDDEN2
 70
     0
  3
_ _ _ _ _ _ _ _ _ _ _ _ _ _ _ _ _ _ _ _ _ _ _ _
 72
    65
 73
     2
 40
0.1875
 49
0.125
 49
-0.0625
  0
LTYPE
  2
PHANTOM2
 70
     0
  3
___ _ _ ___ _ _ ___ _ _ ___ _ _ ___ _ _ ___ _ _
 72
    65
 73
     6
 40
1.25
 49
0.625
 49
-0.125
 49
0.125
 49
-0.125
 49
0.125
 49
-0.125
  0
LTYPE
  2
CENTER
 70
     0
  3
____ _ ____ _ ____ _ ____ _ ____ _ ____ _ ____ 
 72
    65
 73
     4
 40
2.0
 49
1.25
 49
-0.25
 49
0.25
 49
-0.25
  0
LTYPE
  2
AM_ISO02W050
 70
     0
  3
__ __ __ __ __ __ __ __ __ __ __ __ __ __ __
 72
    65
 73
     2
 40
7.5
 49
6.0
 49
-1.5
  0
LTYPE
  2
AMCONSTR
 70
     0
  3
_______________________
 72
    65
 73
     2
 40
9999.0
 49
9999.0
 49
0.0
  0
LTYPE
  2
ACISOWELD
 70
     0
  3
_ _ _ _ _
 72
    65
 73
     2
 40
2.0
 49
2.0
 49
-1.0
  0
LTYPE
  2
ACISOTGB
 70
     0
  3
__ . . __ . .
 72
    65
 73
     6
 40
9.0
 49
4.0
 49
-1.0
 49
1.0
 49
-1.0
 49
1.0
 49
-1.0
  0
LTYPE
  2
ACISOTGL
 70
     0
  3
_ _ _ _ _
 72
    65
 73
     2
 40
3.0
 49
2.0
 49
-1.0
  0
LTYPE
  2
ACJISTGB
 70
     0
  3
__ . . __ . .
 72
    65
 73
     6
 40
9.0
 49
4.0
 49
-1.0
 49
1.0
 49
-1.0
 49
1.0
 49
-1.0
  0
LTYPE
  2
ACJISTGL
 70
     0
  3
_ _ _ _ _
 72
    65
 73
     2
 40
3.0
 49
2.0
 49
-1.0
  0
LTYPE
  2
HIDDEN
 70
     0
  3
Hidden __ __ __ __ __ __ __ __ __ __ __ __ __ _
 72
    65
 73
     2
 40
9.5249999999999986
 49
6.3499999999999988
 49
-3.1749999999999989
  0
ENDTAB
  0
TABLE
  2
LAYER
 70
     6
  0
LAYER
  2
0
 70
     0
 62
     7
  6
CONTINUOUS
  0
LAYER
  2
DEFPOINTS
 70
     0
 62
     7
  6
CONTINUOUS
  0
LAYER
  2
245
 70
     0
 62
     2
  6
CENTER2
  0
LAYER
  2
240
 70
     0
 62
     4
  6
CONTINUOUS
  0
LAYER
  2
241
 70
     0
 62
   211
  6
CONTINUOUS
  0
LAYER
  2
250
 70
     0
 62
     3
  6
CONTINUOUS
  0
ENDTAB
  0
TABLE
  2
STYLE
 70
     6
  0
STYLE
  2
STANDARD
 70
     0
 40
0.0
 41
1.0
 50
0.0
 71
     0
 42
5.0
  3
romans.shx
  4
extfont.shx
  0
STYLE
  2
ACISOTS
 70
     0
 40
1.0
 41
1.0
 50
0.0
 71
     0
 42
3.0
  3
amgdt.shx
  4
extfont.shx
  0
STYLE
  2
ACISOGDT
 70
     0
 40
0.0
 41
1.0
 50
0.0
 71
     0
 42
3.0
  3
amgdt.shx
  4
extfont.shx
  0
STYLE
  2
ACJISTS
 70
     0
 40
1.0
 41
1.0
 50
0.0
 71
     0
 42
3.0
  3
amgdt.shx
  4
extfont.shx
  0
STYLE
  2
ACJISGDT
 70
     0
 40
0.0
 41
1.0
 50
0.0
 71
     0
 42
3.0
  3
amgdt.shx
  4
extfont.shx
  0
STYLE
  2
YOKO
 70
     0
 40
0.0
 41
1.0
 50
0.0
 71
     0
 42
3.0
  3
romans.shx
  4
extfont.shx
  0
ENDTAB
  0
TABLE
  2
VIEW
 70
     0
  0
ENDTAB
  0
TABLE
  2
UCS
 70
     0
  0
ENDTAB
  0
TABLE
  2
APPID
 70
    33
  0
APPID
  2
ACAD
 70
     0
  0
APPID
  2
GLOBAL
 70
     0
  0
APPID
  2
DETAIL
 70
     0
  0
APPID
  2
GRPNAME
 70
     0
  0
APPID
  2
GPARA
 70
     0
  0
APPID
  2
MCAD_NO_VIS
 70
     0
  0
APPID
  2
ACAD_TEMP_GRAPHIC
 70
     0
  0
APPID
  2
ACATTRIBSERVICES
 70
     0
  0
APPID
  2
GENIUS_GENSCREG_15
 70
     0
  0
APPID
  2
GENIUS_GENODEF_13
 70
     0
  0
APPID
  2
GENIUS_GENOBJ-N-SDF_13
 70
     0
  0
APPID
  2
GENIUS_GENREC_14
 70
     0
  0
APPID
  2
GENIUS_GENOBJ-N-REC_13
 70
     0
  0
APPID
  2
GENIUS_GENDIMSH_14
 70
     0
  0
APPID
  2
GENIUS_GENOBJ-N-DIM_13
 70
     0
  0
APPID
  2
GENIUS_GENDIM_13
 70
     0
  0
APPID
  2
GENIUS_GENDTOL_13
 70
     0
  0
APPID
  2
GENIUS_GENOLIS_13
 70
     0
  0
APPID
  2
GENIUS_GENOENT_13
 70
     0
  0
APPID
  2
GENIUS_GENOBJ-F-FEM_13
 70
     0
  0
APPID
  2
GENIUS_GENOREF_13
 70
     0
  0
APPID
  2
GENIUS_GEFFEM_13
 70
     0
  0
APPID
  2
GENIUS_GEFFEMP_13
 70
     0
  0
APPID
  2
AD_DRAW
 70
     0
  0
APPID
  2
DESIGNERASSEMBLIES
 70
     0
  0
APPID
  2
ACADM_DIM_EDIT
 70
     0
  0
APPID
  2
AMDT_DM_ADJ
 70
     0
  0
APPID
  2
ACAD_EXEMPT_FROM_CAD_STANDARDS
 70
     0
  0
APPID
  2
ACAD_PSEXT
 70
     0
  0
APPID
  2
GENIUS_GENOBJ-N-FIL_13
 70
     0
  0
APPID
  2
ACAD_DSTYLE_DIMINSPECT
 70
     0
  0
APPID
  2
ACAECLAYERSTANDARD
 70
     0
  0
APPID
  2
ACAD_MLEADERVER
 70
     0
  0
ENDTAB
  0
TABLE
  2
DIMSTYLE
 70
    23
  0
DIMSTYLE
  2
BIGT
 70
     0
  3

  4

  5
OPEN
  6

  7

 40
1.0
 41
2.2299999999999991
 42
0.5
 43
7.0
 44
1.0
 45
0.0
 46
0.0
 47
0.0
 48
0.01
140
2.7999999999999989
141
0.0
142
0.0
143
25.399999999999999
144
1.0
145
0.0
146
1.0
147
1.0
 71
     0
 72
     0
 73
     0
 74
     0
 75
     0
 76
     0
 77
     3
 78
     9
170
     0
171
     2
172
     1
173
     0
174
     1
175
     0
176
   256
177
   256
178
    40
  0
DIMSTYLE
  2
AM_ISO
 70
     0
  3

  4
"
  5

  6

  7

 40
1.0
 41
2.5
 42
1.0
 43
10.0
 44
1.0
 45
0.0
 46
0.0
 47
0.1
 48
0.1
140
3.5
141
0.0
142
0.0
143
0.0393701
144
1.0
145
0.0
146
0.71
147
1.5
 71
     0
 72
     0
 73
     0
 74
     0
 75
     0
 76
     0
 77
     1
 78
     8
170
     0
171
     2
172
     1
173
     0
174
     0
175
     0
176
   256
177
   256
178
     2
  0
DIMSTYLE
  2
AM_ISO$3
 70
     0
  3

  4
"
  5

  6

  7

 40
1.0
 41
2.5
 42
1.0
 43
10.0
 44
1.0
 45
0.0
 46
0.0
 47
0.1
 48
0.1
140
3.5
141
0.0
142
0.0
143
0.0393701
144
1.0
145
0.0
146
0.71
147
1.5
 71
     0
 72
     0
 73
     0
 74
     1
 75
     0
 76
     0
 77
     1
 78
     8
170
     0
171
     2
172
     0
173
     0
174
     0
175
     0
176
   256
177
   256
178
     2
  0
DIMSTYLE
  2
AM_ISO$4
 70
     0
  3

  4
"
  5

  6

  7

 40
1.0
 41
2.5
 42
1.0
 43
10.0
 44
1.0
 45
0.0
 46
0.0
 47
0.1
 48
0.1
140
3.5
141
0.0
142
0.0
143
0.0393701
144
1.0
145
0.0
146
0.71
147
1.5
 71
     0
 72
     0
 73
     0
 74
     1
 75
     0
 76
     0
 77
     1
 78
     8
170
     0
171
     2
172
     0
173
     0
174
     0
175
     0
176
   256
177
   256
178
     2
  0
DIMSTYLE
  2
AM_ISO$6
 70
     0
  3

  4
"
  5

  6

  7

 40
1.0
 41
2.5
 42
1.0
 43
10.0
 44
1.0
 45
0.0
 46
0.0
 47
0.1
 48
0.1
140
3.5
141
0.0
142
0.0
143
0.0393701
144
1.0
145
0.0
146
0.71
147
1.5
 71
     0
 72
     0
 73
     0
 74
     0
 75
     0
 76
     0
 77
     0
 78
     8
170
     0
171
     2
172
     1
173
     0
174
     0
175
     0
176
   256
177
   256
178
     2
  0
DIMSTYLE
  2
AM_ISO$7
 70
     0
  3

  4
"
  5

  6

  7

 40
1.0
 41
2.5
 42
1.0
 43
10.0
 44
1.0
 45
0.0
 46
0.0
 47
0.1
 48
0.1
140
5.0
141
0.0
142
0.0
143
0.0393701
144
1.0
145
0.0
146
0.71
147
1.5
 71
     0
 72
     0
 73
     0
 74
     0
 75
     0
 76
     0
 77
     1
 78
     8
170
     0
171
     2
172
     1
173
     0
174
     0
175
     0
176
   256
177
   256
178
     2
  0
DIMSTYLE
  2
AM_ISO$SF
 70
     0
  3

  4
"
  5

  6

  7

 40
1.0
 41
2.5
 42
1.0
 43
10.0
 44
1.0
 45
0.0
 46
0.0
 47
0.1
 48
0.1
140
3.5
141
0.0
142
0.0
143
0.0393701
144
1.0
145
0.0
146
0.71
147
1.5
 71
     0
 72
     0
 73
     0
 74
     0
 75
     1
 76
     1
 77
     1
 78
     8
170
     0
171
     2
172
     1
173
     0
174
     0
175
     0
176
   256
177
   256
178
     2
  0
DIMSTYLE
  2
AM_ISO$SH
 70
     0
  3

  4
"
  5

  6
GENAXEH
  7

 40
1.0
 41
2.5
 42
1.0
 43
10.0
 44
1.0
 45
0.0
 46
0.0
 47
0.1
 48
0.1
140
3.5
141
0.0
142
0.0
143
0.0393701
144
2.0
145
0.0
146
0.71
147
1.5
 71
     0
 72
     0
 73
     0
 74
     0
 75
     1
 76
     1
 77
     1
 78
     8
170
     0
171
     2
172
     1
173
     1
174
     0
175
     0
176
   256
177
   256
178
     2
  0
DIMSTYLE
  2
BIGT$2
 70
     0
  3

  4

  5
OPEN
  6

  7

 40
1.0
 41
2.2299999999999991
 42
0.5
 43
7.0
 44
1.0
 45
0.0
 46
0.0
 47
0.0
 48
0.01
140
2.7999999999999989
141
0.0
142
0.0
143
25.399999999999999
144
1.0
145
0.0
146
1.0
147
1.0
 71
     0
 72
     0
 73
     0
 74
     0
 75
     0
 76
     0
 77
     3
 78
     9
170
     0
171
     2
172
     1
173
     0
174
     0
175
     0
176
   256
177
   256
178
    40
  0
DIMSTYLE
  2
BIGT$3
 70
     0
  3

  4

  5
OPEN
  6

  7

 40
1.0
 41
2.2299999999999991
 42
0.5
 43
2.5
 44
1.0
 45
0.0
 46
0.0
 47
0.0
 48
0.01
140
2.7999999999999989
141
0.0
142
0.0
143
25.399999999999999
144
1.0
145
0.0
146
1.0
147
1.0
 71
     0
 72
     0
 73
     0
 74
     0
 75
     0
 76
     0
 77
     3
 78
     9
170
     0
171
     2
172
     1
173
     0
174
     0
175
     0
176
   256
177
   256
178
    40
  0
DIMSTYLE
  2
BIGT$7
 70
     0
  3

  4

  5
OPEN
  6

  7

 40
0.0
 41
2.2299999999999991
 42
0.5
 43
7.0
 44
1.0
 45
0.0
 46
0.0
 47
0.0
 48
0.01
140
2.7999999999999989
141
0.0
142
0.0
143
25.399999999999999
144
1.0
145
0.0
146
1.0
147
1.0
 71
     0
 72
     0
 73
     0
 74
     0
 75
     0
 76
     0
 77
     3
 78
     9
170
     0
171
     2
172
     0
173
     0
174
     0
175
     0
176
   256
177
   256
178
    40
  0
DIMSTYLE
  2
BIGT$6
 70
     0
  3

  4

  5
OPEN
  6

  7

 40
1.0
 41
2.2299999999999991
 42
0.5
 43
2.5
 44
1.0
 45
0.0
 46
0.0
 47
0.0
 48
0.01
140
2.7999999999999989
141
0.0
142
0.0
143
25.399999999999999
144
1.0
145
0.0
146
1.0
147
1.0
 71
     0
 72
     0
 73
     0
 74
     0
 75
     0
 76
     0
 77
     3
 78
     9
170
     0
171
     2
172
     1
173
     0
174
     0
175
     0
176
   256
177
   256
178
    40
  0
DIMSTYLE
  2
BIGT$0
 70
     0
  3

  4

  5
OPEN
  6

  7

 40
1.0
 41
2.2299999999999991
 42
0.5
 43
7.0
 44
1.0
 45
0.0
 46
0.0
 47
0.0
 48
0.01
140
2.7999999999999989
141
0.0
142
0.0
143
25.399999999999999
144
1.0
145
0.0
146
1.0
147
1.0
 71
     0
 72
     0
 73
     0
 74
     0
 75
     0
 76
     0
 77
     3
 78
     9
170
     0
171
     2
172
     1
173
     0
174
     0
175
     0
176
   256
177
   256
178
    40
  0
DIMSTYLE
  2
BIGT$4
 70
     0
  3

  4

  5
OPEN
  6

  7

 40
1.0
 41
2.2299999999999991
 42
0.5
 43
2.5
 44
1.0
 45
0.0
 46
0.0
 47
0.0
 48
0.01
140
2.7999999999999989
141
0.0
142
0.0
143
25.399999999999999
144
1.0
145
0.0
146
1.0
147
1.0
 71
     0
 72
     0
 73
     0
 74
     0
 75
     0
 76
     0
 77
     3
 78
     9
170
     0
171
     2
172
     1
173
     0
174
     0
175
     0
176
   256
177
   256
178
    40
  0
DIMSTYLE
  2
BIGT$SH
 70
     0
  3

  4

  5
OPEN
  6

  7

 40
1.0
 41
2.2299999999999991
 42
0.5
 43
7.0
 44
1.0
 45
0.0
 46
0.0
 47
0.0
 48
0.0
140
2.7999999999999989
141
0.0
142
0.0
143
25.399999999999999
144
1.0
145
0.0
146
1.0
147
1.0
 71
     0
 72
     0
 73
     0
 74
     0
 75
     0
 76
     0
 77
     3
 78
     9
170
     0
171
     2
172
     1
173
     0
174
     0
175
     0
176
   256
177
   256
178
    40
  0
DIMSTYLE
  2
BIGT$SF
 70
     0
  3

  4

  5
OPEN
  6

  7

 40
1.0
 41
2.2299999999999991
 42
0.5
 43
7.0
 44
1.0
 45
0.0
 46
0.0
 47
0.0
 48
0.0
140
2.7999999999999989
141
0.0
142
0.0
143
25.399999999999999
144
1.0
145
0.0
146
1.0
147
1.0
 71
     0
 72
     0
 73
     0
 74
     0
 75
     0
 76
     0
 77
     3
 78
     9
170
     0
171
     2
172
     1
173
     0
174
     0
175
     0
176
   256
177
   256
178
    40
  0
DIMSTYLE
  2
TECHNICAL_OSAKA
 70
     0
  3

  4
"
  5
OPEN30
  6

  7

 40
1.0
 41
2.5
 42
1.0
 43
10.0
 44
1.0
 45
0.0
 46
0.0
 47
0.1
 48
0.1
140
2.7999999999999989
141
0.0
142
0.0
143
0.0393701
144
1.0
145
0.0
146
0.71
147
1.5
 71
     0
 72
     0
 73
     0
 74
     0
 75
     0
 76
     0
 77
     3
 78
     8
170
     0
171
     2
172
     1
173
     0
174
     0
175
     0
176
   256
177
   256
178
    40
  0
DIMSTYLE
  2
TECHNICAL_OSAKA$3
 70
     0
  3

  4
"
  5
OPEN30
  6

  7

 40
1.0
 41
2.5
 42
1.0
 43
10.0
 44
1.0
 45
0.0
 46
0.0
 47
0.1
 48
0.1
140
2.7999999999999989
141
0.0
142
0.0
143
0.0393701
144
1.0
145
0.0
146
0.71
147
1.5
 71
     0
 72
     0
 73
     0
 74
     1
 75
     0
 76
     0
 77
     3
 78
     8
170
     0
171
     2
172
     0
173
     0
174
     0
175
     0
176
   256
177
   256
178
    40
  0
DIMSTYLE
  2
TECHNICAL_OSAKA$4
 70
     0
  3

  4
"
  5
OPEN30
  6

  7

 40
1.0
 41
2.5
 42
1.0
 43
10.0
 44
1.0
 45
0.0
 46
0.0
 47
0.1
 48
0.1
140
2.7999999999999989
141
0.0
142
0.0
143
0.0393701
144
1.0
145
0.0
146
0.71
147
1.5
 71
     0
 72
     0
 73
     0
 74
     1
 75
     0
 76
     0
 77
     3
 78
     8
170
     0
171
     2
172
     0
173
     0
174
     0
175
     0
176
   256
177
   256
178
    40
  0
DIMSTYLE
  2
TECHNICAL_OSAKA$6
 70
     0
  3

  4
"
  5
OPEN30
  6

  7

 40
1.0
 41
2.5
 42
1.0
 43
10.0
 44
1.0
 45
0.0
 46
0.0
 47
0.1
 48
0.1
140
2.7999999999999989
141
0.0
142
0.0
143
0.0393701
144
1.0
145
0.0
146
0.71
147
1.5
 71
     0
 72
     0
 73
     0
 74
     0
 75
     0
 76
     0
 77
     0
 78
     8
170
     0
171
     2
172
     1
173
     0
174
     0
175
     0
176
   256
177
   256
178
    40
  0
DIMSTYLE
  2
TECHNICAL_OSAKA$7
 70
     0
  3

  4
"
  5
OPEN30
  6

  7

 40
1.0
 41
2.5
 42
1.0
 43
10.0
 44
1.0
 45
0.0
 46
0.0
 47
0.1
 48
0.1
140
2.7999999999999989
141
0.0
142
0.0
143
0.0393701
144
1.0
145
0.0
146
0.71
147
1.5
 71
     0
 72
     0
 73
     0
 74
     0
 75
     0
 76
     0
 77
     3
 78
     8
170
     0
171
     2
172
     1
173
     0
174
     0
175
     0
176
   256
177
   256
178
    40
  0
DIMSTYLE
  2
TECHNICAL_OSAKA$SF
 70
     0
  3

  4
"
  5
OPEN30
  6
OPEN30
  7
OPEN30
 40
1.0
 41
2.5
 42
1.0
 43
10.0
 44
1.0
 45
0.0
 46
0.0
 47
0.1
 48
0.1
140
3.5
141
0.0
142
0.0
143
0.0393701
144
1.0
145
0.0
146
0.71
147
1.5
 71
     0
 72
     0
 73
     0
 74
     0
 75
     1
 76
     1
 77
     3
 78
     8
170
     0
171
     2
172
     1
173
     0
174
     0
175
     0
176
   256
177
   256
178
    40
  0
DIMSTYLE
  2
TECHNICAL_OSAKA$SH
 70
     0
  3

  4
"
  5
OPEN30
  6
GENAXEH
  7
OPEN30
 40
1.0
 41
2.5
 42
1.0
 43
10.0
 44
1.0
 45
0.0
 46
0.0
 47
0.1
 48
0.1
140
3.5
141
0.0
142
0.0
143
0.0393701
144
2.0
145
0.0
146
0.71
147
1.5
 71
     0
 72
     0
 73
     0
 74
     0
 75
     1
 76
     1
 77
     3
 78
     8
170
     0
171
     2
172
     1
173
     1
174
     0
175
     0
176
   256
177
   256
178
    40
  0
ENDTAB
  0
ENDSEC
  0
SECTION
  2
BLOCKS
  0
BLOCK
  8
0
  2
$MODEL_SPACE
 70
     0
 10
0.0
 20
0.0
 30
0.0
  3
$MODEL_SPACE
  1

  0
ENDBLK
  5
1C
  8
0
  0
BLOCK
 67
     1
  8
0
  2
$PAPER_SPACE
 70
     0
 10
0.0
 20
0.0
 30
0.0
  3
$PAPER_SPACE
  1

  0
ENDBLK
  5
19
 67
     1
  8
0
  0
BLOCK
  8
0
  2
_OPEN
 70
     0
 10
0.0
 20
0.0
 30
0.0
  3
_OPEN
  1

  0
LINE
  5
18B3
  8
0
  6
BYBLOCK
 62
     0
 10
-1.0
 20
0.1666666666666666
 30
0.0
 11
0.0
 21
0.0
 31
0.0
  0
LINE
  5
18B4
  8
0
  6
BYBLOCK
 62
     0
 10
-1.0
 20
-0.1666666666666666
 30
0.0
 11
0.0
 21
0.0
 31
0.0
  0
LINE
  5
18B5
  8
0
  6
BYBLOCK
 62
     0
 10
0.0
 20
0.0
 30
0.0
 11
-1.0
 21
0.0
 31
0.0
  0
ENDBLK
  5
18B6
  8
0
  0
BLOCK
  8
0
  2
GENAXEH
 70
     0
 10
0.0
 20
0.0
 30
0.0
  3
GENAXEH
  1

  0
LINE
  5
18E1
  8
0
 10
-1.0
 20
0.0
 30
0.0
 11
1.0
 21
0.0
 31
0.0
  0
ENDBLK
  5
18E2
  8
0
  0
BLOCK
  8
0
  2
_OPEN30
 70
     0
 10
0.0
 20
0.0
 30
0.0
  3
_OPEN30
  1

  0
LINE
  5
190B
  8
0
  6
BYBLOCK
 62
     0
 10
-1.0
 20
0.26794919
 30
0.0
 11
0.0
 21
0.0
 31
0.0
  0
LINE
  5
190C
  8
0
  6
BYBLOCK
 62
     0
 10
0.0
 20
0.0
 30
0.0
 11
-1.0
 21
-0.26794919
 31
0.0
  0
LINE
  5
190D
  8
0
  6
BYBLOCK
 62
     0
 10
0.0
 20
0.0
 30
0.0
 11
-1.0
 21
0.0
 31
0.0
  0
ENDBLK
  5
190E
  8
0
  0
BLOCK
  8
0
  2
*U4
 70
     1
 10
0.0
 20
0.0
 30
0.0
  3
*U4
  1

  0
TEXT
  5
1974
  8
250
 10
22.333137656196349
 20
50.0
 30
0.0
 40
2.7999999999999989
  1
50
  0
ENDBLK
  5
1976
  8
0
  0
ENDSEC
  0
SECTION
  2
ENTITIES
  0
LINE
  5
14B9
  8
241
  6
CONTINUOUS
 10
30.505302220733199
 20
33.139568122448203
 30
0.0
 11
49.799600183188382
 21
21.999999999999972
 31
0.0
  0
LINE
  5
14BA
  8
241
  6
CONTINUOUS
 10
30.505302220733199
 20
33.139568122448253
 30
0.0
 11
49.799600183188481
 21
21.999999999999972
 31
0.0
  0
LINE
  5
14C0
  8
241
  6
CONTINUOUS
 10
20.451983893537491
 20
27.945331536841231
 30
0.0
 11
39.74628185599267
 21
16.805763414393049
 31
0.0
  0
LINE
  5
14C2
  8
241
  6
CONTINUOUS
 10
28.40512235707132
 20
21.213142115504951
 30
0.0
 11
37.44891514300884
 21
15.99170591604874
 31
0.0
  0
LINE
  5
14C5
  8
241
  6
CONTINUOUS
 10
20.451983893537491
 20
27.94533153684128
 30
0.0
 11
39.74628185599267
 21
16.805763414392999
 31
0.0
  0
LINE
  5
14C9
  8
240
 10
49.322111449796523
 20
-20.94257254185592
 30
0.0
 11
28.160278164752469
 21
-33.910560657416369
 31
0.0
  0
LINE
  5
14CC
  8
245
  6
CENTER2
 10
51.690105056641357
 20
0.0000000000000284
 30
0.0
 11
-82.99999999999892
 21
-0.0000000000000284
 31
0.0
1001
GRPNAME
1000
PASTMD0D
  0
LINE
  5
14CD
  8
241
 10
11.999613767229389
 20
-34.499999135732622
 30
0.0
 11
11.999613767229389
 21
0.0000000000000284
 31
0.0
  0
LINE
  5
14CE
  8
241
  6
CONTINUOUS
 10
26.263382707358179
 20
-17.509155434893529
 30
0.0
 11
26.263382707358179
 21
22.44967607880093
 31
0.0
  0
LINE
  5
14CF
  8
241
  6
CONTINUOUS
 10
28.382112402839251
 20
-17.20553583893777
 30
0.0
 11
28.382112402839251
 21
21.22642691877482
 31
0.0
  0
LINE
  5
14D0
  8
241
 10
11.999613767229389
 20
34.500000000000092
 30
0.0
 11
11.999613767229389
 21
-34.500000000000092
 31
0.0
  0
LINE
  5
14D1
  8
241
 10
9.9996134394038432
 20
24.999999359250101
 30
0.0
 11
9.9996134394037313
 21
-25.49999999999994
 31
0.0
  0
LINE
  5
14D4
  8
240
 10
9.9996134394038432
 20
-32.499998807907083
 30
0.0
 11
9.9996134394036176
 21
-24.999999999999829
 31
0.0
  0
LINE
  5
14D5
  8
241
  6
CONTINUOUS
 10
16.799612885080641
 20
-34.50000000000005
 30
0.0
 11
16.799612885080649
 21
-21.349155434893529
 31
0.0
  0
LINE
  5
14D6
  8
240
  6
CONTINUOUS
 10
11.999613767229389
 20
-34.500000000000092
 30
0.0
 11
26.070283905888751
 21
-34.499999999999972
 31
0.0
  0
ARC
  5
14D9
  8
240
 10
11.99961288508046
 20
-32.499999999999972
 30
0.0
 40
2.0
 50
180.0
 51
270.0
  0
ARC
  5
14DB
  8
240
 10
26.070283905888751
 20
-30.499999999999972
 30
0.0
 40
4.0
 50
270.0
 51
301.49999999999488
  0
ARC
  5
14DE
  8
241
  6
CONTINUOUS
 10
26.302011676106929
 20
-10.15936330936054
 30
0.0
 40
7.3498936377183899
 50
269.69886815035937
 51
286.5288100293435
  0
LINE
  5
14DF
  8
241
  6
CONTINUOUS
 10
26.263382707358179
 20
-17.509155434893529
 30
0.0
 11
20.639612885080648
 21
-17.509155434893529
 31
0.0
  0
LINE
  5
14E0
  8
241
  6
CONTINUOUS
 10
49.799612885080641
 20
-10.51785389199649
 30
0.0
 11
28.382112402839251
 21
-17.20553583893777
 31
0.0
  0
LINE
  5
14E4
  8
240
 10
9.9996134394038432
 20
24.999999359250069
 30
0.0
 11
9.9996134394038432
 21
32.500000000000021
 31
0.0
  0
ARC
  5
14E5
  8
241
  6
CONTINUOUS
 10
21.799612885080649
 20
30.800337479189551
 30
0.0
 40
5.0
 50
180.0
 51
239.99999999999949
  0
LINE
  5
14E6
  8
241
 10
11.999613767229389
 20
0.0000000000000284
 30
0.0
 11
11.999613767229389
 21
34.499999135732679
 31
0.0
  0
LINE
  5
14F3
  8
241
  6
CONTINUOUS
 10
19.299612885080759
 20
26.470210460267339
 30
0.0
 11
26.315128098207602
 21
22.419800863464761
 31
0.0
  0
LINE
  5
14F8
  8
241
  6
CONTINUOUS
 10
26.263382707358179
 20
22.44967607880093
 30
0.0
 11
28.382112402839251
 21
21.22642691877482
 31
0.0
  0
LINE
  5
14F9
  8
241
  6
CONTINUOUS
 10
26.315128098207602
 20
22.419800863464761
 30
0.0
 11
28.40512235707132
 21
21.213142115504951
 31
0.0
  0
LINE
  5
14FF
  8
241
  6
CONTINUOUS
 10
16.799612885080649
 20
30.800337479189551
 30
0.0
 11
16.799612885080649
 21
34.500000000000057
 31
0.0
  0
LINE
  5
1507
  8
241
  6
CONTINUOUS
 10
30.136248887545101
 20
33.155678264617158
 30
0.0
 11
20.482936502901008
 21
28.654264773095189
 31
0.0
  0
LINE
  5
150B
  8
240
 10
29.713683365947119
 20
32.958632725823747
 30
0.0
 11
28.160278164752398
 21
33.910560657416468
 31
0.0
  0
ARC
  5
151C
  8
240
 10
48.799612885080649
 20
-20.089932377501871
 30
0.0
 40
1.0
 50
301.49999999999488
 51
0.0
  0
LINE
  5
151D
  8
240
  6
CONTINUOUS
 10
49.799612885080641
 20
-20.089932377501871
 30
0.0
 11
49.799612885080627
 21
20.223184095848438
 31
0.0
  0
LINE
  5
152C
  8
241
  6
CONTINUOUS
 10
41.243010368521418
 20
15.49220380352565
 30
0.0
 11
49.799612885080641
 21
17.78493853779176
 31
0.0
  0
LINE
  5
1530
  8
241
  6
CONTINUOUS
 10
40.115329806922688
 20
16.789650762435929
 30
0.0
 11
49.768655950421447
 21
21.291070669817209
 31
0.0
  0
LINE
  5
1534
  8
241
  6
CONTINUOUS
 10
39.746282512515982
 20
16.8057637097961
 30
0.0
 11
38.46708922327872
 21
17.544306249021101
 31
0.0
1001
GRPNAME
1000
00000002
  0
ARC
  5
153E
  8
241
  6
CONTINUOUS
 10
39.948915143008833
 20
20.32183293497096
 30
0.0
 40
5.0
 50
239.99999999999949
 51
285.00000000000119
  0
ARC
  5
1547
  8
240
  6
CONTINUOUS
 10
48.793023100539642
 20
20.232423596306688
 30
0.0
 40
1.006632188394055
 50
359.47409607993637
 51
57.924607461278647
  0
LINE
  5
1548
  8
241
  6
CONTINUOUS
 10
-77.999999999999034
 20
-15.96343304400224
 30
0.0
 11
-77.999999999999034
 21
15.98171652200117
 31
0.0
1001
GRPNAME
1000
PASTMD0D
  0
LINE
  5
1549
  8
240
  6
CONTINUOUS
 10
-79.999999999999091
 20
-14.26794919243107
 30
0.0
 11
-79.999999999999091
 21
14.556624327025951
 31
0.0
1001
GRPNAME
1000
PASTMD0D
  0
LINE
  5
154A
  8
240
  6
CONTINUOUS
 10
-79.499999999999091
 20
-15.13397459621555
 30
0.0
 11
-78.232050807567916
 21
-15.86602540378439
 31
0.0
1001
GRPNAME
1000
PASTMD0D
  0
ARC
  5
154B
  8
240
  6
CONTINUOUS
 10
-77.73205080756793
 20
-14.99999999999997
 30
0.0
 40
0.9999999999999902
 50
239.99999995886191
 51
269.9999999588623
1001
GRPNAME
1000
PASTMD02
  0
ARC
  5
154C
  8
240
  6
CONTINUOUS
 10
-78.999999999999091
 20
-14.26794919243107
 30
0.0
 40
1.0
 50
179.99999999485411
 51
239.99999999485749
1001
GRPNAME
1000
PASTMD02
  0
ARC
  5
154E
  8
240
  6
CONTINUOUS
 10
-79.499999999999091
 20
14.556624327025951
 30
0.0
 40
0.5000000000000165
 50
119.99999999999829
 51
180.0
  0
LINE
  5
154F
  8
240
  6
CONTINUOUS
 10
-79.749999999999091
 20
14.989637028918169
 30
0.0
 11
-78.116025403783482
 21
15.93301270189224
 31
0.0
  0
ARC
  5
1550
  8
240
  6
CONTINUOUS
 10
-77.866025403783482
 20
15.50000000000003
 30
0.0
 40
0.5
 50
90.0
 51
119.9999999999997
  0
LINE
  5
1551
  8
240
  6
CONTINUOUS
 10
-77.73205080756793
 20
-15.99999999999997
 30
0.0
 11
0.0000000000009237
 21
-15.99999999999997
 31
0.0
1001
GRPNAME
1000
PASTMD0D
  0
LINE
  5
1552
  8
240
  6
CONTINUOUS
 10
-77.866025403783482
 20
16.000000000000028
 30
0.0
 11
0.0000000000009237
 21
16.000000000000028
 31
0.0
1001
GRPNAME
1000
PASTMD0D
  0
LINE
  5
1553
  8
240
  6
CONTINUOUS
 10
0.0000000000008527
 20
23.999999359250101
 30
0.0
 11
0.0000000000009284
 21
16.000000000000028
 31
0.0
1001
GRPNAME
1000
PASTMD0D
  0
ARC
  5
1558
  8
240
 10
0.5000000000008527
 20
23.999999359250101
 30
0.0
 40
0.5
 50
90.0
 51
180.0
1001
GRPNAME
1000
PASTMD0D
  0
LINE
  5
1559
  8
240
 10
9.4996134394038432
 20
24.499999359250069
 30
0.0
 11
0.5000000000008527
 21
24.499999359250101
 31
0.0
  0
LINE
  5
155B
  8
241
  6
CONTINUOUS
 10
0.0000000000009269
 20
-15.99999999999997
 30
0.0
 11
-0.0000000000009269
 21
16.000000000000028
 31
0.0
1001
GRPNAME
1000
PASTMD0D
  0
LINE
  5
155E
  8
240
  6
CONTINUOUS
 10
0.0000000000009095
 20
-23.999999999999972
 30
0.0
 11
0.0000000000009095
 21
-15.99999999999997
 31
0.0
1001
GRPNAME
1000
PASTMD0D
  0
ARC
  5
155F
  8
240
 10
0.5026118002760427
 20
-23.99999935925004
 30
0.0
 40
0.5
 50
180.0
 51
270.0
  0
ARC
  5
1560
  8
240
 10
9.4996134394038432
 20
24.999999359250069
 30
0.0
 40
0.5
 50
270.0
 51
0.0
  0
LINE
  5
1561
  8
240
 10
0.5026118002760427
 20
-24.499999999999769
 30
0.0
 11
9.4996134394036176
 21
-24.499999999999861
 31
0.0
  0
ARC
  5
1562
  8
240
 10
9.4996134394036176
 20
-24.999999999999861
 30
0.0
 40
0.5
 50
0.0000000000016284
 51
90.0
  0
ARC
  5
158D
  8
241
  6
CONTINUOUS
 10
20.639612885080648
 20
-21.349155434893529
 30
0.0
 40
3.839999999999999
 50
90.0
 51
180.0
1001
GENIUS_GENODEF_13
1002
{
1000
HIER
1070
     0
1002
}
1002
{
1000
MANEDIT
1070
     0
1002
}
1002
{
1000
NOSEL
1070
     0
1002
}
1002
{
1000
BEHIND
1070
     0
1002
}
1002
{
1000
OTHER
1070
     0
1002
}
1002
{
1000
REACTOR
1002
}
1001
GENIUS_GENOBJ-N-FIL_13
1002
{
1000
OWNER
1000
GEN
1002
}
  0
ARC
  5
1592
  8
241
  6
CONTINUOUS
 10
20.651983807597318
 20
28.291741658280468
 30
0.0
 40
0.4
 50
115.0000000000001
 51
240.000001701874
1001
GRPNAME
1000
00000002
1001
GENIUS_GENODEF_13
1002
{
1000
HIER
1070
     0
1002
}
1002
{
1000
MANEDIT
1070
     0
1002
}
1002
{
1000
NOSEL
1070
     0
1002
}
1002
{
1000
BEHIND
1070
     0
1002
}
1002
{
1000
OTHER
1070
     0
1002
}
1002
{
1000
REACTOR
1002
}
1001
GENIUS_GENOBJ-N-FIL_13
1002
{
1000
OWNER
1000
GEN
1002
}
  0
ARC
  5
1593
  8
241
  6
CONTINUOUS
 10
39.946282502226452
 20
17.15217387725054
 30
0.0
 40
0.4
 50
240.000001701874
 51
295.00000000000023
1001
GENIUS_GENODEF_13
1002
{
1000
HIER
1070
     0
1002
}
1002
{
1000
MANEDIT
1070
     0
1002
}
1002
{
1000
NOSEL
1070
     0
1002
}
1002
{
1000
BEHIND
1070
     0
1002
}
1002
{
1000
OTHER
1070
     0
1002
}
1002
{
1000
REACTOR
1002
}
1001
GENIUS_GENOBJ-N-FIL_13
1002
{
1000
OWNER
1000
GEN
1002
}
  0
ARC
  5
1594
  8
241
  6
CONTINUOUS
 10
49.599608645725169
 20
21.65359378463188
 30
0.0
 40
0.4
 50
295.00000000000023
 51
60.000033683105777
1001
GRPNAME
1000
00000002
1001
GENIUS_GENOBJ-N-FIL_13
1002
{
1000
OWNER
1000
GEN
1002
}
1001
GENIUS_GENODEF_13
1002
{
1000
HIER
1070
     0
1002
}
1002
{
1000
MANEDIT
1070
     0
1002
}
1002
{
1000
NOSEL
1070
     0
1002
}
1002
{
1000
BEHIND
1070
     0
1002
}
1002
{
1000
OTHER
1070
     0
1002
}
1002
{
1000
REACTOR
1002
}
  0
ARC
  5
1595
  8
241
  6
CONTINUOUS
 10
30.305296192241361
 20
32.793155149802523
 30
0.0
 40
0.4
 50
60.000033683105762
 51
115.0000000000001
1001
GENIUS_GENOBJ-N-FIL_13
1002
{
1000
OWNER
1000
GEN
1002
}
1001
GENIUS_GENODEF_13
1002
{
1000
HIER
1070
     0
1002
}
1002
{
1000
MANEDIT
1070
     0
1002
}
1002
{
1000
NOSEL
1070
     0
1002
}
1002
{
1000
BEHIND
1070
     0
1002
}
1002
{
1000
OTHER
1070
     0
1002
}
1002
{
1000
REACTOR
1002
}
  0
LINE
  5
15CB
  8
240
 10
26.070283905888729
 20
34.500000000000021
 30
0.0
 11
11.99961343940384
 21
34.500000000000007
 31
0.0
1001
GRPNAME
1000
PASTMD0D
  0
ARC
  5
1600
  8
240
 10
11.99961343940384
 20
32.500000000000021
 30
0.0
 40
2.0
 50
90.000000000000028
 51
180.0
1001
GENIUS_GENODEF_13
1002
{
1000
HIER
1070
     0
1002
}
1002
{
1000
MANEDIT
1070
     0
1002
}
1002
{
1000
NOSEL
1070
     0
1002
}
1002
{
1000
BEHIND
1070
     0
1002
}
1002
{
1000
OTHER
1070
     0
1002
}
1002
{
1000
REACTOR
1002
}
1001
GENIUS_GENOBJ-N-FIL_13
1002
{
1000
OWNER
1000
GEN
1002
}
  0
ARC
  5
1601
  8
240
 10
26.070283905888729
 20
30.500000000000021
 30
0.0
 40
4.0
 50
58.500000000002089
 51
90.0
1001
GRPNAME
1000
PASTMD0D
1001
GENIUS_GENODEF_13
1002
{
1000
HIER
1070
     0
1002
}
1002
{
1000
MANEDIT
1070
     0
1002
}
1002
{
1000
NOSEL
1070
     0
1002
}
1002
{
1000
BEHIND
1070
     0
1002
}
1002
{
1000
OTHER
1070
     0
1002
}
1002
{
1000
REACTOR
1002
}
1001
GENIUS_GENOBJ-N-FIL_13
1002
{
1000
OWNER
1000
GEN
1002
}
  0
TEXT
  5
17CA
  8
241
  6
CONTINUOUS
 10
-77.0
 20
63.0
 30
0.0
 40
5.0
  1
ST32-C4565C-60
  0
LINE
  5
17CC
  8
250
 10
-79.999999999999105
 20
15.056624327025959
 30
0.0
 11
-79.999999999999105
 21
50.0
 31
0.0
  0
LINE
  5
17CD
  8
250
 10
0.0000000000008527
 20
24.49999935925009
 30
0.0
 11
0.0000000000008542
 21
50.0
 31
0.0
  0
LINE
  5
17CE
  8
250
 10
-77.769999999999101
 20
49.0
 30
0.0
 11
-2.2299999999991451
 21
49.0
 31
0.0
  0
LINE
  5
17D2
  8
250
 10
-78.366025403783482
 20
16.000000000000028
 30
0.0
 11
-96.000000999998917
 21
16.000000000000028
 31
0.0
  0
LINE
  5
17D3
  8
250
 10
-78.232050807567916
 20
-15.999999999999959
 30
0.0
 11
-96.000000999998917
 21
-15.99999999999995
 31
0.0
  0
LINE
  5
17D4
  8
250
 10
-95.000000999998917
 20
13.77000000000003
 30
0.0
 11
-95.000000999998917
 21
-13.76999999999995
 31
0.0
  0
LINE
  5
17D8
  8
250
 10
49.999608645725168
 20
22.15359378463188
 30
0.0
 11
49.999608645725168
 21
50.0
 31
0.0
  0
LINE
  5
17D9
  8
250
 10
0.0000000000008527
 20
24.49999935925009
 30
0.0
 11
0.0000000000008542
 21
50.0
 31
0.0
  0
LINE
  5
17DA
  8
250
 10
47.769608645725171
 20
49.0
 30
0.0
 11
2.2300000000008531
 21
49.0
 31
0.0
  0
INSERT
  5
17DD
  8
245
  2
*U4
 10
0.0
 20
0.0
 30
0.0
  0
LINE
  5
17DE
  8
250
 10
26.570283905888729
 20
34.500000000000021
 30
0.0
 11
85.000000000000014
 21
34.5
 31
0.0
  0
LINE
  5
17DF
  8
250
 10
26.57028390588874
 20
-34.499999999999972
 30
0.0
 11
84.999999999999986
 21
-34.499999999999993
 31
0.0
  0
LINE
  5
17E0
  8
250
 10
84.000000000000014
 20
32.27000000000001
 30
0.0
 11
83.999999999999986
 21
-32.269999999999989
 31
0.0
  0
LINE
  5
17E4
  8
250
 10
32.113066703714992
 20
32.500000000000021
 30
0.0
 11
78.000000000000014
 21
32.500000000000021
 31
0.0
  0
LINE
  5
17E5
  8
250
 10
77.0
 20
30.27000000000001
 30
0.0
 11
77.0
 21
-4.5333333333333208
 31
0.0
  0
LINE
  5
17E8
  8
250
 10
49.433574779403948
 20
22.500000000000028
 30
0.0
 11
71.0
 21
22.500000000000028
 31
0.0
  0
LINE
  5
17E9
  8
250
 10
70.0
 20
20.270000000000021
 30
0.0
 11
70.0
 21
-4.5333333333333083
 31
0.0
  0
LINE
  5
17EC
  8
250
 10
83.628333333333345
 20
32.27000000000001
 30
0.0
 11
84.000000000000014
 21
34.500000000000007
 31
0.0
  0
LINE
  5
17ED
  8
250
 10
84.371666666666684
 20
32.27000000000001
 30
0.0
 11
84.000000000000014
 21
34.500000000000007
 31
0.0
  0
LINE
  5
17EE
  8
250
 10
84.000000000000014
 20
34.500000000000007
 30
0.0
 11
84.000000000000014
 21
32.27000000000001
 31
0.0
  0
LINE
  5
17EF
  8
250
 10
84.371666666666655
 20
-32.269999999999989
 30
0.0
 11
83.999999999999986
 21
-34.499999999999993
 31
0.0
  0
LINE
  5
17F0
  8
250
 10
83.628333333333316
 20
-32.269999999999989
 30
0.0
 11
83.999999999999986
 21
-34.499999999999993
 31
0.0
  0
LINE
  5
17F1
  8
250
 10
83.999999999999986
 20
-34.499999999999993
 30
0.0
 11
83.999999999999986
 21
-32.269999999999989
 31
0.0
  0
TEXT
  5
17F2
  8
250
 10
82.999999999999986
 20
-3.8666666666666449
 30
0.0
 40
2.7999999999999989
  1
\U+220569
 50
90.0
  0
LINE
  5
17F3
  8
250
 10
69.62833333333333
 20
20.270000000000021
 30
0.0
 11
70.0
 21
22.500000000000028
 31
0.0
  0
LINE
  5
17F4
  8
250
 10
70.37166666666667
 20
20.270000000000021
 30
0.0
 11
70.0
 21
22.500000000000028
 31
0.0
  0
LINE
  5
17F5
  8
250
 10
70.0
 20
22.500000000000028
 30
0.0
 11
70.0
 21
20.270000000000021
 31
0.0
  0
TEXT
  5
17F6
  8
250
 10
68.999999999999986
 20
-3.9333333333332958
 30
0.0
 40
2.7999999999999989
  1
\U+220545
 50
90.0
  0
LINE
  5
17F7
  8
250
 10
76.628333333333345
 20
30.27000000000001
 30
0.0
 11
77.000000000000014
 21
32.500000000000021
 31
0.0
  0
LINE
  5
17F8
  8
250
 10
77.371666666666684
 20
30.27000000000001
 30
0.0
 11
77.000000000000014
 21
32.500000000000021
 31
0.0
  0
LINE
  5
17F9
  8
250
 10
77.000000000000014
 20
32.500000000000021
 30
0.0
 11
77.000000000000014
 21
30.27000000000001
 31
0.0
  0
TEXT
  5
17FA
  8
250
 10
75.999999999999986
 20
-3.9333333333333078
 30
0.0
 40
2.7999999999999989
  1
\U+220565
 50
90.0
  0
LINE
  5
17FB
  8
250
 10
-95.371667666665573
 20
13.77000000000003
 30
0.0
 11
-95.000000999998917
 21
16.000000000000028
 31
0.0
  0
LINE
  5
17FC
  8
250
 10
-94.628334333332248
 20
13.77000000000003
 30
0.0
 11
-95.000000999998917
 21
16.000000000000028
 31
0.0
  0
LINE
  5
17FD
  8
250
 10
-95.000000999998917
 20
16.000000000000028
 30
0.0
 11
-95.000000999998917
 21
13.77000000000003
 31
0.0
  0
LINE
  5
17FE
  8
250
 10
-94.628334333332248
 20
-13.76999999999995
 30
0.0
 11
-95.000000999998917
 21
-15.99999999999995
 31
0.0
  0
LINE
  5
17FF
  8
250
 10
-95.371667666665573
 20
-13.76999999999995
 30
0.0
 11
-95.000000999998917
 21
-15.99999999999995
 31
0.0
  0
LINE
  5
1800
  8
250
 10
-95.000000999998917
 20
-15.99999999999995
 30
0.0
 11
-95.000000999998917
 21
-13.76999999999995
 31
0.0
  0
TEXT
  5
1801
  8
250
 10
-96.000000999998946
 20
-3.9333333333333091
 30
0.0
 40
2.7999999999999989
  1
\U+220532
 50
90.0
  0
LINE
  5
1802
  8
250
 10
-77.769999999999101
 20
48.62833333333333
 30
0.0
 11
-79.999999999999105
 21
49.0
 31
0.0
  0
LINE
  5
1803
  8
250
 10
-77.769999999999101
 20
49.37166666666667
 30
0.0
 11
-79.999999999999105
 21
49.0
 31
0.0
  0
LINE
  5
1804
  8
250
 10
-79.999999999999105
 20
49.0
 30
0.0
 11
-77.769999999999101
 21
49.0
 31
0.0
  0
LINE
  5
1805
  8
250
 10
-2.2299999999991451
 20
49.37166666666667
 30
0.0
 11
0.0000000000008542
 21
49.0
 31
0.0
  0
LINE
  5
1806
  8
250
 10
-2.2299999999991451
 20
48.62833333333333
 30
0.0
 11
0.0000000000008542
 21
49.0
 31
0.0
  0
LINE
  5
1807
  8
250
 10
0.0000000000008542
 20
49.0
 30
0.0
 11
-2.2299999999991451
 21
49.0
 31
0.0
  0
TEXT
  5
1808
  8
250
 10
-42.66666666666579
 20
50.0
 30
0.0
 40
2.7999999999999989
  1
80
  0
LINE
  5
1809
  8
250
 10
47.769608645725171
 20
49.37166666666667
 30
0.0
 11
49.999608645725168
 21
49.0
 31
0.0
  0
LINE
  5
180A
  8
250
 10
47.769608645725171
 20
48.62833333333333
 30
0.0
 11
49.999608645725168
 21
49.0
 31
0.0
  0
LINE
  5
180B
  8
250
 10
49.999608645725168
 20
49.0
 30
0.0
 11
47.769608645725171
 21
49.0
 31
0.0
  0
LINE
  5
180C
  8
250
 10
2.2300000000008531
 20
48.62833333333333
 30
0.0
 11
0.0000000000008542
 21
49.0
 31
0.0
  0
LINE
  5
180D
  8
250
 10
2.2300000000008531
 20
49.37166666666667
 30
0.0
 11
0.0000000000008542
 21
49.0
 31
0.0
  0
LINE
  5
180E
  8
250
 10
0.0000000000008542
 20
49.0
 30
0.0
 11
2.2300000000008531
 21
49.0
 31
0.0
  0
VIEWPORT
  5
22
 67
     1
  8
0
 10
261.51769911504419
 20
148.5
 30
0.0
 40
523.0353982300885
 41
297.0
 68
     1
 69
     1
1001
ACAD
1000
MVIEW
1002
{
1070
    16
1010
0.0
1020
0.0
1030
0.0
1010
0.0
1020
0.0
1030
1.0
1040
0.0
1040
297.0
1040
261.51769911504419
1040
148.5
1040
50.0
1040
0.0
1040
0.0
1070
     0
1070
   100
1070
     1
1070
     1
1070
     0
1070
     0
1070
     0
1070
     0
1040
0.0
1040
0.0
1040
0.0
1040
1.0
1040
1.0
1040
10.0
1040
10.0
1070
     0
1002
{
1002
}
1002
}
1001
GENIUS_GENODEF_13
1002
{
1000
HIER
1070
     0
1002
}
1002
{
1000
MANEDIT
1070
     0
1002
}
1002
{
1000
NOSEL
1070
     0
1002
}
1002
{
1000
BEHIND
1070
     0
1002
}
1002
{
1000
OTHER
1070
     0
1002
}
1002
{
1000
REACTOR
1002
}
1001
GENIUS_GENOBJ-N-SDF_13
1002
{
1000
OWNER
1000
GEN
1002
}
1001
GENIUS_GENSCREG_15
1000
PF
1040
1.0
1000
DF
1040
1.0
1000
MIN
1011
0.0
1021
0.0
1031
0.0
1021
0.0
1031
0.0
1000
MAX
1011
523.0353982300885
1021
0.0
1031
0.0
1021
297.0
1031
0.0
1000
FLAGS
1070
     4
  0
ENDSEC
  0
EOF
