  0
SECTION
  2
HEADER
  9
$ACADVER
  1
AC1009
  9
$INSBASE
 10
0.0
 20
0.0
 30
0.0
  9
$EXTMIN
 10
-146.9999999999998
 20
-29.499999999999989
 30
0.0
  9
$EXTMAX
 10
18.999992934869049
 20
60.000000000000043
 30
0.0
  9
$LIMMIN
 10
0.0
 20
0.0
  9
$LIMMAX
 10
297.0
 20
210.0
  9
$ORTHOMODE
 70
     1
  9
$REGENMODE
 70
     1
  9
$FILLMODE
 70
     1
  9
$QTEXTMODE
 70
     0
  9
$MIRRTEXT
 70
     1
  9
$DRAGMODE
 70
     2
  9
$LTSCALE
 40
10.0
  9
$OSMODE
 70
  3071
  9
$ATTMODE
 70
     1
  9
$TEXTSIZE
 40
3.0
  9
$TRACEWID
 40
1.0
  9
$TEXTSTYLE
  7
YOKO
  9
$CLAYER
  8
240
  9
$CELTYPE
  6
BYLAYER
  9
$CECOLOR
 62
   256
  9
$DIMSCALE
 40
1.0
  9
$DIMASZ
 40
2.2299999999999991
  9
$DIMEXO
 40
0.5
  9
$DIMDLI
 40
2.5
  9
$DIMRND
 40
0.0
  9
$DIMDLE
 40
0.0
  9
$DIMEXE
 40
1.0
  9
$DIMTP
 40
0.0
  9
$DIMTM
 40
0.0
  9
$DIMTXT
 40
3.0
  9
$DIMCEN
 40
0.0
  9
$DIMTSZ
 40
0.0
  9
$DIMTOL
 70
     0
  9
$DIMLIM
 70
     0
  9
$DIMTIH
 70
     0
  9
$DIMTOH
 70
     0
  9
$DIMSE1
 70
     0
  9
$DIMSE2
 70
     0
  9
$DIMTAD
 70
     3
  9
$DIMZIN
 70
     8
  9
$DIMBLK
  1
OPEN
  9
$DIMASO
 70
     1
  9
$DIMSHO
 70
     1
  9
$DIMPOST
  1

  9
$DIMAPOST
  1

  9
$DIMALT
 70
     0
  9
$DIMALTD
 70
     2
  9
$DIMALTF
 40
25.399999999999999
  9
$DIMLFAC
 40
1.0
  9
$DIMTOFL
 70
     1
  9
$DIMTVP
 40
0.0
  9
$DIMTIX
 70
     0
  9
$DIMSOXD
 70
     0
  9
$DIMSAH
 70
     0
  9
$DIMBLK1
  1

  9
$DIMBLK2
  1

  9
$DIMSTYLE
  2
BIGT
  9
$DIMCLRD
 70
   256
  9
$DIMCLRE
 70
   256
  9
$DIMCLRT
 70
    40
  9
$DIMTFAC
 40
1.0
  9
$DIMGAP
 40
1.0
  9
$LUNITS
 70
     2
  9
$LUPREC
 70
     2
  9
$SKETCHINC
 40
1.0
  9
$FILLETRAD
 40
0.0
  9
$AUNITS
 70
     0
  9
$AUPREC
 70
     3
  9
$MENU
  1
.
  9
$ELEVATION
 40
0.0
  9
$PELEVATION
 40
0.0
  9
$THICKNESS
 40
0.0
  9
$LIMCHECK
 70
     0
  9
$BLIPMODE
 70
     0
  9
$CHAMFERA
 40
10.0
  9
$CHAMFERB
 40
10.0
  9
$SKPOLY
 70
     0
  9
$TDCREATE
 40
2452291.6051627551
  9
$TDUPDATE
 40
2455812.56821022
  9
$TDINDWG
 40
0.0112482523
  9
$TDUSRTIMER
 40
0.0112477199
  9
$USRTIMER
 70
     1
  9
$ANGBASE
 50
0.0
  9
$ANGDIR
 70
     0
  9
$PDMODE
 70
    35
  9
$PDSIZE
 40
2.0
  9
$PLINEWID
 40
0.0
  9
$COORDS
 70
     1
  9
$SPLFRAME
 70
     0
  9
$SPLINETYPE
 70
     6
  9
$SPLINESEGS
 70
     8
  9
$ATTDIA
 70
     1
  9
$ATTREQ
 70
     1
  9
$HANDLING
 70
     1
  9
$HANDSEED
  5
115C
  9
$SURFTAB1
 70
     6
  9
$SURFTAB2
 70
     6
  9
$SURFTYPE
 70
     6
  9
$SURFU
 70
     6
  9
$SURFV
 70
     6
  9
$UCSNAME
  2

  9
$UCSORG
 10
0.0
 20
0.0
 30
0.0
  9
$UCSXDIR
 10
1.0
 20
0.0
 30
0.0
  9
$UCSYDIR
 10
0.0
 20
1.0
 30
0.0
  9
$PUCSNAME
  2

  9
$PUCSORG
 10
0.0
 20
0.0
 30
0.0
  9
$PUCSXDIR
 10
1.0
 20
0.0
 30
0.0
  9
$PUCSYDIR
 10
0.0
 20
1.0
 30
0.0
  9
$USERI1
 70
     1
  9
$USERI2
 70
     0
  9
$USERI3
 70
     0
  9
$USERI4
 70
     0
  9
$USERI5
 70
     0
  9
$USERR1
 40
0.0
  9
$USERR2
 40
0.0
  9
$USERR3
 40
0.0
  9
$USERR4
 40
0.0
  9
$USERR5
 40
0.0
  9
$WORLDVIEW
 70
     1
  9
$SHADEDGE
 70
     3
  9
$SHADEDIF
 70
    70
  9
$TILEMODE
 70
     1
  9
$MAXACTVP
 70
    16
  9
$PLIMCHECK
 70
     0
  9
$PEXTMIN
 10
1.0000000000000000E+020
 20
1.0000000000000000E+020
 30
1.0000000000000000E+020
  9
$PEXTMAX
 10
-1.0000000000000000E+020
 20
-1.0000000000000000E+020
 30
-1.0000000000000000E+020
  9
$PLIMMIN
 10
0.0
 20
0.0
  9
$PLIMMAX
 10
420.0
 20
297.0
  9
$UNITMODE
 70
     0
  9
$VISRETAIN
 70
     0
  9
$PLINEGEN
 70
     0
  9
$PSLTSCALE
 70
     1
  0
ENDSEC
  0
SECTION
  2
TABLES
  0
TABLE
  2
VPORT
 70
     1
  0
VPORT
  2
*ACTIVE
 70
     0
 10
0.0
 20
0.0
 11
1.0
 21
1.0
 12
-63.999995161024287
 22
15.252552022214781
 13
0.0
 23
0.0
 14
7.0
 24
7.0
 15
7.0
 25
7.0
 16
0.0
 26
0.0
 36
1.0
 17
0.0
 27
0.0
 37
0.0
 40
90.261961825583626
 41
1.8471023427866819
 42
50.0
 43
0.0
 44
0.0
 50
0.0
 51
0.0
 71
     0
 72
  2000
 73
     1
 74
     0
 75
     0
 76
     0
 77
     0
 78
     0
  0
ENDTAB
  0
TABLE
  2
LTYPE
 70
    16
  0
LTYPE
  2
CONTINUOUS
 70
     0
  3
Solid line
 72
    65
 73
     0
 40
0.0
  0
LTYPE
  2
CENTER2
 70
     0
  3
___ _ ___ _ ___ _ ___ _ ___ _ ___ _ ___ _ ___ _
 72
    65
 73
     4
 40
1.125
 49
0.75
 49
-0.125
 49
0.125
 49
-0.125
  0
LTYPE
  2
AMCONSTR
 70
     0
  3
_______________________
 72
    65
 73
     2
 40
9999.0
 49
9999.0
 49
0.0
  0
LTYPE
  2
CENTER
 70
     0
  3
__ . __
 72
    65
 73
     4
 40
7.0
 49
4.0
 49
-1.0
 49
1.0
 49
-1.0
  0
LTYPE
  2
HIDDEN
 70
     0
  3
Hidden __ __ __ __ __ __ __ __ __ __ __ __ __ _
 72
    65
 73
     2
 40
9.5249999999999986
 49
6.3499999999999979
 49
-3.174999999999998
  0
LTYPE
  2
PHANTOM2
 70
     0
  3
Phantom (.5x) ___ _ _ ___ _ _ ___ _ _ ___ _ _
 72
    65
 73
     6
 40
31.75
 49
15.875
 49
-3.174999999999998
 49
3.174999999999998
 49
-3.174999999999998
 49
3.174999999999998
 49
-3.174999999999998
  0
LTYPE
  2
HIDDEN2
 70
     0
  3
Hidden (.5x) _ _ _ _ _ _ _ _ _ _ _ _ _ _ _ _ _
 72
    65
 73
     2
 40
0.1875
 49
0.125
 49
-0.0625
  0
LTYPE
  2
AMZIGZAG2
 70
     0
  3
/\/-/\/-/\/-/\/-/\/-/\/
 72
    65
 73
     2
 40
0.4401
 49
0.0001
 49
-0.4400000000000001
  0
LTYPE
  2
ACANSTGB
 70
     0
  3
__ . . __ . .
 72
    65
 73
     6
 40
0.35433070866
 49
0.15748031496
 49
-0.03937007874
 49
0.03937007874
 49
-0.03937007874
 49
0.03937007874
 49
-0.03937007874
  0
LTYPE
  2
ACANSTGL
 70
     0
  3
_ _ _ _ _
 72
    65
 73
     2
 40
0.11811023622
 49
0.07874015748
 49
-0.03937007874
  0
ENDTAB
  0
TABLE
  2
LAYER
 70
     7
  0
LAYER
  2
0
 70
     0
 62
     7
  6
CONTINUOUS
  0
LAYER
  2
240
 70
     0
 62
     4
  6
CONTINUOUS
  0
LAYER
  2
2
 70
     0
 62
     7
  6
CONTINUOUS
  0
LAYER
  2
241
 70
     0
 62
   211
  6
CONTINUOUS
  0
LAYER
  2
245
 70
     0
 62
     2
  6
CENTER2
  0
LAYER
  2
250
 70
     0
 62
     3
  6
CONTINUOUS
  0
LAYER
  2
DEFPOINTS
 70
     0
 62
     7
  6
CONTINUOUS
  0
ENDTAB
  0
TABLE
  2
STYLE
 70
     5
  0
STYLE
  2
STANDARD
 70
     0
 40
0.0
 41
1.0
 50
0.0
 71
     0
 42
3.0
  3
romans.shx
  4
BIGFONT.SHX
  0
STYLE
  2
YOKO
 70
     0
 40
0.0
 41
1.0
 50
0.0
 71
     0
 42
3.0
  3
romans.shx
  4
extfont.shx
  0
STYLE
  2

 70
     1
 40
0.0
 41
1.0
 50
0.0
 71
     0
 42
3.0
  3
genltshp.shx
  4

  0
STYLE
  2
ACANSGDT
 70
     0
 40
0.0
 41
1.0
 50
0.0
 71
     0
 42
3.0
  3
amgdt.shx
  4

  0
ENDTAB
  0
TABLE
  2
VIEW
 70
     0
  0
ENDTAB
  0
TABLE
  2
UCS
 70
     0
  0
ENDTAB
  0
TABLE
  2
APPID
 70
    28
  0
APPID
  2
ACAD
 70
     0
  0
APPID
  2
ACADANNOTATIVE
 70
     0
  0
APPID
  2
GLOBAL
 70
     0
  0
APPID
  2
DETAIL
 70
     0
  0
APPID
  2
GRPNAME
 70
     0
  0
APPID
  2
GPARA
 70
     0
  0
APPID
  2
HATCH_TYPE
 70
     0
  0
APPID
  2
HATCH_DISPLAY
 70
     0
  0
APPID
  2
HATCH_DISTANCE
 70
     0
  0
APPID
  2
ITEMNAME
 70
     0
  0
APPID
  2
MCAD_NO_VIS
 70
     0
  0
APPID
  2
ACAD_TEMP_GRAPHIC
 70
     0
  0
APPID
  2
ACATTRIBSERVICES
 70
     0
  0
APPID
  2
GENIUS_GENSCREG_15
 70
     0
  0
APPID
  2
GENIUS_GENODEF_13
 70
     0
  0
APPID
  2
GENIUS_GENOBJ-N-SDF_13
 70
     0
  0
APPID
  2
AD_DRAW
 70
     0
  0
APPID
  2
DESIGNERASSEMBLIES
 70
     0
  0
APPID
  2
ACADM_DIM_EDIT
 70
     0
  0
APPID
  2
AMDT_DM_ADJ
 70
     0
  0
APPID
  2
ACAD_DSTYLE_DIMJAG
 70
     0
  0
APPID
  2
ACAD_DSTYLE_DIMBREAK
 70
     0
  0
APPID
  2
ACAD_EXEMPT_FROM_CAD_STANDARDS
 70
     0
  0
APPID
  2
ACAD_MLEADERVER
 70
     0
  0
APPID
  2
ACAD_DSTYLE_DIMARC_LENGTH_
 70
     0
  0
APPID
  2
ACAD_DSTYLE_DIM_LINETYPE
 70
     0
  0
APPID
  2
ACAD_DSTYLE_DIM_EXT1_LINETYPE
 70
     0
  0
APPID
  2
ACAD_DSTYLE_DIM_EXT2_LINETYPE
 70
     0
  0
ENDTAB
  0
TABLE
  2
DIMSTYLE
 70
     8
  0
DIMSTYLE
  2
STANDARD
 70
     0
  3

  4

  5

  6

  7

 40
1.0
 41
2.0
 42
2.0
 43
3.75
 44
2.0
 45
0.0
 46
0.0
 47
0.0
 48
0.0
140
4.0
141
0.09
142
0.0
143
25.399999999999999
144
1.0
145
0.0
146
1.0
147
1.0
 71
     0
 72
     0
 73
     1
 74
     1
 75
     0
 76
     0
 77
     0
 78
     8
170
     0
171
     2
172
     0
173
     1
174
     0
175
     0
176
   256
177
   256
178
   256
  0
DIMSTYLE
  2
BIGT
 70
     0
  3

  4

  5

  6

  7

 40
1.0
 41
2.2299999999999991
 42
0.5
 43
2.5
 44
1.0
 45
0.0
 46
0.0
 47
0.0
 48
0.0
140
3.5
141
0.0
142
0.0
143
25.399999999999999
144
1.0
145
0.0
146
1.0
147
1.0
 71
     0
 72
     0
 73
     0
 74
     0
 75
     0
 76
     0
 77
     3
 78
     9
170
     0
171
     2
172
     1
173
     0
174
     0
175
     0
176
   256
177
   256
178
    40
  0
DIMSTYLE
  2
AM_ANSI
 70
     0
  3

  4
mm
  5

  6

  7

 40
1.0
 41
0.12
 42
0.05
 43
0.5
 44
0.1
 45
0.0
 46
0.0
 47
0.1
 48
0.1
140
0.12
141
0.0
142
0.0
143
25.399999999999999
144
1.0
145
0.0
146
0.71
147
0.06
 71
     0
 72
     0
 73
     1
 74
     1
 75
     0
 76
     0
 77
     0
 78
     7
170
     0
171
     2
172
     0
173
     0
174
     0
175
     0
176
   256
177
   256
178
     2
  0
DIMSTYLE
  2
AM_ANSI$3
 70
     0
  3

  4
mm
  5

  6

  7

 40
1.0
 41
0.12
 42
0.05
 43
0.5
 44
0.1
 45
0.0
 46
0.0
 47
0.1
 48
0.1
140
0.12
141
0.0
142
0.0
143
25.399999999999999
144
1.0
145
0.0
146
0.71
147
0.06
 71
     0
 72
     0
 73
     1
 74
     1
 75
     0
 76
     0
 77
     0
 78
     7
170
     0
171
     2
172
     0
173
     0
174
     0
175
     0
176
   256
177
   256
178
     2
  0
DIMSTYLE
  2
AM_ANSI$4
 70
     0
  3

  4
mm
  5

  6

  7

 40
1.0
 41
0.12
 42
0.05
 43
0.5
 44
0.1
 45
0.0
 46
0.0
 47
0.1
 48
0.1
140
0.12
141
0.0
142
0.0
143
25.399999999999999
144
1.0
145
0.0
146
0.71
147
0.06
 71
     0
 72
     0
 73
     1
 74
     1
 75
     0
 76
     0
 77
     0
 78
     7
170
     0
171
     2
172
     0
173
     0
174
     0
175
     0
176
   256
177
   256
178
     2
  0
DIMSTYLE
  2
AM_ANSI$7
 70
     0
  3

  4
mm
  5

  6

  7

 40
1.0
 41
0.12
 42
0.05
 43
0.5
 44
0.1
 45
0.0
 46
0.0
 47
0.1
 48
0.1
140
0.12
141
0.0
142
0.0
143
25.399999999999999
144
1.0
145
0.0
146
0.71
147
0.06
 71
     0
 72
     0
 73
     1
 74
     1
 75
     0
 76
     0
 77
     0
 78
     7
170
     0
171
     2
172
     0
173
     0
174
     0
175
     0
176
   256
177
   256
178
     2
  0
DIMSTYLE
  2
AM_ANSI$SF
 70
     0
  3

  4
mm
  5

  6

  7

 40
1.0
 41
0.12
 42
0.05
 43
0.5
 44
0.1
 45
0.0
 46
0.0
 47
0.1
 48
0.1
140
0.12
141
0.0
142
0.0
143
25.399999999999999
144
1.0
145
0.0
146
0.71
147
0.06
 71
     0
 72
     0
 73
     1
 74
     1
 75
     1
 76
     1
 77
     0
 78
     7
170
     0
171
     2
172
     0
173
     0
174
     0
175
     0
176
   256
177
   256
178
     2
  0
DIMSTYLE
  2
AM_ANSI$SH
 70
     0
  3

  4
mm
  5

  6
GENAXEH
  7

 40
1.0
 41
0.12
 42
0.05
 43
0.5
 44
0.1
 45
0.0
 46
0.0
 47
0.1
 48
0.1
140
0.12
141
0.0
142
0.0
143
25.399999999999999
144
1.0
145
0.0
146
0.71
147
0.06
 71
     0
 72
     0
 73
     1
 74
     1
 75
     1
 76
     1
 77
     0
 78
     7
170
     0
171
     2
172
     0
173
     1
174
     0
175
     0
176
   256
177
   256
178
     2
  0
ENDTAB
  0
ENDSEC
  0
SECTION
  2
BLOCKS
  0
BLOCK
  8
0
  2
$MODEL_SPACE
 70
     0
 10
0.0
 20
0.0
 30
0.0
  3
$MODEL_SPACE
  1

  0
ENDBLK
  5
E0B
  8
0
  0
BLOCK
 67
     1
  8
0
  2
$PAPER_SPACE
 70
     0
 10
0.0
 20
0.0
 30
0.0
  3
$PAPER_SPACE
  1

  0
ENDBLK
  5
E07
 67
     1
  8
0
  0
BLOCK
  8
0
  2
_OPEN
 70
     0
 10
0.0
 20
0.0
 30
0.0
  3
_OPEN
  1

  0
LINE
  5
595
  8
0
  6
BYBLOCK
 62
     0
 10
-1.0
 20
0.1666666666666666
 30
0.0
 11
0.0
 21
0.0
 31
0.0
  0
LINE
  5
596
  8
0
  6
BYBLOCK
 62
     0
 10
-1.0
 20
-0.1666666666666666
 30
0.0
 11
0.0
 21
0.0
 31
0.0
  0
LINE
  5
597
  8
0
  6
BYBLOCK
 62
     0
 10
0.0
 20
0.0
 30
0.0
 11
-1.0
 21
0.0
 31
0.0
  0
ENDBLK
  5
599
  8
0
  0
BLOCK
  8
0
  2
GENAXEH
 70
     0
 10
0.0
 20
0.0
 30
0.0
  3
GENAXEH
  1

  0
LINE
  5
C1A
  8
0
 10
-1.0
 20
0.0
 30
0.0
 11
1.0
 21
0.0
 31
0.0
  0
ENDBLK
  5
C1C
  8
0
  0
ENDSEC
  0
SECTION
  2
ENTITIES
  0
TEXT
  5
7E0
  8
241
 10
-121.9999999999999
 20
56.0
 30
0.0
 40
4.0
  1
ST32-C3060C
  7
YOKO
 11
-121.9999999999999
 21
56.0
 31
0.0
 73
     1
  0
LINE
  5
A55
  8
250
 10
-114.87990588561939
 20
-29.332321108493371
 30
0.0
 11
-130.87990588561931
 21
-29.332321108493371
 31
0.0
1001
ITEMNAME
1000
LNSP2
  0
LINE
  5
CE2
  8
250
 10
-14.85301141793669
 20
30.0
 30
0.0
 11
18.999992934869049
 21
29.999999999999989
 31
0.0
  0
LINE
  5
CE3
  8
250
 10
17.999992934869059
 20
27.769999999999989
 30
0.0
 11
17.999992934869042
 21
-4.7857160304952604
 31
0.0
  0
LINE
  5
CE6
  8
250
 10
0.1470067149093381
 20
15.000000000000011
 30
0.0
 11
11.99999754256311
 21
15.000000000000011
 31
0.0
  0
LINE
  5
CE7
  8
250
 10
10.99999754256311
 20
12.77000000000001
 30
0.0
 11
10.999997542563101
 21
-4.7857150536624804
 31
0.0
  0
TEXT
  5
CEA
  8
250
 10
-128.30847731419081
 20
-28.332321108493371
 30
0.0
 40
3.0
  1
ST32
  7
YOKO
1001
ITEMNAME
1000
LNSP3
1001
ACAD
1000
MTEXTBEGIN
1070
    73
1070
     1
1070
    44
1040
1.0
1070
    74
1070
     0
1000
MTEXTEND
  0
LINE
  5
CED
  8
250
 10
-44.999999999999972
 20
24.5
 30
0.0
 11
-44.999999999999972
 21
43.0
 31
0.0
  0
LINE
  5
CEE
  8
250
 10
0.0
 20
14.98132199999997
 30
0.0
 11
0.0000000000000017
 21
43.0
 31
0.0
  0
LINE
  5
CEF
  8
250
 10
-42.76999999999996
 20
42.0
 30
0.0
 11
-2.229999999999996
 21
42.0
 31
0.0
  0
LINE
  5
CF3
  8
250
 10
-124.9999999999999
 20
15.05662399999996
 30
0.0
 11
-124.9999999999999
 21
43.0
 31
0.0
  0
LINE
  5
CF4
  8
250
 10
-44.999999999999972
 20
24.5
 30
0.0
 11
-44.999999999999972
 21
43.0
 31
0.0
  0
LINE
  5
CF5
  8
250
 10
-122.7699999999999
 20
42.0
 30
0.0
 11
-47.229999999999968
 21
42.0
 31
0.0
  0
LINE
  5
CF9
  8
250
 10
-123.232051
 20
-16.0
 30
0.0
 11
-143.9999999999998
 21
-15.99999999999998
 31
0.0
  0
LINE
  5
CFA
  8
250
 10
-123.36602600000001
 20
16.0
 30
0.0
 11
-143.9999999999998
 21
16.0
 31
0.0
  0
LINE
  5
CFB
  8
250
 10
-142.9999999999998
 20
-13.769999999999991
 30
0.0
 11
-142.9999999999998
 21
13.77
 31
0.0
  0
TEXT
  5
CFF
  8
250
 10
-143.9999999999998
 20
-4.0714285714285881
 30
0.0
 40
3.0
  1
\U+2205
 50
90.0
1001
ACAD
1000
MTEXTBEGIN
1070
    73
1070
     1
1070
    44
1040
1.0
1070
    74
1070
     0
1000
MTEXTEND
  0
TEXT
  5
D00
  8
250
 10
-143.9999999999998
 20
-1.3571428571428741
 30
0.0
 40
3.0
  1
32
 50
90.0
1001
ACAD
1000
MTEXTBEGIN
1070
    73
1070
     1
1070
    44
1040
1.0
1070
    74
1070
     0
1000
MTEXTEND
  0
LINE
  5
D01
  8
250
 10
-143.37166666666661
 20
13.77
 30
0.0
 11
-142.9999999999998
 21
16.0
 31
0.0
  0
LINE
  5
D02
  8
250
 10
-142.62833333333319
 20
13.77
 30
0.0
 11
-142.9999999999998
 21
16.0
 31
0.0
  0
LINE
  5
D03
  8
250
 10
-142.9999999999998
 20
16.0
 30
0.0
 11
-142.9999999999998
 21
13.77
 31
0.0
  0
LINE
  5
D04
  8
250
 10
-142.62833333333319
 20
-13.769999999999991
 30
0.0
 11
-142.9999999999998
 21
-15.99999999999998
 31
0.0
  0
LINE
  5
D05
  8
250
 10
-143.37166666666661
 20
-13.769999999999991
 30
0.0
 11
-142.9999999999998
 21
-15.99999999999998
 31
0.0
  0
LINE
  5
D06
  8
250
 10
-142.9999999999998
 20
-15.99999999999998
 30
0.0
 11
-142.9999999999998
 21
-13.769999999999991
 31
0.0
  0
TEXT
  5
D07
  8
250
 10
-87.857142857142847
 20
43.0
 30
0.0
 40
3.0
  1
80
1001
ACAD
1000
MTEXTBEGIN
1070
    73
1070
     1
1070
    44
1040
1.0
1070
    74
1070
     0
1000
MTEXTEND
  0
LINE
  5
D08
  8
250
 10
-47.229999999999968
 20
42.371666666666663
 30
0.0
 11
-44.999999999999972
 21
42.0
 31
0.0
  0
LINE
  5
D09
  8
250
 10
-47.229999999999968
 20
41.62833333333333
 30
0.0
 11
-44.999999999999972
 21
42.0
 31
0.0
  0
LINE
  5
D0A
  8
250
 10
-44.999999999999972
 20
42.0
 30
0.0
 11
-47.229999999999968
 21
42.0
 31
0.0
  0
LINE
  5
D0B
  8
250
 10
-122.7699999999999
 20
41.62833333333333
 30
0.0
 11
-124.9999999999999
 21
42.0
 31
0.0
  0
LINE
  5
D0C
  8
250
 10
-122.7699999999999
 20
42.371666666666663
 30
0.0
 11
-124.9999999999999
 21
42.0
 31
0.0
  0
LINE
  5
D0D
  8
250
 10
-124.9999999999999
 20
42.0
 30
0.0
 11
-122.7699999999999
 21
42.0
 31
0.0
  0
TEXT
  5
D0E
  8
250
 10
-25.35714285714284
 20
43.0
 30
0.0
 40
3.0
  1
45
1001
ACAD
1000
MTEXTBEGIN
1070
    73
1070
     1
1070
    44
1040
1.0
1070
    74
1070
     0
1000
MTEXTEND
  0
LINE
  5
D0F
  8
250
 10
-2.229999999999996
 20
42.371666666666663
 30
0.0
 11
0.0000000000000017
 21
42.0
 31
0.0
  0
LINE
  5
D10
  8
250
 10
-2.229999999999996
 20
41.62833333333333
 30
0.0
 11
0.0000000000000017
 21
42.0
 31
0.0
  0
LINE
  5
D11
  8
250
 10
0.0000000000000017
 20
42.0
 30
0.0
 11
-2.229999999999996
 21
42.0
 31
0.0
  0
LINE
  5
D12
  8
250
 10
-42.76999999999996
 20
41.62833333333333
 30
0.0
 11
-44.999999999999972
 21
42.0
 31
0.0
  0
LINE
  5
D13
  8
250
 10
-42.76999999999996
 20
42.371666666666663
 30
0.0
 11
-44.999999999999972
 21
42.0
 31
0.0
  0
LINE
  5
D14
  8
250
 10
-44.999999999999972
 20
42.0
 30
0.0
 11
-42.76999999999996
 21
42.0
 31
0.0
  0
LINE
  5
D15
  8
250
 10
-108.29748670470821
 20
-17.931236650439288
 30
0.0
 11
-114.87990588561939
 21
-29.332321108493371
 31
0.0
1001
ACAD
1000
DSTYLE
1002
{
1070
     5
1000
OPEN
1070
    78
1070
     8
1070
   140
1040
3.0
1002
}
  0
LINE
  5
D16
  8
250
 10
-108.61935947978139
 20
-17.745403317105961
 30
0.0
 11
-107.1824867047082
 21
-16.0
 31
0.0
  0
LINE
  5
D17
  8
250
 10
-107.975613929635
 20
-18.11706998377262
 30
0.0
 11
-107.1824867047082
 21
-16.0
 31
0.0
  0
LINE
  5
D18
  8
250
 10
-107.1824867047082
 20
-16.0
 30
0.0
 11
-108.29748670470821
 21
-17.931236650439288
 31
0.0
  0
TEXT
  5
D19
  8
250
 10
9.9999975425631078
 20
-4.0714293393767651
 30
0.0
 40
3.0
  1
\U+2205
 50
90.0
1001
ACAD
1000
MTEXTBEGIN
1070
    73
1070
     1
1070
    44
1040
1.0
1070
    74
1070
     0
1000
MTEXTEND
  0
TEXT
  5
D1A
  8
250
 10
9.9999975425631078
 20
-1.35714362509105
 30
0.0
 40
3.0
  1
30
 50
90.0
1001
ACAD
1000
MTEXTBEGIN
1070
    73
1070
     1
1070
    44
1040
1.0
1070
    74
1070
     0
1000
MTEXTEND
  0
LINE
  5
D1B
  8
250
 10
10.62833087589644
 20
12.77000000000001
 30
0.0
 11
10.99999754256311
 21
15.000000000000011
 31
0.0
  0
LINE
  5
D1C
  8
250
 10
11.37166420922977
 20
12.77000000000001
 30
0.0
 11
10.99999754256311
 21
15.000000000000011
 31
0.0
  0
LINE
  5
D1D
  8
250
 10
10.99999754256311
 20
15.000000000000011
 30
0.0
 11
10.99999754256311
 21
12.77000000000001
 31
0.0
  0
TEXT
  5
D1E
  8
250
 10
16.999992934869042
 20
-4.0714303162095451
 30
0.0
 40
3.0
  1
\U+2205
 50
90.0
1001
ACAD
1000
MTEXTBEGIN
1070
    73
1070
     1
1070
    44
1040
1.0
1070
    74
1070
     0
1000
MTEXTEND
  0
TEXT
  5
D1F
  8
250
 10
16.999992934869042
 20
-1.35714460192383
 30
0.0
 40
3.0
  1
60
 50
90.0
1001
ACAD
1000
MTEXTBEGIN
1070
    73
1070
     1
1070
    44
1040
1.0
1070
    74
1070
     0
1000
MTEXTEND
  0
LINE
  5
D20
  8
250
 10
17.62832626820239
 20
27.769999999999989
 30
0.0
 11
17.999992934869059
 21
29.999999999999989
 31
0.0
  0
LINE
  5
D21
  8
250
 10
18.371659601535718
 20
27.769999999999989
 30
0.0
 11
17.999992934869059
 21
29.999999999999989
 31
0.0
  0
LINE
  5
D22
  8
250
 10
17.999992934869059
 20
29.999999999999989
 30
0.0
 11
17.999992934869059
 21
27.769999999999989
 31
0.0
  0
LINE
  5
EE4
  8
240
 10
-35.499999999999922
 20
-24.499999999999989
 30
0.0
 11
-44.499999999999908
 21
-24.499999999999989
 31
0.0
  0
LINE
  5
EE5
  8
240
 10
-35.499999999999922
 20
24.499999999999989
 30
0.0
 11
-44.499999999999908
 21
24.499999999999989
 31
0.0
  0
LINE
  5
EE6
  8
245
 10
1.055614000000076
 20
0.0
 30
0.0
 11
-126.8707789999999
 21
0.0
 31
0.0
  0
LINE
  5
EE7
  8
241
 10
-44.999999999999943
 20
-16.0
 30
0.0
 11
-44.999999999999943
 21
16.0
 31
0.0
  0
LINE
  5
EE8
  8
240
 10
-124.9999999999998
 20
14.55662399999996
 30
0.0
 11
-124.9999999999998
 21
0.0
 31
0.0
  0
LINE
  5
EE9
  8
241
 10
-122.9999999999999
 20
-15.96343400000001
 30
0.0
 11
-122.9999999999999
 21
15.981716
 31
0.0
  0
LINE
  5
EEA
  8
240
 10
-122.7320509999999
 20
-16.0
 30
0.0
 11
-44.999999999999851
 21
-16.0
 31
0.0
  0
ARC
  5
EEB
  8
240
 10
-123.9999999999999
 20
-14.267950000000001
 30
0.0
 40
1.0
 50
180.0
 51
239.99999999999989
  0
LINE
  5
EEC
  8
240
 10
-124.9999999999998
 20
-14.267950000000001
 30
0.0
 11
-124.9999999999998
 21
0.0
 31
0.0
  0
LINE
  5
EED
  8
240
 10
-124.4999999999999
 20
-15.133974999999991
 30
0.0
 11
-123.2320509999999
 21
-15.866026
 31
0.0
  0
ARC
  5
EEE
  8
240
 10
-122.7320509999999
 20
-15.0
 30
0.0
 40
1.0
 50
239.99999999999989
 51
270.0
  0
LINE
  5
EEF
  8
240
 10
-44.999999999999922
 20
-23.999999999999989
 30
0.0
 11
-44.999999999999851
 21
-16.0
 31
0.0
  0
ARC
  5
EF0
  8
240
 10
-44.499999999999908
 20
-23.999999999999989
 30
0.0
 40
0.5
 50
180.0
 51
270.0
  0
ARC
  5
EF1
  8
2
 10
-44.499999999999908
 20
-23.999999999999989
 30
0.0
 40
0.5
 50
180.0
 51
270.0
  0
LINE
  5
EF2
  8
241
 10
-44.999999999999922
 20
-15.69999999999999
 30
0.0
 11
-44.999999999999922
 21
-0.0000010000000259
 31
0.0
  0
LINE
  5
EF3
  8
240
 10
-122.86602599999991
 20
15.999999999999989
 30
0.0
 11
-44.999999999999851
 21
16.0
 31
0.0
  0
LINE
  5
EF4
  8
240
 10
-124.7499999999999
 20
14.989637000000011
 30
0.0
 11
-123.11602599999991
 21
15.933012
 31
0.0
  0
ARC
  5
EF5
  8
240
 10
-124.4999999999999
 20
14.55662399999996
 30
0.0
 40
0.5
 50
120.0
 51
180.0
  0
ARC
  5
EF6
  8
240
 10
-122.86602599999991
 20
15.499999999999989
 30
0.0
 40
0.5
 50
90.0
 51
120.0
  0
LINE
  5
EF7
  8
240
 10
-44.999999999999922
 20
23.999999999999989
 30
0.0
 11
-44.999999999999851
 21
16.0
 31
0.0
  0
ARC
  5
EF8
  8
240
 10
-44.499999999999908
 20
23.999999999999989
 30
0.0
 40
0.5
 50
90.0
 51
180.0
  0
LINE
  5
EFA
  8
240
 10
-0.1973859999999021
 20
14.00591499999998
 30
0.0
 11
-0.1973859999999021
 21
-0.9968220000000085
 31
0.0
  0
LINE
  5
EFB
  8
240
 10
-0.1973879999999042
 20
4.0063000000000102
 30
0.0
 11
-0.1973879999999042
 21
-13.880661999999999
 31
0.0
  0
LINE
  5
EFC
  8
241
 10
-34.999999999999922
 20
-25.0
 30
0.0
 11
-34.999999999999922
 21
24.999999999999989
 31
0.0
  0
LINE
  5
EFF
  8
240
 10
-31.197389999999899
 20
-29.499999999999989
 30
0.0
 11
-13.87127899999993
 21
-27.773997000000001
 31
0.0
  0
LINE
  5
F00
  8
241
 10
-25.733288999999932
 20
-20.890602000000001
 30
0.0
 11
-19.706197999999951
 21
-20.890602000000001
 31
0.0
  0
LINE
  5
F02
  8
240
 10
-32.999999999999922
 20
-29.499999999999989
 30
0.0
 11
-31.197389999999899
 21
-29.499999999999989
 31
0.0
  0
LINE
  5
F03
  8
240
 10
-32.999999999999922
 20
-29.499999999999989
 30
0.0
 11
-31.767943999999918
 21
-29.499999999999989
 31
0.0
  0
ARC
  5
F04
  8
240
 10
-35.499999999999922
 20
-25.0
 30
0.0
 40
0.5
 50
0.0
 51
90.0
  0
ARC
  5
F05
  8
240
 10
-32.999999999999922
 20
-27.5
 30
0.0
 40
2.0
 50
180.0
 51
270.0
  0
LINE
  5
F06
  8
240
 10
-34.999999999999922
 20
-25.0
 30
0.0
 11
-34.999999999999922
 21
-27.5
 31
0.0
  0
LINE
  5
F07
  8
241
 10
-31.197389999999899
 20
-29.499999999999989
 30
0.0
 11
-31.197389999999899
 21
-19.62265300000001
 31
0.0
  0
ARC
  5
F08
  8
241
 10
-25.733288999999932
 20
-19.890601999999991
 30
0.0
 40
1.0
 50
239.99999999999989
 51
270.0
  0
LINE
  5
F09
  8
241
 10
-29.697389999999899
 20
-18.756627999999999
 30
0.0
 11
-26.233288999999932
 21
-20.75662800000001
 31
0.0
  0
ARC
  5
F0A
  8
241
 10
-30.197389999999899
 20
-19.62265300000001
 30
0.0
 40
1.0
 50
60.000000000000419
 51
180.0
  0
LINE
  5
F71
  8
240
 10
-13.263300999999929
 20
-27.486029999999989
 30
0.0
 11
-0.490279999999963
 21
-14.71302299999998
 31
0.0
  0
LINE
  5
F72
  8
241
 10
-19.11099499999991
 20
-20.69417799999999
 30
0.0
 11
-0.1973879999999042
 21
-6.684995000000014
 31
0.0
  0
ARC
  5
F74
  8
240
 10
-13.970406999999931
 20
-26.778921999999991
 30
0.0
 40
1.0
 50
275.6889559999986
 51
314.99996600000111
  0
ARC
  5
F75
  8
241
 10
-19.706197999999951
 20
-19.890601999999991
 30
0.0
 40
1.0
 50
270.0
 51
306.52710099999882
  0
ARC
  5
F77
  8
240
 10
-1.1973859999999019
 20
-14.005915999999999
 30
0.0
 40
1.0
 50
314.99996600000111
 51
0.0
  0
ARC
  5
F78
  8
240
 10
-1.1973859999999019
 20
-14.005915999999999
 30
0.0
 40
1.0
 50
314.99996600000111
 51
0.0
  0
LINE
  5
F79
  8
240
 10
-25.767943999999918
 20
32.499998999999967
 30
0.0
 11
-18.69148999999992
 21
32.499998999999967
 31
0.0
  0
LINE
  5
F7B
  8
241
 10
-11.20910299999993
 20
12.38571599999999
 30
0.0
 11
-26.79018799999993
 21
27.96680000000001
 31
0.0
  0
LINE
  5
F7C
  8
241
 10
-26.523458999999981
 20
28.812756999999969
 30
0.0
 11
-16.274468999999929
 21
30.619931000000008
 31
0.0
  0
LINE
  5
F7D
  8
241
 10
-13.061853999999901
 20
11.36446299999999
 30
0.0
 11
-31.197389999999899
 21
29.499998999999981
 31
0.0
  0
ARC
  5
F7E
  8
240
 10
-32.035892999999973
 20
31.499998999999971
 30
0.0
 40
2.0
 50
270.0
 51
299.9999999999996
  0
ARC
  5
F7F
  8
240
 10
-35.499999999999922
 20
24.999999999999989
 30
0.0
 40
0.5
 50
270.0
 51
0.0
  0
ARC
  5
F80
  8
240
 10
-32.999999999999922
 20
27.499998999999971
 30
0.0
 40
2.0
 50
90.0
 51
180.0
  0
LINE
  5
F81
  8
240
 10
-34.999999999999922
 20
24.999999999999989
 30
0.0
 11
-34.999999999999922
 21
27.499998999999971
 31
0.0
  0
LINE
  5
F82
  8
240
 10
-32.999999999999922
 20
29.499998999999981
 30
0.0
 11
-32.035892999999973
 21
29.499998999999981
 31
0.0
  0
ARC
  5
F83
  8
240
 10
-25.767943999999918
 20
30.499998999999981
 30
0.0
 40
2.0
 50
90.0
 51
120.0
  0
ARC
  5
F84
  8
241
 10
-26.436634999999949
 20
28.320352999999969
 30
0.0
 40
0.5
 50
99.999999999998565
 51
225.0000019999984
  0
LINE
  5
F85
  8
240
 10
-31.03589299999997
 20
29.767947999999979
 30
0.0
 11
-26.767943999999918
 21
32.232049999999987
 31
0.0
  0
LINE
  5
F86
  8
241
 10
-15.83451099999994
 20
30.481498999999982
 30
0.0
 11
-0.1171579999999324
 21
14.764164999999981
 31
0.0
  0
LINE
  5
F88
  8
241
 10
-9.5263199999999344
 20
9.8999969999999813
 30
0.0
 11
-0.1973879999999042
 21
9.8999969999999813
 31
0.0
  0
LINE
  5
F89
  8
241
 10
-10.76872599999993
 20
12.246866000000001
 30
0.0
 11
-0.3305409999999611
 21
14.087398999999969
 31
0.0
  0
ARC
  5
F8B
  8
241
 10
-10.8555499999999
 20
12.739269
 30
0.0
 40
0.5
 50
225.0000019999984
 51
279.99999999999858
  0
ARC
  5
F8C
  8
241
 10
-9.5263199999999344
 20
14.89999699999998
 30
0.0
 40
5.0
 50
225.0
 51
270.0
  0
ARC
  5
F8D
  8
241
 10
-0.399999999999963
 20
14.48132199999997
 30
0.0
 40
0.4
 50
279.99999999999858
 51
45.00003399999887
  0
ARC
  5
F8E
  8
240
 10
-1.1973859999999019
 20
14.00591499999998
 30
0.0
 40
1.0
 50
0.0
 51
7.2363280000001433
  0
LINE
  5
F8F
  8
240
 10
-17.984383999999949
 20
32.207106000000017
 30
0.0
 11
-16.378808999999961
 21
30.601533000000011
 31
0.0
  0
ARC
  5
F90
  8
240
 10
-18.69148999999992
 20
31.499998999999971
 30
0.0
 40
1.0
 50
45.00003399999887
 51
90.0
  0
ARC
  5
F91
  8
241
 10
-16.187643999999889
 20
30.127527000000011
 30
0.0
 40
0.5
 50
45.00003399999887
 51
99.999999999998565
  0
VIEWPORT
  5
22
 67
     1
  8
0
 10
261.51769911504419
 20
148.5
 30
0.0
 40
523.0353982300885
 41
297.0
 68
     1
 69
     1
1001
ACAD
1000
MVIEW
1002
{
1070
    16
1010
0.0
1020
0.0
1030
0.0
1010
0.0
1020
0.0
1030
1.0
1040
0.0
1040
297.0
1040
261.51769911504419
1040
148.5
1040
50.0
1040
0.0
1040
0.0
1070
     0
1070
   100
1070
     1
1070
     1
1070
     0
1070
     0
1070
     0
1070
     0
1040
0.0
1040
0.0
1040
0.0
1040
1.0
1040
1.0
1040
10.0
1040
10.0
1070
     0
1002
{
1002
}
1002
}
1001
GENIUS_GENODEF_13
1002
{
1000
HIER
1070
     0
1002
}
1002
{
1000
MANEDIT
1070
     0
1002
}
1002
{
1000
NOSEL
1070
     0
1002
}
1002
{
1000
BEHIND
1070
     0
1002
}
1002
{
1000
OTHER
1070
     0
1002
}
1002
{
1000
REACTOR
1002
}
1001
GENIUS_GENOBJ-N-SDF_13
1002
{
1000
OWNER
1000
GEN
1002
}
1001
GENIUS_GENSCREG_15
1000
PF
1040
1.0
1000
DF
1040
1.0
1000
MIN
1011
0.0
1021
0.0
1031
0.0
1021
0.0
1031
0.0
1000
MAX
1011
523.0353982300885
1021
0.0
1031
0.0
1021
297.0
1031
0.0
1000
FLAGS
1070
     4
  0
ENDSEC
  0
EOF
