  0
SECTION
  2
HEADER
  9
$ACADVER
  1
AC1009
  9
$INSBASE
 10
0.0
 20
0.0
 30
0.0
  9
$EXTMIN
 10
-101.8
 20
-27.000000000000139
 30
0.0
  9
$EXTMAX
 10
71.0
 20
61.000000000000007
 30
0.0
  9
$LIMMIN
 10
0.0
 20
0.0
  9
$LIMMAX
 10
297.0
 20
210.0
  9
$ORTHOMODE
 70
     0
  9
$REGENMODE
 70
     1
  9
$FILLMODE
 70
     1
  9
$QTEXTMODE
 70
     0
  9
$MIRRTEXT
 70
     1
  9
$DRAGMODE
 70
     2
  9
$LTSCALE
 40
10.0
  9
$OSMODE
 70
  3071
  9
$ATTMODE
 70
     1
  9
$TEXTSIZE
 40
3.0
  9
$TRACEWID
 40
1.0
  9
$TEXTSTYLE
  7
YOKO
  9
$CLAYER
  8
245
  9
$CELTYPE
  6
BYLAYER
  9
$CECOLOR
 62
   256
  9
$DIMSCALE
 40
1.0
  9
$DIMASZ
 40
2.2299999999999991
  9
$DIMEXO
 40
0.5
  9
$DIMDLI
 40
7.0
  9
$DIMRND
 40
0.0
  9
$DIMDLE
 40
0.0
  9
$DIMEXE
 40
1.0
  9
$DIMTP
 40
0.0
  9
$DIMTM
 40
0.01
  9
$DIMTXT
 40
2.7999999999999989
  9
$DIMCEN
 40
0.0
  9
$DIMTSZ
 40
0.0
  9
$DIMTOL
 70
     0
  9
$DIMLIM
 70
     0
  9
$DIMTIH
 70
     0
  9
$DIMTOH
 70
     0
  9
$DIMSE1
 70
     0
  9
$DIMSE2
 70
     0
  9
$DIMTAD
 70
     3
  9
$DIMZIN
 70
     9
  9
$DIMBLK
  1
OPEN
  9
$DIMASO
 70
     1
  9
$DIMSHO
 70
     1
  9
$DIMPOST
  1

  9
$DIMAPOST
  1

  9
$DIMALT
 70
     0
  9
$DIMALTD
 70
     2
  9
$DIMALTF
 40
25.399999999999999
  9
$DIMLFAC
 40
1.0
  9
$DIMTOFL
 70
     1
  9
$DIMTVP
 40
0.0
  9
$DIMTIX
 70
     1
  9
$DIMSOXD
 70
     0
  9
$DIMSAH
 70
     0
  9
$DIMBLK1
  1

  9
$DIMBLK2
  1

  9
$DIMSTYLE
  2
BIGT
  9
$DIMCLRD
 70
   256
  9
$DIMCLRE
 70
   256
  9
$DIMCLRT
 70
    40
  9
$DIMTFAC
 40
1.0
  9
$DIMGAP
 40
1.0
  9
$LUNITS
 70
     2
  9
$LUPREC
 70
     3
  9
$SKETCHINC
 40
1.0
  9
$FILLETRAD
 40
0.0
  9
$AUNITS
 70
     0
  9
$AUPREC
 70
     3
  9
$MENU
  1
.
  9
$ELEVATION
 40
0.0
  9
$PELEVATION
 40
0.0
  9
$THICKNESS
 40
0.0
  9
$LIMCHECK
 70
     0
  9
$BLIPMODE
 70
     0
  9
$CHAMFERA
 40
0.25
  9
$CHAMFERB
 40
0.25
  9
$SKPOLY
 70
     0
  9
$TDCREATE
 40
2455812.4716977309
  9
$TDUPDATE
 40
2455812.5564793861
  9
$TDINDWG
 40
0.0219959606
  9
$TDUSRTIMER
 40
0.0219959606
  9
$USRTIMER
 70
     1
  9
$ANGBASE
 50
0.0
  9
$ANGDIR
 70
     0
  9
$PDMODE
 70
     1
  9
$PDSIZE
 40
0.0
  9
$PLINEWID
 40
0.0
  9
$COORDS
 70
     1
  9
$SPLFRAME
 70
     0
  9
$SPLINETYPE
 70
     6
  9
$SPLINESEGS
 70
     4
  9
$ATTDIA
 70
     1
  9
$ATTREQ
 70
     1
  9
$HANDLING
 70
     1
  9
$HANDSEED
  5
18D6
  9
$SURFTAB1
 70
     6
  9
$SURFTAB2
 70
     6
  9
$SURFTYPE
 70
     6
  9
$SURFU
 70
     6
  9
$SURFV
 70
     6
  9
$UCSNAME
  2

  9
$UCSORG
 10
0.0
 20
0.0
 30
0.0
  9
$UCSXDIR
 10
1.0
 20
0.0
 30
0.0
  9
$UCSYDIR
 10
0.0
 20
1.0
 30
0.0
  9
$PUCSNAME
  2

  9
$PUCSORG
 10
0.0
 20
0.0
 30
0.0
  9
$PUCSXDIR
 10
1.0
 20
0.0
 30
0.0
  9
$PUCSYDIR
 10
0.0
 20
1.0
 30
0.0
  9
$USERI1
 70
     1
  9
$USERI2
 70
     0
  9
$USERI3
 70
     0
  9
$USERI4
 70
     0
  9
$USERI5
 70
     0
  9
$USERR1
 40
0.0
  9
$USERR2
 40
0.0
  9
$USERR3
 40
0.0
  9
$USERR4
 40
0.0
  9
$USERR5
 40
0.0
  9
$WORLDVIEW
 70
     1
  9
$SHADEDGE
 70
     3
  9
$SHADEDIF
 70
    70
  9
$TILEMODE
 70
     1
  9
$MAXACTVP
 70
    16
  9
$PLIMCHECK
 70
     0
  9
$PEXTMIN
 10
1.0000000000000000E+020
 20
1.0000000000000000E+020
 30
1.0000000000000000E+020
  9
$PEXTMAX
 10
-1.0000000000000000E+020
 20
-1.0000000000000000E+020
 30
-1.0000000000000000E+020
  9
$PLIMMIN
 10
0.0
 20
0.0
  9
$PLIMMAX
 10
420.0
 20
297.0
  9
$UNITMODE
 70
     0
  9
$VISRETAIN
 70
     1
  9
$PLINEGEN
 70
     0
  9
$PSLTSCALE
 70
     1
  0
ENDSEC
  0
SECTION
  2
TABLES
  0
TABLE
  2
VPORT
 70
     1
  0
VPORT
  2
*ACTIVE
 70
     0
 10
0.0
 20
0.0
 11
1.0
 21
1.0
 12
-15.406058764441459
 22
17.00065651442933
 13
0.0
 23
0.0
 14
7.0
 24
7.0
 15
7.0
 25
7.0
 16
0.0
 26
0.0
 36
1.0
 17
0.0
 27
0.0
 37
0.0
 40
93.983446560053494
 41
1.8471023427866831
 42
50.0
 43
0.0
 44
0.0
 50
0.0
 51
0.0
 71
     0
 72
  2000
 73
     1
 74
     0
 75
     0
 76
     1
 77
     0
 78
     0
  0
ENDTAB
  0
TABLE
  2
LTYPE
 70
    13
  0
LTYPE
  2
CONTINUOUS
 70
     0
  3
Solid line
 72
    65
 73
     0
 40
0.0
  0
LTYPE
  2
CENTER2
 70
     0
  3
___ _ ___ _ ___ _ ___ _ ___ _ ___ _ ___ _ ___ _
 72
    65
 73
     4
 40
1.125
 49
0.75
 49
-0.125
 49
0.125
 49
-0.125
  0
LTYPE
  2
HIDDEN2
 70
     0
  3
_ _ _ _ _ _ _ _ _ _ _ _ _ _ _ _ _ _ _ _ _ _ _ _
 72
    65
 73
     2
 40
0.1875
 49
0.125
 49
-0.0625
  0
LTYPE
  2
PHANTOM2
 70
     0
  3
___ _ _ ___ _ _ ___ _ _ ___ _ _ ___ _ _ ___ _ _
 72
    65
 73
     6
 40
1.25
 49
0.625
 49
-0.125
 49
0.125
 49
-0.125
 49
0.125
 49
-0.125
  0
LTYPE
  2
CENTER
 70
     0
  3
____ _ ____ _ ____ _ ____ _ ____ _ ____ _ ____ 
 72
    65
 73
     4
 40
2.0
 49
1.25
 49
-0.25
 49
0.25
 49
-0.25
  0
LTYPE
  2
AM_ISO02W050
 70
     0
  3
__ __ __ __ __ __ __ __ __ __ __ __ __ __ __
 72
    65
 73
     2
 40
7.5
 49
6.0
 49
-1.5
  0
LTYPE
  2
AMCONSTR
 70
     0
  3
_______________________
 72
    65
 73
     2
 40
9999.0
 49
9999.0
 49
0.0
  0
LTYPE
  2
ACISOWELD
 70
     0
  3
_ _ _ _ _
 72
    65
 73
     2
 40
2.0
 49
2.0
 49
-1.0
  0
LTYPE
  2
ACISOTGB
 70
     0
  3
__ . . __ . .
 72
    65
 73
     6
 40
9.0
 49
4.0
 49
-1.0
 49
1.0
 49
-1.0
 49
1.0
 49
-1.0
  0
LTYPE
  2
ACISOTGL
 70
     0
  3
_ _ _ _ _
 72
    65
 73
     2
 40
3.0
 49
2.0
 49
-1.0
  0
LTYPE
  2
ACJISTGB
 70
     0
  3
__ . . __ . .
 72
    65
 73
     6
 40
9.0
 49
4.0
 49
-1.0
 49
1.0
 49
-1.0
 49
1.0
 49
-1.0
  0
LTYPE
  2
ACJISTGL
 70
     0
  3
_ _ _ _ _
 72
    65
 73
     2
 40
3.0
 49
2.0
 49
-1.0
  0
LTYPE
  2
HIDDEN
 70
     0
  3
Hidden __ __ __ __ __ __ __ __ __ __ __ __ __ _
 72
    65
 73
     2
 40
9.5249999999999986
 49
6.3499999999999988
 49
-3.1749999999999989
  0
ENDTAB
  0
TABLE
  2
LAYER
 70
     6
  0
LAYER
  2
0
 70
     0
 62
     7
  6
CONTINUOUS
  0
LAYER
  2
DEFPOINTS
 70
     0
 62
     7
  6
CONTINUOUS
  0
LAYER
  2
245
 70
     0
 62
     2
  6
CENTER2
  0
LAYER
  2
240
 70
     0
 62
     4
  6
CONTINUOUS
  0
LAYER
  2
241
 70
     0
 62
   211
  6
CONTINUOUS
  0
LAYER
  2
250
 70
     0
 62
     3
  6
CONTINUOUS
  0
ENDTAB
  0
TABLE
  2
STYLE
 70
     6
  0
STYLE
  2
STANDARD
 70
     0
 40
0.0
 41
1.0
 50
0.0
 71
     0
 42
3.0
  3
romans.shx
  4
extfont.shx
  0
STYLE
  2
ACISOTS
 70
     0
 40
1.0
 41
1.0
 50
0.0
 71
     0
 42
3.0
  3
amgdt.shx
  4
extfont.shx
  0
STYLE
  2
ACISOGDT
 70
     0
 40
0.0
 41
1.0
 50
0.0
 71
     0
 42
3.0
  3
amgdt.shx
  4
extfont.shx
  0
STYLE
  2
ACJISTS
 70
     0
 40
1.0
 41
1.0
 50
0.0
 71
     0
 42
3.0
  3
amgdt.shx
  4
extfont.shx
  0
STYLE
  2
ACJISGDT
 70
     0
 40
0.0
 41
1.0
 50
0.0
 71
     0
 42
3.0
  3
amgdt.shx
  4
extfont.shx
  0
STYLE
  2
YOKO
 70
     0
 40
0.0
 41
1.0
 50
0.0
 71
     0
 42
3.0
  3
romans.shx
  4
extfont.shx
  0
ENDTAB
  0
TABLE
  2
VIEW
 70
     0
  0
ENDTAB
  0
TABLE
  2
UCS
 70
     0
  0
ENDTAB
  0
TABLE
  2
APPID
 70
    33
  0
APPID
  2
ACAD
 70
     0
  0
APPID
  2
GLOBAL
 70
     0
  0
APPID
  2
DETAIL
 70
     0
  0
APPID
  2
GRPNAME
 70
     0
  0
APPID
  2
GPARA
 70
     0
  0
APPID
  2
MCAD_NO_VIS
 70
     0
  0
APPID
  2
ACAD_TEMP_GRAPHIC
 70
     0
  0
APPID
  2
ACATTRIBSERVICES
 70
     0
  0
APPID
  2
GENIUS_GENSCREG_15
 70
     0
  0
APPID
  2
GENIUS_GENODEF_13
 70
     0
  0
APPID
  2
GENIUS_GENOBJ-N-SDF_13
 70
     0
  0
APPID
  2
GENIUS_GENREC_14
 70
     0
  0
APPID
  2
GENIUS_GENOBJ-N-REC_13
 70
     0
  0
APPID
  2
GENIUS_GENDIMSH_14
 70
     0
  0
APPID
  2
GENIUS_GENOBJ-N-DIM_13
 70
     0
  0
APPID
  2
GENIUS_GENDIM_13
 70
     0
  0
APPID
  2
GENIUS_GENDTOL_13
 70
     0
  0
APPID
  2
GENIUS_GENOLIS_13
 70
     0
  0
APPID
  2
GENIUS_GENOENT_13
 70
     0
  0
APPID
  2
GENIUS_GENOBJ-F-FEM_13
 70
     0
  0
APPID
  2
GENIUS_GENOREF_13
 70
     0
  0
APPID
  2
GENIUS_GEFFEM_13
 70
     0
  0
APPID
  2
GENIUS_GEFFEMP_13
 70
     0
  0
APPID
  2
AD_DRAW
 70
     0
  0
APPID
  2
DESIGNERASSEMBLIES
 70
     0
  0
APPID
  2
ACADM_DIM_EDIT
 70
     0
  0
APPID
  2
AMDT_DM_ADJ
 70
     0
  0
APPID
  2
ACAD_EXEMPT_FROM_CAD_STANDARDS
 70
     0
  0
APPID
  2
ACAD_PSEXT
 70
     0
  0
APPID
  2
GENIUS_GENOBJ-N-FIL_13
 70
     0
  0
APPID
  2
ACAECLAYERSTANDARD
 70
     0
  0
APPID
  2
ACAD_DSTYLE_DIMINSPECT
 70
     0
  0
APPID
  2
ACAD_MLEADERVER
 70
     0
  0
ENDTAB
  0
TABLE
  2
DIMSTYLE
 70
    23
  0
DIMSTYLE
  2
BIGT
 70
     0
  3

  4

  5
OPEN
  6

  7

 40
1.0
 41
2.2299999999999991
 42
0.5
 43
7.0
 44
1.0
 45
0.0
 46
0.0
 47
0.0
 48
0.01
140
2.7999999999999989
141
0.0
142
0.0
143
25.399999999999999
144
1.0
145
0.0
146
1.0
147
1.0
 71
     0
 72
     0
 73
     0
 74
     0
 75
     0
 76
     0
 77
     3
 78
     9
170
     0
171
     2
172
     1
173
     0
174
     1
175
     0
176
   256
177
   256
178
    40
  0
DIMSTYLE
  2
AM_ISO
 70
     0
  3

  4
"
  5

  6

  7

 40
1.0
 41
2.5
 42
1.0
 43
10.0
 44
1.0
 45
0.0
 46
0.0
 47
0.1
 48
0.1
140
3.5
141
0.0
142
0.0
143
0.0393701
144
1.0
145
0.0
146
0.71
147
1.5
 71
     0
 72
     0
 73
     0
 74
     0
 75
     0
 76
     0
 77
     1
 78
     8
170
     0
171
     2
172
     1
173
     0
174
     0
175
     0
176
   256
177
   256
178
     2
  0
DIMSTYLE
  2
AM_ISO$3
 70
     0
  3

  4
"
  5

  6

  7

 40
1.0
 41
2.5
 42
1.0
 43
10.0
 44
1.0
 45
0.0
 46
0.0
 47
0.1
 48
0.1
140
3.5
141
0.0
142
0.0
143
0.0393701
144
1.0
145
0.0
146
0.71
147
1.5
 71
     0
 72
     0
 73
     0
 74
     1
 75
     0
 76
     0
 77
     1
 78
     8
170
     0
171
     2
172
     0
173
     0
174
     0
175
     0
176
   256
177
   256
178
     2
  0
DIMSTYLE
  2
AM_ISO$4
 70
     0
  3

  4
"
  5

  6

  7

 40
1.0
 41
2.5
 42
1.0
 43
10.0
 44
1.0
 45
0.0
 46
0.0
 47
0.1
 48
0.1
140
3.5
141
0.0
142
0.0
143
0.0393701
144
1.0
145
0.0
146
0.71
147
1.5
 71
     0
 72
     0
 73
     0
 74
     1
 75
     0
 76
     0
 77
     1
 78
     8
170
     0
171
     2
172
     0
173
     0
174
     0
175
     0
176
   256
177
   256
178
     2
  0
DIMSTYLE
  2
AM_ISO$6
 70
     0
  3

  4
"
  5

  6

  7

 40
1.0
 41
2.5
 42
1.0
 43
10.0
 44
1.0
 45
0.0
 46
0.0
 47
0.1
 48
0.1
140
3.5
141
0.0
142
0.0
143
0.0393701
144
1.0
145
0.0
146
0.71
147
1.5
 71
     0
 72
     0
 73
     0
 74
     0
 75
     0
 76
     0
 77
     0
 78
     8
170
     0
171
     2
172
     1
173
     0
174
     0
175
     0
176
   256
177
   256
178
     2
  0
DIMSTYLE
  2
AM_ISO$7
 70
     0
  3

  4
"
  5

  6

  7

 40
1.0
 41
2.5
 42
1.0
 43
10.0
 44
1.0
 45
0.0
 46
0.0
 47
0.1
 48
0.1
140
5.0
141
0.0
142
0.0
143
0.0393701
144
1.0
145
0.0
146
0.71
147
1.5
 71
     0
 72
     0
 73
     0
 74
     0
 75
     0
 76
     0
 77
     1
 78
     8
170
     0
171
     2
172
     1
173
     0
174
     0
175
     0
176
   256
177
   256
178
     2
  0
DIMSTYLE
  2
AM_ISO$SF
 70
     0
  3

  4
"
  5

  6

  7

 40
1.0
 41
2.5
 42
1.0
 43
10.0
 44
1.0
 45
0.0
 46
0.0
 47
0.1
 48
0.1
140
3.5
141
0.0
142
0.0
143
0.0393701
144
1.0
145
0.0
146
0.71
147
1.5
 71
     0
 72
     0
 73
     0
 74
     0
 75
     1
 76
     1
 77
     1
 78
     8
170
     0
171
     2
172
     1
173
     0
174
     0
175
     0
176
   256
177
   256
178
     2
  0
DIMSTYLE
  2
AM_ISO$SH
 70
     0
  3

  4
"
  5

  6
GENAXEH
  7

 40
1.0
 41
2.5
 42
1.0
 43
10.0
 44
1.0
 45
0.0
 46
0.0
 47
0.1
 48
0.1
140
3.5
141
0.0
142
0.0
143
0.0393701
144
2.0
145
0.0
146
0.71
147
1.5
 71
     0
 72
     0
 73
     0
 74
     0
 75
     1
 76
     1
 77
     1
 78
     8
170
     0
171
     2
172
     1
173
     1
174
     0
175
     0
176
   256
177
   256
178
     2
  0
DIMSTYLE
  2
BIGT$2
 70
     0
  3

  4

  5
OPEN
  6

  7

 40
1.0
 41
2.2299999999999991
 42
0.5
 43
7.0
 44
1.0
 45
0.0
 46
0.0
 47
0.0
 48
0.01
140
2.7999999999999989
141
0.0
142
0.0
143
25.399999999999999
144
1.0
145
0.0
146
1.0
147
1.0
 71
     0
 72
     0
 73
     0
 74
     0
 75
     0
 76
     0
 77
     3
 78
     9
170
     0
171
     2
172
     1
173
     0
174
     0
175
     0
176
   256
177
   256
178
    40
  0
DIMSTYLE
  2
BIGT$3
 70
     0
  3

  4

  5
OPEN
  6

  7

 40
1.0
 41
2.2299999999999991
 42
0.5
 43
2.5
 44
1.0
 45
0.0
 46
0.0
 47
0.0
 48
0.01
140
2.7999999999999989
141
0.0
142
0.0
143
25.399999999999999
144
1.0
145
0.0
146
1.0
147
1.0
 71
     0
 72
     0
 73
     0
 74
     0
 75
     0
 76
     0
 77
     3
 78
     9
170
     0
171
     2
172
     1
173
     0
174
     0
175
     0
176
   256
177
   256
178
    40
  0
DIMSTYLE
  2
BIGT$7
 70
     0
  3

  4

  5
OPEN
  6

  7

 40
0.0
 41
2.2299999999999991
 42
0.5
 43
7.0
 44
1.0
 45
0.0
 46
0.0
 47
0.0
 48
0.01
140
2.7999999999999989
141
0.0
142
0.0
143
25.399999999999999
144
1.0
145
0.0
146
1.0
147
1.0
 71
     0
 72
     0
 73
     0
 74
     0
 75
     0
 76
     0
 77
     3
 78
     9
170
     0
171
     2
172
     0
173
     0
174
     0
175
     0
176
   256
177
   256
178
    40
  0
DIMSTYLE
  2
BIGT$6
 70
     0
  3

  4

  5
OPEN
  6

  7

 40
1.0
 41
2.2299999999999991
 42
0.5
 43
2.5
 44
1.0
 45
0.0
 46
0.0
 47
0.0
 48
0.01
140
2.7999999999999989
141
0.0
142
0.0
143
25.399999999999999
144
1.0
145
0.0
146
1.0
147
1.0
 71
     0
 72
     0
 73
     0
 74
     0
 75
     0
 76
     0
 77
     3
 78
     9
170
     0
171
     2
172
     1
173
     0
174
     0
175
     0
176
   256
177
   256
178
    40
  0
DIMSTYLE
  2
BIGT$0
 70
     0
  3

  4

  5
OPEN
  6

  7

 40
1.0
 41
2.2299999999999991
 42
0.5
 43
7.0
 44
1.0
 45
0.0
 46
0.0
 47
0.0
 48
0.01
140
2.7999999999999989
141
0.0
142
0.0
143
25.399999999999999
144
1.0
145
0.0
146
1.0
147
1.0
 71
     0
 72
     0
 73
     0
 74
     0
 75
     0
 76
     0
 77
     3
 78
     9
170
     0
171
     2
172
     1
173
     0
174
     0
175
     0
176
   256
177
   256
178
    40
  0
DIMSTYLE
  2
BIGT$4
 70
     0
  3

  4

  5
OPEN
  6

  7

 40
1.0
 41
2.2299999999999991
 42
0.5
 43
2.5
 44
1.0
 45
0.0
 46
0.0
 47
0.0
 48
0.01
140
2.7999999999999989
141
0.0
142
0.0
143
25.399999999999999
144
1.0
145
0.0
146
1.0
147
1.0
 71
     0
 72
     0
 73
     0
 74
     0
 75
     0
 76
     0
 77
     3
 78
     9
170
     0
171
     2
172
     1
173
     0
174
     0
175
     0
176
   256
177
   256
178
    40
  0
DIMSTYLE
  2
BIGT$SH
 70
     0
  3

  4

  5
OPEN
  6

  7

 40
1.0
 41
2.2299999999999991
 42
0.5
 43
7.0
 44
1.0
 45
0.0
 46
0.0
 47
0.0
 48
0.0
140
2.7999999999999989
141
0.0
142
0.0
143
25.399999999999999
144
1.0
145
0.0
146
1.0
147
1.0
 71
     0
 72
     0
 73
     0
 74
     0
 75
     0
 76
     0
 77
     3
 78
     9
170
     0
171
     2
172
     1
173
     0
174
     0
175
     0
176
   256
177
   256
178
    40
  0
DIMSTYLE
  2
BIGT$SF
 70
     0
  3

  4

  5
OPEN
  6

  7

 40
1.0
 41
2.2299999999999991
 42
0.5
 43
7.0
 44
1.0
 45
0.0
 46
0.0
 47
0.0
 48
0.0
140
2.7999999999999989
141
0.0
142
0.0
143
25.399999999999999
144
1.0
145
0.0
146
1.0
147
1.0
 71
     0
 72
     0
 73
     0
 74
     0
 75
     0
 76
     0
 77
     3
 78
     9
170
     0
171
     2
172
     1
173
     0
174
     0
175
     0
176
   256
177
   256
178
    40
  0
DIMSTYLE
  2
TECHNICAL_OSAKA
 70
     0
  3

  4
"
  5
OPEN30
  6

  7

 40
1.0
 41
2.5
 42
1.0
 43
10.0
 44
1.0
 45
0.0
 46
0.0
 47
0.1
 48
0.1
140
2.7999999999999989
141
0.0
142
0.0
143
0.0393701
144
1.0
145
0.0
146
0.71
147
1.5
 71
     0
 72
     0
 73
     0
 74
     0
 75
     0
 76
     0
 77
     3
 78
     8
170
     0
171
     2
172
     1
173
     0
174
     0
175
     0
176
   256
177
   256
178
    40
  0
DIMSTYLE
  2
TECHNICAL_OSAKA$3
 70
     0
  3

  4
"
  5
OPEN30
  6

  7

 40
1.0
 41
2.5
 42
1.0
 43
10.0
 44
1.0
 45
0.0
 46
0.0
 47
0.1
 48
0.1
140
2.7999999999999989
141
0.0
142
0.0
143
0.0393701
144
1.0
145
0.0
146
0.71
147
1.5
 71
     0
 72
     0
 73
     0
 74
     1
 75
     0
 76
     0
 77
     3
 78
     8
170
     0
171
     2
172
     0
173
     0
174
     0
175
     0
176
   256
177
   256
178
    40
  0
DIMSTYLE
  2
TECHNICAL_OSAKA$4
 70
     0
  3

  4
"
  5
OPEN30
  6

  7

 40
1.0
 41
2.5
 42
1.0
 43
10.0
 44
1.0
 45
0.0
 46
0.0
 47
0.1
 48
0.1
140
2.7999999999999989
141
0.0
142
0.0
143
0.0393701
144
1.0
145
0.0
146
0.71
147
1.5
 71
     0
 72
     0
 73
     0
 74
     1
 75
     0
 76
     0
 77
     3
 78
     8
170
     0
171
     2
172
     0
173
     0
174
     0
175
     0
176
   256
177
   256
178
    40
  0
DIMSTYLE
  2
TECHNICAL_OSAKA$6
 70
     0
  3

  4
"
  5
OPEN30
  6

  7

 40
1.0
 41
2.5
 42
1.0
 43
10.0
 44
1.0
 45
0.0
 46
0.0
 47
0.1
 48
0.1
140
2.7999999999999989
141
0.0
142
0.0
143
0.0393701
144
1.0
145
0.0
146
0.71
147
1.5
 71
     0
 72
     0
 73
     0
 74
     0
 75
     0
 76
     0
 77
     0
 78
     8
170
     0
171
     2
172
     1
173
     0
174
     0
175
     0
176
   256
177
   256
178
    40
  0
DIMSTYLE
  2
TECHNICAL_OSAKA$7
 70
     0
  3

  4
"
  5
OPEN30
  6

  7

 40
1.0
 41
2.5
 42
1.0
 43
10.0
 44
1.0
 45
0.0
 46
0.0
 47
0.1
 48
0.1
140
2.7999999999999989
141
0.0
142
0.0
143
0.0393701
144
1.0
145
0.0
146
0.71
147
1.5
 71
     0
 72
     0
 73
     0
 74
     0
 75
     0
 76
     0
 77
     3
 78
     8
170
     0
171
     2
172
     1
173
     0
174
     0
175
     0
176
   256
177
   256
178
    40
  0
DIMSTYLE
  2
TECHNICAL_OSAKA$SF
 70
     0
  3

  4
"
  5
OPEN30
  6
OPEN30
  7
OPEN30
 40
1.0
 41
2.5
 42
1.0
 43
10.0
 44
1.0
 45
0.0
 46
0.0
 47
0.1
 48
0.1
140
3.5
141
0.0
142
0.0
143
0.0393701
144
1.0
145
0.0
146
0.71
147
1.5
 71
     0
 72
     0
 73
     0
 74
     0
 75
     1
 76
     1
 77
     3
 78
     8
170
     0
171
     2
172
     1
173
     0
174
     0
175
     0
176
   256
177
   256
178
    40
  0
DIMSTYLE
  2
TECHNICAL_OSAKA$SH
 70
     0
  3

  4
"
  5
OPEN30
  6
GENAXEH
  7
OPEN30
 40
1.0
 41
2.5
 42
1.0
 43
10.0
 44
1.0
 45
0.0
 46
0.0
 47
0.1
 48
0.1
140
3.5
141
0.0
142
0.0
143
0.0393701
144
2.0
145
0.0
146
0.71
147
1.5
 71
     0
 72
     0
 73
     0
 74
     0
 75
     1
 76
     1
 77
     3
 78
     8
170
     0
171
     2
172
     1
173
     1
174
     0
175
     0
176
   256
177
   256
178
    40
  0
ENDTAB
  0
ENDSEC
  0
SECTION
  2
BLOCKS
  0
BLOCK
  8
0
  2
$MODEL_SPACE
 70
     0
 10
0.0
 20
0.0
 30
0.0
  3
$MODEL_SPACE
  1

  0
ENDBLK
  5
1C
  8
0
  0
BLOCK
 67
     1
  8
0
  2
$PAPER_SPACE
 70
     0
 10
0.0
 20
0.0
 30
0.0
  3
$PAPER_SPACE
  1

  0
ENDBLK
  5
19
 67
     1
  8
0
  0
BLOCK
  8
0
  2
_OPEN
 70
     0
 10
0.0
 20
0.0
 30
0.0
  3
_OPEN
  1

  0
LINE
  5
180E
  8
0
  6
BYBLOCK
 62
     0
 10
-1.0
 20
0.1666666666666666
 30
0.0
 11
0.0
 21
0.0
 31
0.0
  0
LINE
  5
180F
  8
0
  6
BYBLOCK
 62
     0
 10
-1.0
 20
-0.1666666666666666
 30
0.0
 11
0.0
 21
0.0
 31
0.0
  0
LINE
  5
1810
  8
0
  6
BYBLOCK
 62
     0
 10
0.0
 20
0.0
 30
0.0
 11
-1.0
 21
0.0
 31
0.0
  0
ENDBLK
  5
1811
  8
0
  0
BLOCK
  8
0
  2
GENAXEH
 70
     0
 10
0.0
 20
0.0
 30
0.0
  3
GENAXEH
  1

  0
LINE
  5
183C
  8
0
 10
-1.0
 20
0.0
 30
0.0
 11
1.0
 21
0.0
 31
0.0
  0
ENDBLK
  5
183D
  8
0
  0
BLOCK
  8
0
  2
_OPEN30
 70
     0
 10
0.0
 20
0.0
 30
0.0
  3
_OPEN30
  1

  0
LINE
  5
1866
  8
0
  6
BYBLOCK
 62
     0
 10
-1.0
 20
0.26794919
 30
0.0
 11
0.0
 21
0.0
 31
0.0
  0
LINE
  5
1867
  8
0
  6
BYBLOCK
 62
     0
 10
0.0
 20
0.0
 30
0.0
 11
-1.0
 21
-0.26794919
 31
0.0
  0
LINE
  5
1868
  8
0
  6
BYBLOCK
 62
     0
 10
0.0
 20
0.0
 30
0.0
 11
-1.0
 21
0.0
 31
0.0
  0
ENDBLK
  5
1869
  8
0
  0
BLOCK
  8
0
  2
*U4
 70
     1
 10
0.0
 20
0.0
 30
0.0
  3
*U4
  1

  0
TEXT
  5
18CF
  8
250
 10
19.83463342337912
 20
43.0
 30
0.0
 40
2.7999999999999989
  1
45
  0
ENDBLK
  5
18D1
  8
0
  0
BLOCK
  8
0
  2
*U5
 70
     1
 10
0.0
 20
0.0
 30
0.0
  3
*U5
  1

  0
TEXT
  5
18D3
  8
250
 10
-99.000000000000014
 20
-3.9333333333333309
 30
0.0
 40
2.7999999999999989
  1
\U+220532
 50
90.0
  0
ENDBLK
  5
18D5
  8
0
  0
ENDSEC
  0
SECTION
  2
ENTITIES
  0
LINE
  5
14BE
  8
241
  6
CONTINUOUS
 10
11.80261288507949
 20
-27.000000000000121
 30
0.0
 11
11.80261288507949
 21
-17.051605961514149
 31
0.0
  0
LINE
  5
14C0
  8
241
 10
4.5000025582167771
 20
-23.999998547010591
 30
0.0
 11
4.5000025582167771
 21
24.0365664716679
 31
0.0
  0
LINE
  5
14C1
  8
241
  6
CONTINUOUS
 10
9.6961574975750864
 20
26.866023442468329
 30
0.0
 11
9.6961574975750864
 21
-26.99999999999131
 31
0.0
  0
LINE
  5
14C2
  8
240
  6
CONTINUOUS
 10
-0.0000000000009379
 20
-23.499999031340369
 30
0.0
 11
-0.0000000000006486
 21
-16.0
 31
0.0
1001
GRPNAME
1000
PASTMD0D
  0
LINE
  5
14C3
  8
240
  6
CONTINUOUS
 10
9.9641066900062452
 20
-27.000000000000139
 30
0.0
 11
21.31812809820644
 21
-27.0
 31
0.0
  0
ARC
  5
14C6
  8
240
  6
CONTINUOUS
 10
21.459235881506402
 20
-23.21145257109481
 30
0.0
 40
3.7403596271602222
 50
267.53449208544743
 51
301.40220894051561
  0
LINE
  5
14C7
  8
240
  6
CONTINUOUS
 10
21.31812809820644
 20
-27.0
 30
0.0
 11
21.31812809820644
 21
-26.94834974525952
 31
0.0
  0
LINE
  5
14C8
  8
245
  6
CENTER2
 10
47.802612885079498
 20
0.0
 30
0.0
 11
-83.0
 21
0.0
 31
0.0
1001
GRPNAME
1000
PASTMD0D
  0
LINE
  5
14D1
  8
241
  6
CONTINUOUS
 10
15.45498389353634
 20
20.445331536841309
 30
0.0
 11
34.749281855991583
 21
9.3057634143930539
 31
0.0
  0
LINE
  5
14D2
  8
241
  6
CONTINUOUS
 10
44.80261288507949
 20
-6.9516032891363428
 30
0.0
 11
22.9075656207321
 21
-13.758974262080301
 31
0.0
  0
LINE
  5
14D3
  8
241
  6
CONTINUOUS
 10
25.508302220732158
 20
25.639568122448281
 30
0.0
 11
44.802600183187323
 21
14.500000000000011
 31
0.0
  0
LINE
  5
14D9
  8
241
  6
CONTINUOUS
 10
21.31812809820622
 20
-13.758974262076769
 30
0.0
 11
21.31812809820676
 21
14.9198008634646
 31
0.0
  0
LINE
  5
14E3
  8
241
  6
CONTINUOUS
 10
23.40812235707017
 20
-13.60334658262752
 30
0.0
 11
23.40812235707018
 21
13.71314211550497
 31
0.0
  0
LINE
  5
14E4
  8
241
  6
CONTINUOUS
 10
22.907565620732111
 20
-13.758974262080301
 30
0.0
 11
15.802612885079499
 21
-13.758974262080301
 31
0.0
  0
ARC
  5
14E5
  8
241
  6
CONTINUOUS
 10
15.67449329154306
 20
-17.67619965156609
 30
0.0
 40
3.9219351294493099
 50
87.191791416493231
 51
170.83625611501779
  0
LINE
  5
14E9
  8
240
  6
CONTINUOUS
 10
-0.0000000000005684
 20
23.5
 30
0.0
 11
0.0000000000000904
 21
16.0
 31
0.0
1001
GRPNAME
1000
PASTMD0D
  0
LINE
  5
14EB
  8
241
  6
CONTINUOUS
 10
11.80261288507949
 20
22.722987210000039
 30
0.0
 11
11.80261288507949
 21
27.000000000000341
 31
0.0
  0
LINE
  5
14EC
  8
241
  6
CONTINUOUS
 10
25.139254916035881
 20
25.655681075749168
 30
0.0
 11
15.48593658884008
 21
21.154264813169728
 31
0.0
  0
ARC
  5
14F3
  8
241
  6
CONTINUOUS
 10
15.802612885084161
 20
22.722987210003229
 30
0.0
 40
4.0000000000050768
 50
180.00000000004559
 51
239.99999999996959
  0
LINE
  5
14FC
  8
241
  6
CONTINUOUS
 10
13.802612885081659
 20
19.258885594861329
 30
0.0
 11
32.810634610613022
 21
8.2845991348629795
 31
0.0
  0
LINE
  5
1500
  8
240
  6
CONTINUOUS
 10
21.31812809820644
 20
27.00000000000006
 30
0.0
 11
9.9641058511223264
 21
27.000000000000401
 31
0.0
  0
LINE
  5
1503
  8
240
  6
CONTINUOUS
 10
24.943543701038148
 20
25.467886377914851
 30
0.0
 11
23.40812235707017
 21
26.408856738584351
 31
0.0
  0
LINE
  5
1504
  8
240
  6
CONTINUOUS
 10
24.943898781179769
 20
25.469435654315308
 30
0.0
 11
23.40812235707017
 21
26.410560657416401
 31
0.0
  0
ARC
  5
150B
  8
240
  6
CONTINUOUS
 10
21.318125583597968
 20
22.998541846658728
 30
0.0
 40
3.9997917664816112
 50
58.498129823228567
 51
89.976681683575706
  0
ARC
  5
1513
  8
241
  6
CONTINUOUS
 10
34.810634610613988
 20
11.74870075000223
 30
0.0
 40
4.000000000002351
 50
240.00000000000981
 51
285.00000000000119
  0
LINE
  5
1519
  8
240
  6
CONTINUOUS
 10
23.408122357070379
 20
-26.403964379350811
 30
0.0
 11
44.325111449795493
 21
-13.592613255879989
 31
0.0
  0
ARC
  5
1520
  8
240
  6
CONTINUOUS
 10
43.80261288507949
 20
-12.739973091525879
 30
0.0
 40
1.0000000000000091
 50
301.49999999999352
 51
0.0
  0
LINE
  5
1531
  8
241
  6
CONTINUOUS
 10
35.118329160687857
 20
9.2896504610921724
 30
0.0
 11
44.771647487883598
 21
13.79106672367158
 31
0.0
  0
LINE
  5
1534
  8
241
  6
CONTINUOUS
 10
44.80261288507949
 20
10.28493853779184
 30
0.0
 11
35.845910791024842
 21
7.8849974448432931
 31
0.0
  0
LINE
  5
1541
  8
240
  6
CONTINUOUS
 10
44.80261288507949
 20
-12.739973091525879
 30
0.0
 11
44.80261288507949
 21
13.80718701072383
 31
0.0
  0
LINE
  5
154E
  8
240
  6
CONTINUOUS
 10
-77.866025403784363
 20
16.0
 30
0.0
 11
0.0000000000000853
 21
16.0
 31
0.0
1001
GRPNAME
1000
PASTMD0D
  0
LINE
  5
1555
  8
241
  6
CONTINUOUS
 10
-77.999999999999943
 20
-15.96343304400227
 30
0.0
 11
-77.999999999999943
 21
15.98171652200114
 31
0.0
1001
GRPNAME
1000
PASTMD0D
  0
LINE
  5
1556
  8
240
  6
CONTINUOUS
 10
-80.0
 20
-14.2679491924311
 30
0.0
 11
-80.0
 21
14.556624327025929
 31
0.0
1001
GRPNAME
1000
PASTMD0D
  0
LINE
  5
1557
  8
240
  6
CONTINUOUS
 10
-79.5
 20
-15.13397459621558
 30
0.0
 11
-78.232050807568839
 21
-15.86602540378445
 31
0.0
1001
GRPNAME
1000
PASTMD0D
  0
ARC
  5
1558
  8
240
  6
CONTINUOUS
 10
-79.0
 20
-14.2679491924311
 30
0.0
 40
1.0
 50
179.99999999485411
 51
239.99999999485749
1001
GRPNAME
1000
PASTMD02
  0
ARC
  5
1559
  8
240
  6
CONTINUOUS
 10
-77.732050807568839
 20
-15.0
 30
0.0
 40
0.9999999999999902
 50
239.99999995886111
 51
269.9999999588623
1001
GRPNAME
1000
PASTMD02
  0
LINE
  5
155B
  8
240
  6
CONTINUOUS
 10
-79.75
 20
14.989637028918141
 30
0.0
 11
-78.116025403784363
 21
15.93301270189221
 31
0.0
  0
ARC
  5
155C
  8
240
  6
CONTINUOUS
 10
-79.5
 20
14.556624327025929
 30
0.0
 40
0.5000000000000165
 50
119.99999999999829
 51
180.0
  0
ARC
  5
155D
  8
240
  6
CONTINUOUS
 10
-77.866025403784363
 20
15.5
 30
0.0
 40
0.5
 50
90.0
 51
119.9999999999997
  0
LINE
  5
155E
  8
240
  6
CONTINUOUS
 10
-77.732050807568839
 20
-16.0
 30
0.0
 11
-0.0000000000006537
 21
-16.0
 31
0.0
1001
GRPNAME
1000
PASTMD0D
  0
LINE
  5
156B
  8
240
  6
CONTINUOUS
 10
4.7320533657856743
 20
24.133974111885781
 30
0.0
 11
9.4641058511222695
 21
26.866025888114311
 31
0.0
  0
ARC
  5
156C
  8
240
  6
CONTINUOUS
 10
4.2320533657857018
 20
24.999999515670201
 30
0.0
 40
1.0
 50
270.0
 51
299.99999999999972
  0
LINE
  5
156D
  8
240
  6
CONTINUOUS
 10
0.5000025582168064
 20
23.999999515670201
 30
0.0
 11
4.2320533657857018
 21
23.999999515670201
 31
0.0
  0
ARC
  5
156E
  8
240
  6
CONTINUOUS
 10
0.5000025582168064
 20
23.5
 30
0.0
 40
0.5
 50
89.999999994855742
 51
179.9999999948557
1001
GRPNAME
1000
PASTMD0H
  0
LINE
  5
156F
  8
240
  6
CONTINUOUS
 10
4.7320533657856743
 20
-24.133973143226171
 30
0.0
 11
9.4641066900062185
 21
-26.86602540378459
 31
0.0
  0
ARC
  5
1570
  8
240
  6
CONTINUOUS
 10
4.2320533657857018
 20
-24.999998547010591
 30
0.0
 40
1.0
 50
60.000000000000277
 51
90.0
  0
LINE
  5
1571
  8
240
  6
CONTINUOUS
 10
0.5000025582168064
 20
-23.999998547010591
 30
0.0
 11
4.2320533657857018
 21
-23.999998547010591
 31
0.0
  0
ARC
  5
1572
  8
240
  6
CONTINUOUS
 10
0.5000025582168064
 20
-23.499999031340391
 30
0.0
 40
0.5
 50
180.00000000514589
 51
270.00000000514427
1001
GRPNAME
1000
PASTMD0H
  0
ARC
  5
1573
  8
240
  6
CONTINUOUS
 10
9.9641058511222695
 20
26.00000048432986
 30
0.0
 40
1.0
 50
90.0
 51
119.9999999999997
  0
ARC
  5
1574
  8
240
  6
CONTINUOUS
 10
9.9641066900062185
 20
-26.000000000000139
 30
0.0
 40
1.0
 50
240.00000000000031
 51
270.0
  0
ARC
  5
15B4
  8
241
  6
CONTINUOUS
 10
25.30830222073217
 20
25.293157960934511
 30
0.0
 40
0.4
 50
60.000000000000142
 51
115.0000000000001
1001
GENIUS_GENODEF_13
1002
{
1000
HIER
1070
     0
1002
}
1002
{
1000
MANEDIT
1070
     0
1002
}
1002
{
1000
NOSEL
1070
     0
1002
}
1002
{
1000
BEHIND
1070
     0
1002
}
1002
{
1000
OTHER
1070
     0
1002
}
1002
{
1000
REACTOR
1002
}
1001
GENIUS_GENOBJ-N-FIL_13
1002
{
1000
OWNER
1000
GEN
1002
}
  0
ARC
  5
15B6
  8
241
  6
CONTINUOUS
 10
15.654983893536359
 20
20.791741698355072
 30
0.0
 40
0.4
 50
115.0000000000001
 51
240.00000000000031
1001
GENIUS_GENODEF_13
1002
{
1000
HIER
1070
     0
1002
}
1002
{
1000
MANEDIT
1070
     0
1002
}
1002
{
1000
NOSEL
1070
     0
1002
}
1002
{
1000
BEHIND
1070
     0
1002
}
1002
{
1000
OTHER
1070
     0
1002
}
1002
{
1000
REACTOR
1002
}
1001
GENIUS_GENOBJ-N-FIL_13
1002
{
1000
OWNER
1000
GEN
1002
}
  0
ARC
  5
15B7
  8
241
  6
CONTINUOUS
 10
34.949281855991579
 20
9.652173575906831
 30
0.0
 40
0.4
 50
240.00000000000031
 51
295.00000000000023
1001
GENIUS_GENODEF_13
1002
{
1000
HIER
1070
     0
1002
}
1002
{
1000
MANEDIT
1070
     0
1002
}
1002
{
1000
NOSEL
1070
     0
1002
}
1002
{
1000
BEHIND
1070
     0
1002
}
1002
{
1000
OTHER
1070
     0
1002
}
1002
{
1000
REACTOR
1002
}
1001
GENIUS_GENOBJ-N-FIL_13
1002
{
1000
OWNER
1000
GEN
1002
}
  0
ARC
  5
15B8
  8
241
  6
CONTINUOUS
 10
44.60260018318732
 20
14.15358983848623
 30
0.0
 40
0.4
 50
295.00000000000023
 51
60.000000000000142
1001
GENIUS_GENODEF_13
1002
{
1000
HIER
1070
     0
1002
}
1002
{
1000
MANEDIT
1070
     0
1002
}
1002
{
1000
NOSEL
1070
     0
1002
}
1002
{
1000
BEHIND
1070
     0
1002
}
1002
{
1000
OTHER
1070
     0
1002
}
1002
{
1000
REACTOR
1002
}
1001
GENIUS_GENOBJ-N-FIL_13
1002
{
1000
OWNER
1000
GEN
1002
}
  0
LINE
  5
15BA
  8
241
 10
0.0000000000000904
 20
16.0
 30
0.0
 11
-0.0000000000006537
 21
-16.0
 31
0.0
  0
TEXT
  5
16C3
  8
241
  6
CONTINUOUS
 10
-77.0
 20
56.0
 30
0.0
 40
5.0
  1
ST32-C3050C-60
  7
YOKO
  0
LINE
  5
1735
  8
250
 10
44.436574779402889
 20
15.0
 30
0.0
 11
64.0
 21
14.999999999999989
 31
0.0
  0
LINE
  5
1736
  8
250
 10
63.0
 20
12.769999999999991
 30
0.0
 11
63.0
 21
-4.5333333333333403
 31
0.0
  0
LINE
  5
1739
  8
250
 10
62.62833333333333
 20
12.769999999999991
 30
0.0
 11
63.0
 21
14.999999999999989
 31
0.0
  0
LINE
  5
173A
  8
250
 10
63.37166666666667
 20
12.769999999999991
 30
0.0
 11
63.0
 21
14.999999999999989
 31
0.0
  0
LINE
  5
173B
  8
250
 10
63.0
 20
14.999999999999989
 30
0.0
 11
63.0
 21
12.769999999999991
 31
0.0
  0
TEXT
  5
173C
  8
250
 10
62.0
 20
-3.9333333333333291
 30
0.0
 40
2.7999999999999989
  1
\U+220530
 50
90.0
  0
LINE
  5
173D
  8
250
 10
27.116066703714029
 20
25.0
 30
0.0
 11
71.0
 21
24.999999999999989
 31
0.0
  0
LINE
  5
173E
  8
250
 10
70.0
 20
22.769999999999989
 30
0.0
 11
70.0
 21
-4.5333333333333448
 31
0.0
  0
LINE
  5
1741
  8
250
 10
-0.0000000000005684
 20
24.0
 30
0.0
 11
-0.0000000000005672
 21
43.0
 31
0.0
  0
LINE
  5
1742
  8
250
 10
45.002600180092131
 20
14.65354007760318
 30
0.0
 11
45.002600180092131
 21
43.0
 31
0.0
  0
LINE
  5
1743
  8
250
 10
2.229999999999432
 20
42.0
 30
0.0
 11
42.772600180092141
 21
42.0
 31
0.0
  0
INSERT
  5
1746
  8
245
  2
*U4
 10
0.0
 20
0.0
 30
0.0
  0
LINE
  5
1747
  8
250
 10
-80.000000000000014
 20
15.056624327025929
 30
0.0
 11
-80.000000000000014
 21
43.0
 31
0.0
  0
LINE
  5
1748
  8
250
 10
0.0000025582168064
 20
24.0
 30
0.0
 11
0.0000025582168076
 21
43.0
 31
0.0
  0
LINE
  5
1749
  8
250
 10
-77.77000000000001
 20
42.0
 30
0.0
 11
-2.2299974417831918
 21
42.0
 31
0.0
  0
LINE
  5
174D
  8
250
 10
-78.366025403784363
 20
16.0
 30
0.0
 11
-99.0
 21
16.0
 31
0.0
  0
LINE
  5
174E
  8
250
 10
-78.232050807568839
 20
-16.0
 30
0.0
 11
-99.0
 21
-15.999999999999989
 31
0.0
  0
LINE
  5
174F
  8
250
 10
-98.0
 20
13.77
 30
0.0
 11
-98.0
 21
-13.77
 31
0.0
  0
INSERT
  5
1752
  8
245
  2
*U5
 10
0.0
 20
0.0
 30
0.0
  0
LINE
  5
1753
  8
250
 10
69.62833333333333
 20
22.769999999999989
 30
0.0
 11
70.0
 21
24.999999999999989
 31
0.0
  0
LINE
  5
1754
  8
250
 10
70.37166666666667
 20
22.769999999999989
 30
0.0
 11
70.0
 21
24.999999999999989
 31
0.0
  0
LINE
  5
1755
  8
250
 10
70.0
 20
24.999999999999989
 30
0.0
 11
70.0
 21
22.769999999999989
 31
0.0
  0
LINE
  5
1756
  8
250
 10
-2.2299974417831918
 20
42.371666666666663
 30
0.0
 11
0.0000025582168075
 21
42.0
 31
0.0
  0
LINE
  5
1757
  8
250
 10
-2.2299974417831918
 20
41.62833333333333
 30
0.0
 11
0.0000025582168075
 21
42.0
 31
0.0
  0
LINE
  5
1758
  8
250
 10
0.0000025582168075
 20
42.0
 30
0.0
 11
-2.2299974417831918
 21
42.0
 31
0.0
  0
LINE
  5
1759
  8
250
 10
42.772600180092141
 20
42.371666666666663
 30
0.0
 11
45.002600180092131
 21
42.0
 31
0.0
  0
LINE
  5
175A
  8
250
 10
42.772600180092141
 20
41.62833333333333
 30
0.0
 11
45.002600180092131
 21
42.0
 31
0.0
  0
LINE
  5
175B
  8
250
 10
45.002600180092131
 20
42.0
 30
0.0
 11
42.772600180092141
 21
42.0
 31
0.0
  0
LINE
  5
175C
  8
250
 10
2.229999999999432
 20
41.62833333333333
 30
0.0
 11
-0.0000000000005673
 21
42.0
 31
0.0
  0
LINE
  5
175D
  8
250
 10
2.229999999999432
 20
42.371666666666663
 30
0.0
 11
-0.0000000000005673
 21
42.0
 31
0.0
  0
LINE
  5
175E
  8
250
 10
-0.0000000000005673
 20
42.0
 30
0.0
 11
2.229999999999432
 21
42.0
 31
0.0
  0
LINE
  5
175F
  8
250
 10
-77.77000000000001
 20
41.62833333333333
 30
0.0
 11
-80.000000000000014
 21
42.0
 31
0.0
  0
LINE
  5
1760
  8
250
 10
-77.77000000000001
 20
42.371666666666663
 30
0.0
 11
-80.000000000000014
 21
42.0
 31
0.0
  0
LINE
  5
1761
  8
250
 10
-80.000000000000014
 20
42.0
 30
0.0
 11
-77.77000000000001
 21
42.0
 31
0.0
  0
LINE
  5
1762
  8
250
 10
-98.371666666666684
 20
13.77
 30
0.0
 11
-98.0
 21
16.0
 31
0.0
  0
LINE
  5
1763
  8
250
 10
-97.62833333333333
 20
13.77
 30
0.0
 11
-98.0
 21
16.0
 31
0.0
  0
LINE
  5
1764
  8
250
 10
-98.0
 20
16.0
 30
0.0
 11
-98.0
 21
13.77
 31
0.0
  0
LINE
  5
1765
  8
250
 10
-97.62833333333333
 20
-13.77
 30
0.0
 11
-98.0
 21
-15.999999999999989
 31
0.0
  0
LINE
  5
1766
  8
250
 10
-98.371666666666684
 20
-13.77
 30
0.0
 11
-98.0
 21
-15.999999999999989
 31
0.0
  0
LINE
  5
1767
  8
250
 10
-98.0
 20
-15.999999999999989
 30
0.0
 11
-98.0
 21
-13.77
 31
0.0
  0
TEXT
  5
1768
  8
250
 10
68.999999999999986
 20
-3.9333333333333331
 30
0.0
 40
2.7999999999999989
  1
\U+220550
 50
90.0
  0
TEXT
  5
1769
  8
250
 10
-42.666665387558268
 20
43.0
 30
0.0
 40
2.7999999999999989
  1
80
  0
VIEWPORT
  5
22
 67
     1
  8
0
 10
261.51769911504419
 20
148.5
 30
0.0
 40
523.0353982300885
 41
297.0
 68
     1
 69
     1
1001
ACAD
1000
MVIEW
1002
{
1070
    16
1010
0.0
1020
0.0
1030
0.0
1010
0.0
1020
0.0
1030
1.0
1040
0.0
1040
297.0
1040
261.51769911504419
1040
148.5
1040
50.0
1040
0.0
1040
0.0
1070
     0
1070
   100
1070
     1
1070
     1
1070
     0
1070
     0
1070
     0
1070
     0
1040
0.0
1040
0.0
1040
0.0
1040
1.0
1040
1.0
1040
10.0
1040
10.0
1070
     0
1002
{
1002
}
1002
}
1001
GENIUS_GENODEF_13
1002
{
1000
HIER
1070
     0
1002
}
1002
{
1000
MANEDIT
1070
     0
1002
}
1002
{
1000
NOSEL
1070
     0
1002
}
1002
{
1000
BEHIND
1070
     0
1002
}
1002
{
1000
OTHER
1070
     0
1002
}
1002
{
1000
REACTOR
1002
}
1001
GENIUS_GENOBJ-N-SDF_13
1002
{
1000
OWNER
1000
GEN
1002
}
1001
GENIUS_GENSCREG_15
1000
PF
1040
1.0
1000
DF
1040
1.0
1000
MIN
1011
0.0
1021
0.0
1031
0.0
1021
0.0
1031
0.0
1000
MAX
1011
523.0353982300885
1021
0.0
1031
0.0
1021
297.0
1031
0.0
1000
FLAGS
1070
     4
  0
ENDSEC
  0
EOF
