  0
SECTION
  2
HEADER
  9
$ACADVER
  1
AC1009
  9
$INSBASE
 10
0.0
 20
0.0
 30
0.0
  9
$EXTMIN
 10
-102.1261782042293
 20
-33.999999515671107
 30
0.0
  9
$EXTMAX
 10
85.000000000000014
 20
68.000000000000014
 30
0.0
  9
$LIMMIN
 10
0.0
 20
0.0
  9
$LIMMAX
 10
297.0
 20
210.0
  9
$ORTHOMODE
 70
     0
  9
$REGENMODE
 70
     1
  9
$FILLMODE
 70
     1
  9
$QTEXTMODE
 70
     0
  9
$MIRRTEXT
 70
     1
  9
$DRAGMODE
 70
     2
  9
$LTSCALE
 40
10.0
  9
$OSMODE
 70
  3071
  9
$ATTMODE
 70
     1
  9
$TEXTSIZE
 40
3.0
  9
$TRACEWID
 40
1.0
  9
$TEXTSTYLE
  7
YOKO
  9
$CLAYER
  8
245
  9
$CELTYPE
  6
BYLAYER
  9
$CECOLOR
 62
   256
  9
$DIMSCALE
 40
1.0
  9
$DIMASZ
 40
2.2299999999999991
  9
$DIMEXO
 40
0.5
  9
$DIMDLI
 40
7.0
  9
$DIMRND
 40
0.0
  9
$DIMDLE
 40
0.0
  9
$DIMEXE
 40
1.0
  9
$DIMTP
 40
0.0
  9
$DIMTM
 40
0.01
  9
$DIMTXT
 40
2.7999999999999989
  9
$DIMCEN
 40
0.0
  9
$DIMTSZ
 40
0.0
  9
$DIMTOL
 70
     0
  9
$DIMLIM
 70
     0
  9
$DIMTIH
 70
     0
  9
$DIMTOH
 70
     0
  9
$DIMSE1
 70
     0
  9
$DIMSE2
 70
     0
  9
$DIMTAD
 70
     3
  9
$DIMZIN
 70
     9
  9
$DIMBLK
  1
OPEN
  9
$DIMASO
 70
     1
  9
$DIMSHO
 70
     1
  9
$DIMPOST
  1

  9
$DIMAPOST
  1

  9
$DIMALT
 70
     0
  9
$DIMALTD
 70
     2
  9
$DIMALTF
 40
25.399999999999999
  9
$DIMLFAC
 40
1.0
  9
$DIMTOFL
 70
     1
  9
$DIMTVP
 40
0.0
  9
$DIMTIX
 70
     1
  9
$DIMSOXD
 70
     0
  9
$DIMSAH
 70
     0
  9
$DIMBLK1
  1

  9
$DIMBLK2
  1

  9
$DIMSTYLE
  2
BIGT
  9
$DIMCLRD
 70
   256
  9
$DIMCLRE
 70
   256
  9
$DIMCLRT
 70
    40
  9
$DIMTFAC
 40
1.0
  9
$DIMGAP
 40
1.0
  9
$LUNITS
 70
     2
  9
$LUPREC
 70
     3
  9
$SKETCHINC
 40
1.0
  9
$FILLETRAD
 40
4.0
  9
$AUNITS
 70
     0
  9
$AUPREC
 70
     3
  9
$MENU
  1
.
  9
$ELEVATION
 40
0.0
  9
$PELEVATION
 40
0.0
  9
$THICKNESS
 40
0.0
  9
$LIMCHECK
 70
     0
  9
$BLIPMODE
 70
     0
  9
$CHAMFERA
 40
0.25
  9
$CHAMFERB
 40
0.25
  9
$SKPOLY
 70
     0
  9
$TDCREATE
 40
2455812.4942841898
  9
$TDUPDATE
 40
2455812.5568085532
  9
$TDINDWG
 40
0.0324471412
  9
$TDUSRTIMER
 40
0.0324471412
  9
$USRTIMER
 70
     1
  9
$ANGBASE
 50
0.0
  9
$ANGDIR
 70
     0
  9
$PDMODE
 70
     1
  9
$PDSIZE
 40
0.0
  9
$PLINEWID
 40
0.0
  9
$COORDS
 70
     1
  9
$SPLFRAME
 70
     0
  9
$SPLINETYPE
 70
     6
  9
$SPLINESEGS
 70
     4
  9
$ATTDIA
 70
     1
  9
$ATTREQ
 70
     1
  9
$HANDLING
 70
     1
  9
$HANDSEED
  5
18BE
  9
$SURFTAB1
 70
     6
  9
$SURFTAB2
 70
     6
  9
$SURFTYPE
 70
     6
  9
$SURFU
 70
     6
  9
$SURFV
 70
     6
  9
$UCSNAME
  2

  9
$UCSORG
 10
0.0
 20
0.0
 30
0.0
  9
$UCSXDIR
 10
1.0
 20
0.0
 30
0.0
  9
$UCSYDIR
 10
0.0
 20
1.0
 30
0.0
  9
$PUCSNAME
  2

  9
$PUCSORG
 10
0.0
 20
0.0
 30
0.0
  9
$PUCSXDIR
 10
1.0
 20
0.0
 30
0.0
  9
$PUCSYDIR
 10
0.0
 20
1.0
 30
0.0
  9
$USERI1
 70
     1
  9
$USERI2
 70
     0
  9
$USERI3
 70
     0
  9
$USERI4
 70
     0
  9
$USERI5
 70
     0
  9
$USERR1
 40
0.0
  9
$USERR2
 40
0.0
  9
$USERR3
 40
0.0
  9
$USERR4
 40
0.0
  9
$USERR5
 40
0.0
  9
$WORLDVIEW
 70
     1
  9
$SHADEDGE
 70
     3
  9
$SHADEDIF
 70
    70
  9
$TILEMODE
 70
     1
  9
$MAXACTVP
 70
    16
  9
$PLIMCHECK
 70
     0
  9
$PEXTMIN
 10
1.0000000000000000E+020
 20
1.0000000000000000E+020
 30
1.0000000000000000E+020
  9
$PEXTMAX
 10
-1.0000000000000000E+020
 20
-1.0000000000000000E+020
 30
-1.0000000000000000E+020
  9
$PLIMMIN
 10
-20.0
 20
-7.5
  9
$PLIMMAX
 10
277.0
 20
202.5
  9
$UNITMODE
 70
     0
  9
$VISRETAIN
 70
     1
  9
$PLINEGEN
 70
     0
  9
$PSLTSCALE
 70
     1
  0
ENDSEC
  0
SECTION
  2
TABLES
  0
TABLE
  2
VPORT
 70
     1
  0
VPORT
  2
*ACTIVE
 70
     0
 10
0.0
 20
0.0
 11
1.0
 21
1.0
 12
-8.5629496256156852
 22
17.000656514429352
 13
0.0
 23
0.0
 14
7.0
 24
7.0
 15
7.0
 25
7.0
 16
0.0
 26
0.0
 36
1.0
 17
0.0
 27
0.0
 37
0.0
 40
102.8491931458106
 41
1.8471023427866831
 42
50.0
 43
0.0
 44
0.0
 50
0.0
 51
0.0
 71
     0
 72
  2000
 73
     1
 74
     0
 75
     0
 76
     1
 77
     0
 78
     0
  0
ENDTAB
  0
TABLE
  2
LTYPE
 70
    14
  0
LTYPE
  2
CONTINUOUS
 70
     0
  3
Solid line
 72
    65
 73
     0
 40
0.0
  0
LTYPE
  2
CENTER2
 70
     0
  3
___ _ ___ _ ___ _ ___ _ ___ _ ___ _ ___ _ ___ _
 72
    65
 73
     4
 40
1.125
 49
0.75
 49
-0.125
 49
0.125
 49
-0.125
  0
LTYPE
  2
HIDDEN2
 70
     0
  3
_ _ _ _ _ _ _ _ _ _ _ _ _ _ _ _ _ _ _ _ _ _ _ _
 72
    65
 73
     2
 40
0.1875
 49
0.125
 49
-0.0625
  0
LTYPE
  2
PHANTOM2
 70
     0
  3
___ _ _ ___ _ _ ___ _ _ ___ _ _ ___ _ _ ___ _ _
 72
    65
 73
     6
 40
1.25
 49
0.625
 49
-0.125
 49
0.125
 49
-0.125
 49
0.125
 49
-0.125
  0
LTYPE
  2
CENTER
 70
     0
  3
____ _ ____ _ ____ _ ____ _ ____ _ ____ _ ____ 
 72
    65
 73
     4
 40
2.0
 49
1.25
 49
-0.25
 49
0.25
 49
-0.25
  0
LTYPE
  2
AM_ISO02W050
 70
     0
  3
__ __ __ __ __ __ __ __ __ __ __ __ __ __ __
 72
    65
 73
     2
 40
7.5
 49
6.0
 49
-1.5
  0
LTYPE
  2
AMCONSTR
 70
     0
  3
_______________________
 72
    65
 73
     2
 40
9999.0
 49
9999.0
 49
0.0
  0
LTYPE
  2
ACISOWELD
 70
     0
  3
_ _ _ _ _
 72
    65
 73
     2
 40
2.0
 49
2.0
 49
-1.0
  0
LTYPE
  2
ACISOTGB
 70
     0
  3
__ . . __ . .
 72
    65
 73
     6
 40
9.0
 49
4.0
 49
-1.0
 49
1.0
 49
-1.0
 49
1.0
 49
-1.0
  0
LTYPE
  2
ACISOTGL
 70
     0
  3
_ _ _ _ _
 72
    65
 73
     2
 40
3.0
 49
2.0
 49
-1.0
  0
LTYPE
  2
ACJISTGB
 70
     0
  3
__ . . __ . .
 72
    65
 73
     6
 40
9.0
 49
4.0
 49
-1.0
 49
1.0
 49
-1.0
 49
1.0
 49
-1.0
  0
LTYPE
  2
ACJISTGL
 70
     0
  3
_ _ _ _ _
 72
    65
 73
     2
 40
3.0
 49
2.0
 49
-1.0
  0
LTYPE
  2
HIDDEN
 70
     0
  3
Hidden __ __ __ __ __ __ __ __ __ __ __ __ __ _
 72
    65
 73
     2
 40
9.5249999999999986
 49
6.3499999999999988
 49
-3.1749999999999989
  0
LTYPE
  2
CENTERX2
 70
     0
  3
________  __  ________  __  ________  __  _____
 72
    65
 73
     4
 40
4.0
 49
2.5
 49
-0.5
 49
0.5
 49
-0.5
  0
ENDTAB
  0
TABLE
  2
LAYER
 70
     6
  0
LAYER
  2
0
 70
     0
 62
     7
  6
CONTINUOUS
  0
LAYER
  2
DEFPOINTS
 70
     0
 62
     7
  6
CONTINUOUS
  0
LAYER
  2
245
 70
     0
 62
     2
  6
CENTER2
  0
LAYER
  2
240
 70
     0
 62
     4
  6
CONTINUOUS
  0
LAYER
  2
241
 70
     0
 62
   211
  6
CONTINUOUS
  0
LAYER
  2
250
 70
     0
 62
     3
  6
CONTINUOUS
  0
ENDTAB
  0
TABLE
  2
STYLE
 70
     6
  0
STYLE
  2
STANDARD
 70
     0
 40
0.0
 41
1.0
 50
0.0
 71
     0
 42
3.0
  3
romans.shx
  4
extfont.shx
  0
STYLE
  2
ACISOTS
 70
     0
 40
1.0
 41
1.0
 50
0.0
 71
     0
 42
3.0
  3
amgdt.shx
  4
extfont.shx
  0
STYLE
  2
ACISOGDT
 70
     0
 40
0.0
 41
1.0
 50
0.0
 71
     0
 42
3.0
  3
amgdt.shx
  4
extfont.shx
  0
STYLE
  2
ACJISTS
 70
     0
 40
1.0
 41
1.0
 50
0.0
 71
     0
 42
3.0
  3
amgdt.shx
  4
extfont.shx
  0
STYLE
  2
ACJISGDT
 70
     0
 40
0.0
 41
1.0
 50
0.0
 71
     0
 42
3.0
  3
amgdt.shx
  4
extfont.shx
  0
STYLE
  2
YOKO
 70
     0
 40
0.0
 41
1.0
 50
0.0
 71
     0
 42
3.0
  3
romans.shx
  4
extfont.shx
  0
ENDTAB
  0
TABLE
  2
VIEW
 70
     0
  0
ENDTAB
  0
TABLE
  2
UCS
 70
     0
  0
ENDTAB
  0
TABLE
  2
APPID
 70
    33
  0
APPID
  2
ACAD
 70
     0
  0
APPID
  2
GLOBAL
 70
     0
  0
APPID
  2
DETAIL
 70
     0
  0
APPID
  2
GRPNAME
 70
     0
  0
APPID
  2
GPARA
 70
     0
  0
APPID
  2
MCAD_NO_VIS
 70
     0
  0
APPID
  2
ACAD_TEMP_GRAPHIC
 70
     0
  0
APPID
  2
ACATTRIBSERVICES
 70
     0
  0
APPID
  2
GENIUS_GENSCREG_15
 70
     0
  0
APPID
  2
GENIUS_GENODEF_13
 70
     0
  0
APPID
  2
GENIUS_GENOBJ-N-SDF_13
 70
     0
  0
APPID
  2
GENIUS_GENREC_14
 70
     0
  0
APPID
  2
GENIUS_GENOBJ-N-REC_13
 70
     0
  0
APPID
  2
GENIUS_GENDIMSH_14
 70
     0
  0
APPID
  2
GENIUS_GENOBJ-N-DIM_13
 70
     0
  0
APPID
  2
GENIUS_GENDIM_13
 70
     0
  0
APPID
  2
GENIUS_GENDTOL_13
 70
     0
  0
APPID
  2
GENIUS_GENOLIS_13
 70
     0
  0
APPID
  2
GENIUS_GENOENT_13
 70
     0
  0
APPID
  2
GENIUS_GENOBJ-F-FEM_13
 70
     0
  0
APPID
  2
GENIUS_GENOREF_13
 70
     0
  0
APPID
  2
GENIUS_GEFFEM_13
 70
     0
  0
APPID
  2
GENIUS_GEFFEMP_13
 70
     0
  0
APPID
  2
AD_DRAW
 70
     0
  0
APPID
  2
DESIGNERASSEMBLIES
 70
     0
  0
APPID
  2
ACADM_DIM_EDIT
 70
     0
  0
APPID
  2
AMDT_DM_ADJ
 70
     0
  0
APPID
  2
ACAD_EXEMPT_FROM_CAD_STANDARDS
 70
     0
  0
APPID
  2
ACAD_PSEXT
 70
     0
  0
APPID
  2
GENIUS_GENOBJ-N-FIL_13
 70
     0
  0
APPID
  2
ACAD_DSTYLE_DIMINSPECT
 70
     0
  0
APPID
  2
ACAECLAYERSTANDARD
 70
     0
  0
APPID
  2
ACAD_MLEADERVER
 70
     0
  0
ENDTAB
  0
TABLE
  2
DIMSTYLE
 70
    23
  0
DIMSTYLE
  2
BIGT
 70
     0
  3

  4

  5
OPEN
  6

  7

 40
1.0
 41
2.2299999999999991
 42
0.5
 43
7.0
 44
1.0
 45
0.0
 46
0.0
 47
0.0
 48
0.01
140
2.7999999999999989
141
0.0
142
0.0
143
25.399999999999999
144
1.0
145
0.0
146
1.0
147
1.0
 71
     0
 72
     0
 73
     0
 74
     0
 75
     0
 76
     0
 77
     3
 78
     9
170
     0
171
     2
172
     1
173
     0
174
     1
175
     0
176
   256
177
   256
178
    40
  0
DIMSTYLE
  2
AM_ISO
 70
     0
  3

  4
"
  5

  6

  7

 40
1.0
 41
2.5
 42
1.0
 43
10.0
 44
1.0
 45
0.0
 46
0.0
 47
0.1
 48
0.1
140
3.5
141
0.0
142
0.0
143
0.0393701
144
1.0
145
0.0
146
0.71
147
1.5
 71
     0
 72
     0
 73
     0
 74
     0
 75
     0
 76
     0
 77
     1
 78
     8
170
     0
171
     2
172
     1
173
     0
174
     0
175
     0
176
   256
177
   256
178
     2
  0
DIMSTYLE
  2
AM_ISO$3
 70
     0
  3

  4
"
  5

  6

  7

 40
1.0
 41
2.5
 42
1.0
 43
10.0
 44
1.0
 45
0.0
 46
0.0
 47
0.1
 48
0.1
140
3.5
141
0.0
142
0.0
143
0.0393701
144
1.0
145
0.0
146
0.71
147
1.5
 71
     0
 72
     0
 73
     0
 74
     1
 75
     0
 76
     0
 77
     1
 78
     8
170
     0
171
     2
172
     0
173
     0
174
     0
175
     0
176
   256
177
   256
178
     2
  0
DIMSTYLE
  2
AM_ISO$4
 70
     0
  3

  4
"
  5

  6

  7

 40
1.0
 41
2.5
 42
1.0
 43
10.0
 44
1.0
 45
0.0
 46
0.0
 47
0.1
 48
0.1
140
3.5
141
0.0
142
0.0
143
0.0393701
144
1.0
145
0.0
146
0.71
147
1.5
 71
     0
 72
     0
 73
     0
 74
     1
 75
     0
 76
     0
 77
     1
 78
     8
170
     0
171
     2
172
     0
173
     0
174
     0
175
     0
176
   256
177
   256
178
     2
  0
DIMSTYLE
  2
AM_ISO$6
 70
     0
  3

  4
"
  5

  6

  7

 40
1.0
 41
2.5
 42
1.0
 43
10.0
 44
1.0
 45
0.0
 46
0.0
 47
0.1
 48
0.1
140
3.5
141
0.0
142
0.0
143
0.0393701
144
1.0
145
0.0
146
0.71
147
1.5
 71
     0
 72
     0
 73
     0
 74
     0
 75
     0
 76
     0
 77
     0
 78
     8
170
     0
171
     2
172
     1
173
     0
174
     0
175
     0
176
   256
177
   256
178
     2
  0
DIMSTYLE
  2
AM_ISO$7
 70
     0
  3

  4
"
  5

  6

  7

 40
1.0
 41
2.5
 42
1.0
 43
10.0
 44
1.0
 45
0.0
 46
0.0
 47
0.1
 48
0.1
140
5.0
141
0.0
142
0.0
143
0.0393701
144
1.0
145
0.0
146
0.71
147
1.5
 71
     0
 72
     0
 73
     0
 74
     0
 75
     0
 76
     0
 77
     1
 78
     8
170
     0
171
     2
172
     1
173
     0
174
     0
175
     0
176
   256
177
   256
178
     2
  0
DIMSTYLE
  2
AM_ISO$SF
 70
     0
  3

  4
"
  5

  6

  7

 40
1.0
 41
2.5
 42
1.0
 43
10.0
 44
1.0
 45
0.0
 46
0.0
 47
0.1
 48
0.1
140
3.5
141
0.0
142
0.0
143
0.0393701
144
1.0
145
0.0
146
0.71
147
1.5
 71
     0
 72
     0
 73
     0
 74
     0
 75
     1
 76
     1
 77
     1
 78
     8
170
     0
171
     2
172
     1
173
     0
174
     0
175
     0
176
   256
177
   256
178
     2
  0
DIMSTYLE
  2
AM_ISO$SH
 70
     0
  3

  4
"
  5

  6
GENAXEH
  7

 40
1.0
 41
2.5
 42
1.0
 43
10.0
 44
1.0
 45
0.0
 46
0.0
 47
0.1
 48
0.1
140
3.5
141
0.0
142
0.0
143
0.0393701
144
2.0
145
0.0
146
0.71
147
1.5
 71
     0
 72
     0
 73
     0
 74
     0
 75
     1
 76
     1
 77
     1
 78
     8
170
     0
171
     2
172
     1
173
     1
174
     0
175
     0
176
   256
177
   256
178
     2
  0
DIMSTYLE
  2
BIGT$2
 70
     0
  3

  4

  5
OPEN
  6

  7

 40
1.0
 41
2.2299999999999991
 42
0.5
 43
7.0
 44
1.0
 45
0.0
 46
0.0
 47
0.0
 48
0.01
140
2.7999999999999989
141
0.0
142
0.0
143
25.399999999999999
144
1.0
145
0.0
146
1.0
147
1.0
 71
     0
 72
     0
 73
     0
 74
     0
 75
     0
 76
     0
 77
     3
 78
     9
170
     0
171
     2
172
     1
173
     0
174
     0
175
     0
176
   256
177
   256
178
    40
  0
DIMSTYLE
  2
BIGT$3
 70
     0
  3

  4

  5
OPEN
  6

  7

 40
1.0
 41
2.2299999999999991
 42
0.5
 43
2.5
 44
1.0
 45
0.0
 46
0.0
 47
0.0
 48
0.01
140
2.7999999999999989
141
0.0
142
0.0
143
25.399999999999999
144
1.0
145
0.0
146
1.0
147
1.0
 71
     0
 72
     0
 73
     0
 74
     0
 75
     0
 76
     0
 77
     3
 78
     9
170
     0
171
     2
172
     1
173
     0
174
     0
175
     0
176
   256
177
   256
178
    40
  0
DIMSTYLE
  2
BIGT$7
 70
     0
  3

  4

  5
OPEN
  6

  7

 40
0.0
 41
2.2299999999999991
 42
0.5
 43
7.0
 44
1.0
 45
0.0
 46
0.0
 47
0.0
 48
0.01
140
2.7999999999999989
141
0.0
142
0.0
143
25.399999999999999
144
1.0
145
0.0
146
1.0
147
1.0
 71
     0
 72
     0
 73
     0
 74
     0
 75
     0
 76
     0
 77
     3
 78
     9
170
     0
171
     2
172
     0
173
     0
174
     0
175
     0
176
   256
177
   256
178
    40
  0
DIMSTYLE
  2
BIGT$6
 70
     0
  3

  4

  5
OPEN
  6

  7

 40
1.0
 41
2.2299999999999991
 42
0.5
 43
2.5
 44
1.0
 45
0.0
 46
0.0
 47
0.0
 48
0.01
140
2.7999999999999989
141
0.0
142
0.0
143
25.399999999999999
144
1.0
145
0.0
146
1.0
147
1.0
 71
     0
 72
     0
 73
     0
 74
     0
 75
     0
 76
     0
 77
     3
 78
     9
170
     0
171
     2
172
     1
173
     0
174
     0
175
     0
176
   256
177
   256
178
    40
  0
DIMSTYLE
  2
BIGT$0
 70
     0
  3

  4

  5
OPEN
  6

  7

 40
1.0
 41
2.2299999999999991
 42
0.5
 43
7.0
 44
1.0
 45
0.0
 46
0.0
 47
0.0
 48
0.01
140
2.7999999999999989
141
0.0
142
0.0
143
25.399999999999999
144
1.0
145
0.0
146
1.0
147
1.0
 71
     0
 72
     0
 73
     0
 74
     0
 75
     0
 76
     0
 77
     3
 78
     9
170
     0
171
     2
172
     1
173
     0
174
     0
175
     0
176
   256
177
   256
178
    40
  0
DIMSTYLE
  2
BIGT$4
 70
     0
  3

  4

  5
OPEN
  6

  7

 40
1.0
 41
2.2299999999999991
 42
0.5
 43
2.5
 44
1.0
 45
0.0
 46
0.0
 47
0.0
 48
0.01
140
2.7999999999999989
141
0.0
142
0.0
143
25.399999999999999
144
1.0
145
0.0
146
1.0
147
1.0
 71
     0
 72
     0
 73
     0
 74
     0
 75
     0
 76
     0
 77
     3
 78
     9
170
     0
171
     2
172
     1
173
     0
174
     0
175
     0
176
   256
177
   256
178
    40
  0
DIMSTYLE
  2
BIGT$SH
 70
     0
  3

  4

  5
OPEN
  6

  7

 40
1.0
 41
2.2299999999999991
 42
0.5
 43
7.0
 44
1.0
 45
0.0
 46
0.0
 47
0.0
 48
0.0
140
2.7999999999999989
141
0.0
142
0.0
143
25.399999999999999
144
1.0
145
0.0
146
1.0
147
1.0
 71
     0
 72
     0
 73
     0
 74
     0
 75
     0
 76
     0
 77
     3
 78
     9
170
     0
171
     2
172
     1
173
     0
174
     0
175
     0
176
   256
177
   256
178
    40
  0
DIMSTYLE
  2
BIGT$SF
 70
     0
  3

  4

  5
OPEN
  6

  7

 40
1.0
 41
2.2299999999999991
 42
0.5
 43
7.0
 44
1.0
 45
0.0
 46
0.0
 47
0.0
 48
0.0
140
2.7999999999999989
141
0.0
142
0.0
143
25.399999999999999
144
1.0
145
0.0
146
1.0
147
1.0
 71
     0
 72
     0
 73
     0
 74
     0
 75
     0
 76
     0
 77
     3
 78
     9
170
     0
171
     2
172
     1
173
     0
174
     0
175
     0
176
   256
177
   256
178
    40
  0
DIMSTYLE
  2
TECHNICAL_OSAKA
 70
     0
  3

  4
"
  5
OPEN30
  6

  7

 40
1.0
 41
2.5
 42
1.0
 43
10.0
 44
1.0
 45
0.0
 46
0.0
 47
0.1
 48
0.1
140
2.7999999999999989
141
0.0
142
0.0
143
0.0393701
144
1.0
145
0.0
146
0.71
147
1.5
 71
     0
 72
     0
 73
     0
 74
     0
 75
     0
 76
     0
 77
     3
 78
     8
170
     0
171
     2
172
     1
173
     0
174
     0
175
     0
176
   256
177
   256
178
    40
  0
DIMSTYLE
  2
TECHNICAL_OSAKA$3
 70
     0
  3

  4
"
  5
OPEN30
  6

  7

 40
1.0
 41
2.5
 42
1.0
 43
10.0
 44
1.0
 45
0.0
 46
0.0
 47
0.1
 48
0.1
140
2.7999999999999989
141
0.0
142
0.0
143
0.0393701
144
1.0
145
0.0
146
0.71
147
1.5
 71
     0
 72
     0
 73
     0
 74
     1
 75
     0
 76
     0
 77
     3
 78
     8
170
     0
171
     2
172
     0
173
     0
174
     0
175
     0
176
   256
177
   256
178
    40
  0
DIMSTYLE
  2
TECHNICAL_OSAKA$4
 70
     0
  3

  4
"
  5
OPEN30
  6

  7

 40
1.0
 41
2.5
 42
1.0
 43
10.0
 44
1.0
 45
0.0
 46
0.0
 47
0.1
 48
0.1
140
2.7999999999999989
141
0.0
142
0.0
143
0.0393701
144
1.0
145
0.0
146
0.71
147
1.5
 71
     0
 72
     0
 73
     0
 74
     1
 75
     0
 76
     0
 77
     3
 78
     8
170
     0
171
     2
172
     0
173
     0
174
     0
175
     0
176
   256
177
   256
178
    40
  0
DIMSTYLE
  2
TECHNICAL_OSAKA$6
 70
     0
  3

  4
"
  5
OPEN30
  6

  7

 40
1.0
 41
2.5
 42
1.0
 43
10.0
 44
1.0
 45
0.0
 46
0.0
 47
0.1
 48
0.1
140
2.7999999999999989
141
0.0
142
0.0
143
0.0393701
144
1.0
145
0.0
146
0.71
147
1.5
 71
     0
 72
     0
 73
     0
 74
     0
 75
     0
 76
     0
 77
     0
 78
     8
170
     0
171
     2
172
     1
173
     0
174
     0
175
     0
176
   256
177
   256
178
    40
  0
DIMSTYLE
  2
TECHNICAL_OSAKA$7
 70
     0
  3

  4
"
  5
OPEN30
  6

  7

 40
1.0
 41
2.5
 42
1.0
 43
10.0
 44
1.0
 45
0.0
 46
0.0
 47
0.1
 48
0.1
140
2.7999999999999989
141
0.0
142
0.0
143
0.0393701
144
1.0
145
0.0
146
0.71
147
1.5
 71
     0
 72
     0
 73
     0
 74
     0
 75
     0
 76
     0
 77
     3
 78
     8
170
     0
171
     2
172
     1
173
     0
174
     0
175
     0
176
   256
177
   256
178
    40
  0
DIMSTYLE
  2
TECHNICAL_OSAKA$SF
 70
     0
  3

  4
"
  5
OPEN30
  6
OPEN30
  7
OPEN30
 40
1.0
 41
2.5
 42
1.0
 43
10.0
 44
1.0
 45
0.0
 46
0.0
 47
0.1
 48
0.1
140
3.5
141
0.0
142
0.0
143
0.0393701
144
1.0
145
0.0
146
0.71
147
1.5
 71
     0
 72
     0
 73
     0
 74
     0
 75
     1
 76
     1
 77
     3
 78
     8
170
     0
171
     2
172
     1
173
     0
174
     0
175
     0
176
   256
177
   256
178
    40
  0
DIMSTYLE
  2
TECHNICAL_OSAKA$SH
 70
     0
  3

  4
"
  5
OPEN30
  6
GENAXEH
  7
OPEN30
 40
1.0
 41
2.5
 42
1.0
 43
10.0
 44
1.0
 45
0.0
 46
0.0
 47
0.1
 48
0.1
140
3.5
141
0.0
142
0.0
143
0.0393701
144
2.0
145
0.0
146
0.71
147
1.5
 71
     0
 72
     0
 73
     0
 74
     0
 75
     1
 76
     1
 77
     3
 78
     8
170
     0
171
     2
172
     1
173
     1
174
     0
175
     0
176
   256
177
   256
178
    40
  0
ENDTAB
  0
ENDSEC
  0
SECTION
  2
BLOCKS
  0
BLOCK
  8
0
  2
$MODEL_SPACE
 70
     0
 10
0.0
 20
0.0
 30
0.0
  3
$MODEL_SPACE
  1

  0
ENDBLK
  5
1C
  8
0
  0
BLOCK
 67
     1
  8
0
  2
$PAPER_SPACE
 70
     0
 10
0.0
 20
0.0
 30
0.0
  3
$PAPER_SPACE
  1

  0
ENDBLK
  5
19
 67
     1
  8
0
  0
BLOCK
  8
0
  2
_OPEN
 70
     0
 10
0.0
 20
0.0
 30
0.0
  3
_OPEN
  1

  0
LINE
  5
17F7
  8
0
  6
BYBLOCK
 62
     0
 10
-1.0
 20
0.1666666666666666
 30
0.0
 11
0.0
 21
0.0
 31
0.0
  0
LINE
  5
17F8
  8
0
  6
BYBLOCK
 62
     0
 10
-1.0
 20
-0.1666666666666666
 30
0.0
 11
0.0
 21
0.0
 31
0.0
  0
LINE
  5
17F9
  8
0
  6
BYBLOCK
 62
     0
 10
0.0
 20
0.0
 30
0.0
 11
-1.0
 21
0.0
 31
0.0
  0
ENDBLK
  5
17FA
  8
0
  0
BLOCK
  8
0
  2
GENAXEH
 70
     0
 10
0.0
 20
0.0
 30
0.0
  3
GENAXEH
  1

  0
LINE
  5
1825
  8
0
 10
-1.0
 20
0.0
 30
0.0
 11
1.0
 21
0.0
 31
0.0
  0
ENDBLK
  5
1826
  8
0
  0
BLOCK
  8
0
  2
_OPEN30
 70
     0
 10
0.0
 20
0.0
 30
0.0
  3
_OPEN30
  1

  0
LINE
  5
184F
  8
0
  6
BYBLOCK
 62
     0
 10
-1.0
 20
0.26794919
 30
0.0
 11
0.0
 21
0.0
 31
0.0
  0
LINE
  5
1850
  8
0
  6
BYBLOCK
 62
     0
 10
0.0
 20
0.0
 30
0.0
 11
-1.0
 21
-0.26794919
 31
0.0
  0
LINE
  5
1851
  8
0
  6
BYBLOCK
 62
     0
 10
0.0
 20
0.0
 30
0.0
 11
-1.0
 21
0.0
 31
0.0
  0
ENDBLK
  5
1852
  8
0
  0
BLOCK
  8
0
  2
*U4
 70
     1
 10
0.0
 20
0.0
 30
0.0
  3
*U4
  1

  0
TEXT
  5
18B7
  8
250
 10
21.333333333333321
 20
50.0
 30
0.0
 40
2.7999999999999989
  1
48
  0
ENDBLK
  5
18B9
  8
0
  0
BLOCK
  8
0
  2
*U5
 70
     1
 10
0.0
 20
0.0
 30
0.0
  3
*U5
  1

  0
TEXT
  5
18BB
  8
250
 10
-42.666666666666657
 20
50.0
 30
0.0
 40
2.7999999999999989
  1
80
  0
ENDBLK
  5
18BD
  8
0
  0
ENDSEC
  0
SECTION
  2
ENTITIES
  0
ARC
  5
14A6
  8
240
  6
CONTINUOUS
 10
13.00000000000011
 20
31.000000484329799
 30
0.0
 40
3.0
 50
90.0
 51
180.0
  0
ARC
  5
14A7
  8
240
  6
CONTINUOUS
 10
13.0
 20
-30.999999515670311
 30
0.0
 40
3.0
 50
180.0
 51
270.0
  0
LINE
  5
14A9
  8
240
  6
CONTINUOUS
 10
13.00000000000011
 20
34.000000484329242
 30
0.0
 11
30.161303514762182
 21
34.000000484330712
 31
0.0
  0
ARC
  5
14AA
  8
240
  6
CONTINUOUS
 10
0.5
 20
-23.999999515670311
 30
0.0
 40
0.5
 50
180.0
 51
270.0
  0
ARC
  5
14AB
  8
240
  6
CONTINUOUS
 10
0.5
 20
24.00000048432981
 30
0.0
 40
0.5
 50
90.0
 51
180.0
  0
LINE
  5
14AC
  8
240
  6
CONTINUOUS
 10
0.5
 20
-24.499999515670311
 30
0.0
 11
10.000000000000011
 21
-24.499999515670311
 31
0.0
  0
LINE
  5
14AD
  8
240
  6
CONTINUOUS
 10
10.000000000000099
 20
24.500000484329799
 30
0.0
 11
0.5
 21
24.500000484329799
 31
0.0
  0
LINE
  5
14AE
  8
240
  6
CONTINUOUS
 10
-77.732050807568839
 20
-15.999999515670201
 30
0.0
 11
0.0
 21
-15.999999515670201
 31
0.0
  0
LINE
  5
14AF
  8
240
  6
CONTINUOUS
 10
0.0
 20
16.000000484329799
 30
0.0
 11
-77.866025403784363
 21
16.000000484329799
 31
0.0
  0
LINE
  5
14B0
  8
241
  6
CONTINUOUS
 10
30.163472729575521
 20
-33.996322846289452
 30
0.0
 11
30.163472729575581
 21
10.07251667536546
 31
0.0
  0
ARC
  5
14B2
  8
241
  6
CONTINUOUS
 10
38.27442389721017
 20
12.023937155331049
 30
0.0
 40
8.0000000000098357
 50
210.00000000001509
 51
234.79111384715361
  0
LINE
  5
14B3
  8
241
  6
CONTINUOUS
 10
33.661951558133119
 20
5.4874932504691403
 30
0.0
 11
33.661951558133133
 21
-31.935324075556199
 31
0.0
  0
LINE
  5
14B5
  8
240
  6
CONTINUOUS
 10
10.0
 20
-30.999999507290909
 30
0.0
 11
10.000000000000011
 21
-24.499999515670311
 31
0.0
  0
LINE
  5
14B9
  8
241
  6
CONTINUOUS
 10
19.834948479932841
 20
27.962045442954039
 30
0.0
 11
31.346220666926509
 21
8.0239371553263759
 31
0.0
  0
LINE
  5
14BD
  8
240
  6
CONTINUOUS
 10
33.659902030517031
 20
-31.939022059521601
 30
0.0
 11
47.387100597024762
 21
-7.1708951068138891
 31
0.0
  0
LINE
  5
14BE
  8
241
  6
CONTINUOUS
 10
37.577177955221998
 20
4.0543795705899583
 30
0.0
 11
47.76315171020854
 21
3.1632223585747852
 31
0.0
  0
ARC
  5
14C1
  8
241
  6
CONTINUOUS
 10
38.274423897202553
 20
12.0239371553215
 30
0.0
 40
7.9999999999975762
 50
234.79111384715361
 51
265.00000000000028
  0
LINE
  5
14C3
  8
240
  6
CONTINUOUS
 10
47.76315171020866
 20
5.7359046880209341
 30
0.0
 11
47.76315171020866
 21
-5.7166281989258891
 31
0.0
  0
ARC
  5
14D2
  8
240
  6
CONTINUOUS
 10
44.812180631019771
 20
5.7157697044530087
 30
0.0
 40
2.9510397706185691
 50
0.0755065891976021
 51
21.921808773517419
  0
LINE
  5
14D5
  8
240
  6
CONTINUOUS
 10
33.659902030517273
 20
31.93902302818076
 30
0.0
 11
36.446169053273081
 21
26.911732499131752
 31
0.0
  0
LINE
  5
14DD
  8
241
  6
CONTINUOUS
 10
13.00000000000011
 20
34.00000048432981
 30
0.0
 11
13.0
 21
-33.999999515670311
 31
0.0
  0
ARC
  5
14DF
  8
240
  6
CONTINUOUS
 10
-77.866025403784363
 20
15.500000484329799
 30
0.0
 40
0.5
 50
90.0
 51
120.0000000000005
  0
LINE
  5
14E0
  8
240
  6
CONTINUOUS
 10
-79.749999999999943
 20
14.98963751324788
 30
0.0
 11
-78.116025403784363
 21
15.933013186221951
 31
0.0
  0
ARC
  5
14E1
  8
240
  6
CONTINUOUS
 10
-79.499999999999943
 20
14.55662481135573
 30
0.0
 40
0.5000000000000165
 50
120.0000000000005
 51
180.0
  0
ARC
  5
14E2
  8
240
  6
CONTINUOUS
 10
-77.732050807568839
 20
-14.99999951567019
 30
0.0
 40
0.9999999999999902
 50
239.99999995886191
 51
270.0
1001
GRPNAME
1000
PASTMD02
  0
ARC
  5
14E3
  8
240
  6
CONTINUOUS
 10
-79.0
 20
-14.267948708101301
 30
0.0
 40
1.0
 50
179.99999999485411
 51
239.99999999485891
1001
GRPNAME
1000
PASTMD02
  0
LINE
  5
14E5
  8
240
  6
CONTINUOUS
 10
-79.499999999999943
 20
-15.13397411188577
 30
0.0
 11
-78.232050807568839
 21
-15.86602491945462
 31
0.0
1001
GRPNAME
1000
PASTMD0D
  0
LINE
  5
14E6
  8
240
  6
CONTINUOUS
 10
-80.0
 20
-14.267948708101301
 30
0.0
 11
-80.0
 21
14.55662481135573
 31
0.0
1001
GRPNAME
1000
PASTMD0D
  0
LINE
  5
14EA
  8
241
  6
CONTINUOUS
 10
0.0
 20
-15.999999515670201
 30
0.0
 11
0.0
 21
16.00000048432981
 31
0.0
1001
GRPNAME
1000
PASTMD0D
  0
LINE
  5
14EB
  8
241
  6
CONTINUOUS
 10
-77.999999999999943
 20
-15.963432559672469
 30
0.0
 11
-77.999999999999943
 21
15.981717006330941
 31
0.0
1001
GRPNAME
1000
PASTMD0D
  0
LINE
  5
14F0
  8
240
  6
CONTINUOUS
 10
0.0
 20
16.000000484329799
 30
0.0
 11
0.0
 21
24.00000048432981
 31
0.0
  0
LINE
  5
14F1
  8
240
  6
CONTINUOUS
 10
0.0
 20
-23.999999515670311
 30
0.0
 11
0.0
 21
-15.999999515670201
 31
0.0
  0
LINE
  5
14FA
  8
241
  6
CONTINUOUS
 10
36.642852405385149
 20
7.9429802782764787
 30
0.0
 11
25.503290144772802
 21
27.237268187103211
 31
0.0
1001
GRPNAME
1000
PASTMD01
  0
LINE
  5
14FB
  8
241
  6
CONTINUOUS
 10
25.884562331756559
 20
27.835746089370758
 30
0.0
 11
36.495290608651089
 21
26.907434953697869
 31
0.0
1001
GRPNAME
1000
PASTMD01
  0
ARC
  5
14FC
  8
241
  6
CONTINUOUS
 10
36.399844532831992
 20
26.413871727810431
 30
0.0
 40
0.4999999999999892
 50
30.000033524987028
 51
84.999999841884147
1001
GRPNAME
1000
00000003
  0
ARC
  5
14FD
  8
241
  6
CONTINUOUS
 10
36.460428583627113
 20
26.508957050657841
 30
0.0
 40
0.4000000000000043
 50
29.999999947294022
 51
85.000039068044856
1001
GRPNAME
1000
PASTMD02
  0
LINE
  5
14FE
  8
241
  6
CONTINUOUS
 10
47.946410161513711
 20
7.4146533829590453
 30
0.0
 11
36.806838745140851
 21
26.70895705065778
 31
0.0
1001
GRPNAME
1000
PASTMD02
  0
ARC
  5
14FF
  8
241
  6
CONTINUOUS
 10
47.599999999999973
 20
7.2146533829589989
 30
0.0
 40
0.4000000000000019
 50
264.99995897869587
 51
30.000000013715781
1001
GRPNAME
1000
PASTMD02
  0
LINE
  5
1500
  8
241
  6
CONTINUOUS
 10
36.954399984857567
 20
7.7445024232355957
 30
0.0
 11
47.565137417512631
 21
6.8161755286906782
 31
0.0
1001
GRPNAME
1000
PASTMD01
  0
LINE
  5
1515
  8
241
  6
CONTINUOUS
 10
18.76315171020866
 20
31.96204544295324
 30
0.0
 11
18.763151710210799
 21
34.000000484329732
 31
0.0
  0
ARC
  5
1516
  8
241
  6
CONTINUOUS
 10
26.763151710215819
 20
31.962045442954381
 30
0.0
 40
8.0000000000071623
 50
180.00000000000651
 51
209.99999999998161
  0
ARC
  5
1523
  8
240
  6
CONTINUOUS
 10
44.76315171020866
 20
-5.7166281989258891
 30
0.0
 40
3.0
 50
331.00353641552169
 51
0.0
1001
GENIUS_GENODEF_13
1002
{
1000
HIER
1070
     0
1002
}
1002
{
1000
MANEDIT
1070
     0
1002
}
1002
{
1000
NOSEL
1070
     0
1002
}
1002
{
1000
BEHIND
1070
     0
1002
}
1002
{
1000
OTHER
1070
     0
1002
}
1002
{
1000
REACTOR
1002
}
1001
GENIUS_GENOBJ-N-FIL_13
1002
{
1000
OWNER
1000
GEN
1002
}
  0
LINE
  5
1545
  8
245
  6
CENTERX2
 10
-86.326177204229325
 20
0.0000004843298029
 30
0.0
 11
54.026839363816983
 21
0.0000004843298029
 31
0.0
  0
LINE
  5
1546
  8
241
  6
CONTINUOUS
 10
10.000000000000011
 20
-24.499999515670311
 30
0.0
 11
10.000000000000099
 21
24.500000484329799
 31
0.0
  0
LINE
  5
1548
  8
240
  6
CONTINUOUS
 10
10.000000000000099
 20
24.500000484329799
 30
0.0
 11
10.00000000000011
 21
31.000000484329799
 31
0.0
  0
ARC
  5
1550
  8
241
  6
CONTINUOUS
 10
25.84970030673259
 20
27.43726818633068
 30
0.0
 40
0.4
 50
85.000039120750699
 51
209.99999987222469
1001
GRPNAME
1000
PASTMD01
1001
GENIUS_GENODEF_13
1002
{
1000
HIER
1070
     0
1002
}
1002
{
1000
MANEDIT
1070
     0
1002
}
1002
{
1000
NOSEL
1070
     0
1002
}
1002
{
1000
BEHIND
1070
     0
1002
}
1002
{
1000
OTHER
1070
     0
1002
}
1002
{
1000
REACTOR
1002
}
1001
GENIUS_GENOBJ-N-FIL_13
1002
{
1000
OWNER
1000
GEN
1002
}
  0
ARC
  5
1552
  8
241
  6
CONTINUOUS
 10
36.989262567344952
 20
8.1429802775039501
 30
0.0
 40
0.4
 50
209.99999987222469
 51
264.99995896498302
1001
GRPNAME
1000
PASTMD01
1001
GENIUS_GENODEF_13
1002
{
1000
HIER
1070
     0
1002
}
1002
{
1000
MANEDIT
1070
     0
1002
}
1002
{
1000
NOSEL
1070
     0
1002
}
1002
{
1000
BEHIND
1070
     0
1002
}
1002
{
1000
OTHER
1070
     0
1002
}
1002
{
1000
REACTOR
1002
}
1001
GENIUS_GENOBJ-N-FIL_13
1002
{
1000
OWNER
1000
GEN
1002
}
  0
ARC
  5
1570
  8
240
  6
CONTINUOUS
 10
30.161303514762519
 20
30.000000484330709
 30
0.0
 40
4.0
 50
28.996463584471051
 51
90.000000000004874
1001
GENIUS_GENODEF_13
1002
{
1000
HIER
1070
     0
1002
}
1002
{
1000
MANEDIT
1070
     0
1002
}
1002
{
1000
NOSEL
1070
     0
1002
}
1002
{
1000
BEHIND
1070
     0
1002
}
1002
{
1000
OTHER
1070
     0
1002
}
1002
{
1000
REACTOR
1002
}
1001
GENIUS_GENOBJ-N-FIL_13
1002
{
1000
OWNER
1000
GEN
1002
}
  0
LINE
  5
1575
  8
240
  6
CONTINUOUS
 10
13.00000000000011
 20
-33.999999515669629
 30
0.0
 11
30.161303514762182
 21
-33.999999515671099
 31
0.0
  0
ARC
  5
1576
  8
240
  6
CONTINUOUS
 10
30.161303514762519
 20
-29.999999515671099
 30
0.0
 40
4.0
 50
269.99999999999511
 51
331.00353641552169
1001
GENIUS_GENODEF_13
1002
{
1000
HIER
1070
     0
1002
}
1002
{
1000
MANEDIT
1070
     0
1002
}
1002
{
1000
NOSEL
1070
     0
1002
}
1002
{
1000
BEHIND
1070
     0
1002
}
1002
{
1000
OTHER
1070
     0
1002
}
1002
{
1000
REACTOR
1002
}
1001
GENIUS_GENOBJ-N-FIL_13
1002
{
1000
OWNER
1000
GEN
1002
}
  0
TEXT
  5
1700
  8
241
  6
CONTINUOUS
 10
-77.0
 20
63.0
 30
0.0
 40
5.0
  1
ST32-C1652C-30
  7
YOKO
  0
LINE
  5
1702
  8
250
 10
30.661303514762182
 20
34.000000484330712
 30
0.0
 11
85.000000000000014
 21
34.000000484330691
 31
0.0
  0
LINE
  5
1703
  8
250
 10
30.661303514756352
 20
-33.999999515671099
 30
0.0
 11
84.999999999999986
 21
-33.999999515671107
 31
0.0
  0
LINE
  5
1704
  8
250
 10
84.0
 20
31.770000484330701
 30
0.0
 11
84.0
 21
-31.76999951567111
 31
0.0
  0
LINE
  5
1708
  8
250
 10
37.716155009554093
 20
26.000000484329799
 30
0.0
 11
78.0
 21
26.000000484329789
 31
0.0
  0
LINE
  5
1709
  8
250
 10
77.0
 20
23.770000484329788
 30
0.0
 11
77.0
 21
-4.5333328490035418
 31
0.0
  0
LINE
  5
170C
  8
250
 10
83.628333333333345
 20
31.770000484330691
 30
0.0
 11
84.000000000000014
 21
34.000000484330691
 31
0.0
  0
LINE
  5
170D
  8
250
 10
84.371666666666684
 20
31.770000484330691
 30
0.0
 11
84.000000000000014
 21
34.000000484330691
 31
0.0
  0
LINE
  5
170E
  8
250
 10
84.000000000000014
 20
34.000000484330691
 30
0.0
 11
84.000000000000014
 21
31.770000484330691
 31
0.0
  0
LINE
  5
170F
  8
250
 10
84.371666666666655
 20
-31.76999951567112
 30
0.0
 11
83.999999999999986
 21
-33.999999515671107
 31
0.0
  0
LINE
  5
1710
  8
250
 10
83.628333333333316
 20
-31.76999951567112
 30
0.0
 11
83.999999999999986
 21
-33.999999515671107
 31
0.0
  0
LINE
  5
1711
  8
250
 10
83.999999999999986
 20
-33.999999515671107
 30
0.0
 11
83.999999999999986
 21
-31.76999951567112
 31
0.0
  0
TEXT
  5
1722
  8
250
 10
82.999999999999986
 20
-3.9333333333333309
 30
0.0
 40
2.7999999999999989
  1
\U+220568
 50
90.0
  0
LINE
  5
1723
  8
250
 10
48.108459854967919
 20
8.0000004843298012
 30
0.0
 11
71.0
 21
8.0000004843297958
 31
0.0
  0
LINE
  5
1724
  8
250
 10
70.0
 20
5.7700004843297954
 30
0.0
 11
70.0
 21
-4.5333328490035374
 31
0.0
  0
LINE
  5
1727
  8
250
 10
69.62833333333333
 20
5.7700004843297954
 30
0.0
 11
70.0
 21
8.0000004843297958
 31
0.0
  0
LINE
  5
1728
  8
250
 10
70.37166666666667
 20
5.7700004843297954
 30
0.0
 11
70.0
 21
8.0000004843297958
 31
0.0
  0
LINE
  5
1729
  8
250
 10
70.0
 20
8.0000004843297958
 30
0.0
 11
70.0
 21
5.7700004843297954
 31
0.0
  0
TEXT
  5
172A
  8
250
 10
68.999999999999986
 20
-3.9333328490035249
 30
0.0
 40
2.7999999999999989
  1
\U+220516
 50
90.0
  0
LINE
  5
172B
  8
250
 10
76.62833333333333
 20
23.770000484329788
 30
0.0
 11
77.0
 21
26.000000484329789
 31
0.0
  0
LINE
  5
172C
  8
250
 10
77.371666666666655
 20
23.770000484329788
 30
0.0
 11
77.0
 21
26.000000484329789
 31
0.0
  0
LINE
  5
172D
  8
250
 10
77.0
 20
26.000000484329789
 30
0.0
 11
77.0
 21
23.770000484329788
 31
0.0
  0
TEXT
  5
172E
  8
250
 10
75.999999999999986
 20
-3.9333328490035302
 30
0.0
 40
2.7999999999999989
  1
\U+220552
 50
90.0
  0
LINE
  5
172F
  8
250
 10
0.0
 20
24.500000484329799
 30
0.0
 11
0.0000000000000016
 21
50.0
 31
0.0
  0
LINE
  5
1730
  8
250
 10
47.999999999999957
 20
7.7146533829589989
 30
0.0
 11
47.999999999999957
 21
50.0
 31
0.0
  0
LINE
  5
1731
  8
250
 10
2.2300000000000009
 20
49.0
 30
0.0
 11
45.769999999999968
 21
49.0
 31
0.0
  0
INSERT
  5
1734
  8
245
  2
*U4
 10
0.0
 20
0.0
 30
0.0
  0
LINE
  5
1735
  8
250
 10
-80.0
 20
15.05662481135573
 30
0.0
 11
-80.0
 21
50.0
 31
0.0
  0
LINE
  5
1736
  8
250
 10
0.0
 20
24.500000484329799
 30
0.0
 11
0.0000000000000016
 21
50.0
 31
0.0
  0
LINE
  5
1737
  8
250
 10
-77.769999999999996
 20
49.0
 30
0.0
 11
-2.2299999999999982
 21
49.0
 31
0.0
  0
INSERT
  5
173A
  8
245
  2
*U5
 10
0.0
 20
0.0
 30
0.0
  0
LINE
  5
173B
  8
250
 10
-78.366025403784363
 20
16.000000484329799
 30
0.0
 11
-99.326178204229336
 21
16.00000048432981
 31
0.0
  0
LINE
  5
173C
  8
250
 10
-78.232050807568839
 20
-15.999999515670201
 30
0.0
 11
-99.326178204229336
 21
-15.99999951567019
 31
0.0
  0
LINE
  5
173D
  8
250
 10
-98.326178204229336
 20
13.770000484329801
 30
0.0
 11
-98.326178204229336
 21
-13.76999951567019
 31
0.0
  0
LINE
  5
1741
  8
250
 10
-98.697844870896006
 20
13.770000484329801
 30
0.0
 11
-98.326178204229336
 21
16.00000048432981
 31
0.0
  0
LINE
  5
1742
  8
250
 10
-97.954511537562681
 20
13.770000484329801
 30
0.0
 11
-98.326178204229336
 21
16.00000048432981
 31
0.0
  0
LINE
  5
1743
  8
250
 10
-98.326178204229336
 20
16.00000048432981
 30
0.0
 11
-98.326178204229336
 21
13.770000484329801
 31
0.0
  0
LINE
  5
1744
  8
250
 10
-97.954511537562681
 20
-13.76999951567019
 30
0.0
 11
-98.326178204229336
 21
-15.99999951567019
 31
0.0
  0
LINE
  5
1745
  8
250
 10
-98.697844870896006
 20
-13.76999951567019
 30
0.0
 11
-98.326178204229336
 21
-15.99999951567019
 31
0.0
  0
LINE
  5
1746
  8
250
 10
-98.326178204229336
 20
-15.99999951567019
 30
0.0
 11
-98.326178204229336
 21
-13.76999951567019
 31
0.0
  0
TEXT
  5
1747
  8
250
 10
-99.32617820422935
 20
-3.9333328490035391
 30
0.0
 40
2.7999999999999989
  1
\U+220532
 50
90.0
  0
LINE
  5
1748
  8
250
 10
-77.769999999999996
 20
48.62833333333333
 30
0.0
 11
-80.0
 21
49.0
 31
0.0
  0
LINE
  5
1749
  8
250
 10
-77.769999999999996
 20
49.37166666666667
 30
0.0
 11
-80.0
 21
49.0
 31
0.0
  0
LINE
  5
174A
  8
250
 10
-80.0
 20
49.0
 30
0.0
 11
-77.769999999999996
 21
49.0
 31
0.0
  0
LINE
  5
174B
  8
250
 10
-2.2299999999999982
 20
49.37166666666667
 30
0.0
 11
0.0000000000000015
 21
49.0
 31
0.0
  0
LINE
  5
174C
  8
250
 10
-2.2299999999999982
 20
48.62833333333333
 30
0.0
 11
0.0000000000000015
 21
49.0
 31
0.0
  0
LINE
  5
174D
  8
250
 10
0.0000000000000015
 20
49.0
 30
0.0
 11
-2.2299999999999982
 21
49.0
 31
0.0
  0
LINE
  5
174E
  8
250
 10
2.2300000000000009
 20
48.62833333333333
 30
0.0
 11
0.0000000000000015
 21
49.0
 31
0.0
  0
LINE
  5
174F
  8
250
 10
2.2300000000000009
 20
49.37166666666667
 30
0.0
 11
0.0000000000000015
 21
49.0
 31
0.0
  0
LINE
  5
1750
  8
250
 10
0.0000000000000015
 20
49.0
 30
0.0
 11
2.2300000000000009
 21
49.0
 31
0.0
  0
LINE
  5
1751
  8
250
 10
45.769999999999968
 20
49.37166666666667
 30
0.0
 11
47.999999999999957
 21
49.0
 31
0.0
  0
LINE
  5
1752
  8
250
 10
45.769999999999968
 20
48.62833333333333
 30
0.0
 11
47.999999999999957
 21
49.0
 31
0.0
  0
LINE
  5
1753
  8
250
 10
47.999999999999957
 20
49.0
 30
0.0
 11
45.769999999999968
 21
49.0
 31
0.0
  0
VIEWPORT
  5
22
 67
     1
  8
0
 10
128.5
 20
97.5
 30
0.0
 40
397.53722205666048
 41
203.28919280912621
 68
     1
 69
     1
1001
ACAD
1000
MVIEW
1002
{
1070
    16
1010
0.0
1020
0.0
1030
0.0
1010
0.0
1020
0.0
1030
1.0
1040
0.0
1040
203.28919280912621
1040
128.5
1040
97.5
1040
50.0
1040
0.0
1040
0.0
1070
     0
1070
   100
1070
     1
1070
     1
1070
     0
1070
     0
1070
     0
1070
     0
1040
0.0
1040
0.0
1040
0.0
1040
10.0
1040
10.0
1040
10.0
1040
10.0
1070
     0
1002
{
1002
}
1002
}
1001
GENIUS_GENODEF_13
1002
{
1000
HIER
1070
     0
1002
}
1002
{
1000
MANEDIT
1070
     0
1002
}
1002
{
1000
NOSEL
1070
     0
1002
}
1002
{
1000
BEHIND
1070
     0
1002
}
1002
{
1000
OTHER
1070
     0
1002
}
1002
{
1000
REACTOR
1002
}
1001
GENIUS_GENOBJ-N-SDF_13
1002
{
1000
OWNER
1000
GEN
1002
}
1001
GENIUS_GENSCREG_15
1000
PF
1040
1.0
1000
DF
1040
1.0
1000
MIN
1011
-70.268611028330213
1021
0.0
1031
5.3953427236282022E+188
1021
-4.1445964045630879
1031
0.0
1000
MAX
1011
327.26861102833033
1021
0.0
1031
5.3953427236282022E+188
1021
199.14459640456309
1031
0.0
1000
FLAGS
1070
     4
  0
ENDSEC
  0
EOF
