  0
SECTION
  2
HEADER
  9
$ACADVER
  1
AC1009
  9
$INSBASE
 10
0.0
 20
0.0
 30
0.0
  9
$EXTMIN
 10
-2.8371017504827591
 20
-30.1425391622060488
 30
0.0
  9
$EXTMAX
 10
291.6213777988410811
 20
54.0
 30
0.0
  9
$LIMMIN
 10
0.0
 20
0.0
  9
$LIMMAX
 10
297.0
 20
210.0
  9
$ORTHOMODE
 70
     0
  9
$REGENMODE
 70
     1
  9
$FILLMODE
 70
     1
  9
$QTEXTMODE
 70
     0
  9
$MIRRTEXT
 70
     1
  9
$DRAGMODE
 70
     2
  9
$LTSCALE
 40
10.0
  9
$OSMODE
 70
   807
  9
$ATTMODE
 70
     1
  9
$TEXTSIZE
 40
3.0
  9
$TRACEWID
 40
1.0
  9
$TEXTSTYLE
  7
YOKO
  9
$CLAYER
  8
241
  9
$CELTYPE
  6
BYLAYER
  9
$CECOLOR
 62
   256
  9
$DIMSCALE
 40
1.0
  9
$DIMASZ
 40
2.2299999999999991
  9
$DIMEXO
 40
0.5
  9
$DIMDLI
 40
2.5
  9
$DIMRND
 40
0.0
  9
$DIMDLE
 40
0.0
  9
$DIMEXE
 40
1.0
  9
$DIMTP
 40
0.0
  9
$DIMTM
 40
0.0
  9
$DIMTXT
 40
3.0
  9
$DIMCEN
 40
0.0
  9
$DIMTSZ
 40
0.0
  9
$DIMTOL
 70
     0
  9
$DIMLIM
 70
     0
  9
$DIMTIH
 70
     0
  9
$DIMTOH
 70
     0
  9
$DIMSE1
 70
     0
  9
$DIMSE2
 70
     0
  9
$DIMTAD
 70
     3
  9
$DIMZIN
 70
     8
  9
$DIMBLK
  1
OPEN
  9
$DIMASO
 70
     1
  9
$DIMSHO
 70
     1
  9
$DIMPOST
  1

  9
$DIMAPOST
  1

  9
$DIMALT
 70
     0
  9
$DIMALTD
 70
     2
  9
$DIMALTF
 40
25.3999999999999986
  9
$DIMLFAC
 40
1.0
  9
$DIMTOFL
 70
     1
  9
$DIMTVP
 40
0.0
  9
$DIMTIX
 70
     0
  9
$DIMSOXD
 70
     0
  9
$DIMSAH
 70
     0
  9
$DIMBLK1
  1

  9
$DIMBLK2
  1

  9
$DIMSTYLE
  2
BIGT
  9
$DIMCLRD
 70
   256
  9
$DIMCLRE
 70
   256
  9
$DIMCLRT
 70
    40
  9
$DIMTFAC
 40
1.0
  9
$DIMGAP
 40
1.0
  9
$LUNITS
 70
     2
  9
$LUPREC
 70
     2
  9
$SKETCHINC
 40
1.0
  9
$FILLETRAD
 40
0.0
  9
$AUNITS
 70
     0
  9
$AUPREC
 70
     3
  9
$MENU
  1
.
  9
$ELEVATION
 40
0.0
  9
$PELEVATION
 40
0.0
  9
$THICKNESS
 40
0.0
  9
$LIMCHECK
 70
     0
  9
$BLIPMODE
 70
     0
  9
$CHAMFERA
 40
10.0
  9
$CHAMFERB
 40
10.0
  9
$SKPOLY
 70
     0
  9
$TDCREATE
 40
2452300.6951157408766448
  9
$TDUPDATE
 40
2458292.6686689821071923
  9
$TDINDWG
 40
0.0204357176
  9
$TDUSRTIMER
 40
0.0204355208
  9
$USRTIMER
 70
     1
  9
$ANGBASE
 50
0.0
  9
$ANGDIR
 70
     0
  9
$PDMODE
 70
    35
  9
$PDSIZE
 40
-5.0
  9
$PLINEWID
 40
0.0
  9
$COORDS
 70
     1
  9
$SPLFRAME
 70
     0
  9
$SPLINETYPE
 70
     6
  9
$SPLINESEGS
 70
     8
  9
$ATTDIA
 70
     1
  9
$ATTREQ
 70
     1
  9
$HANDLING
 70
     1
  9
$HANDSEED
  5
16E1
  9
$SURFTAB1
 70
     6
  9
$SURFTAB2
 70
     6
  9
$SURFTYPE
 70
     6
  9
$SURFU
 70
     6
  9
$SURFV
 70
     6
  9
$UCSNAME
  2

  9
$UCSORG
 10
0.0
 20
0.0
 30
0.0
  9
$UCSXDIR
 10
1.0
 20
0.0
 30
0.0
  9
$UCSYDIR
 10
0.0
 20
1.0
 30
0.0
  9
$PUCSNAME
  2

  9
$PUCSORG
 10
0.0
 20
0.0
 30
0.0
  9
$PUCSXDIR
 10
1.0
 20
0.0
 30
0.0
  9
$PUCSYDIR
 10
0.0
 20
1.0
 30
0.0
  9
$USERI1
 70
     1
  9
$USERI2
 70
     0
  9
$USERI3
 70
     0
  9
$USERI4
 70
     0
  9
$USERI5
 70
     0
  9
$USERR1
 40
0.0
  9
$USERR2
 40
0.0
  9
$USERR3
 40
0.0
  9
$USERR4
 40
0.0
  9
$USERR5
 40
0.0
  9
$WORLDVIEW
 70
     1
  9
$SHADEDGE
 70
     3
  9
$SHADEDIF
 70
    70
  9
$TILEMODE
 70
     1
  9
$MAXACTVP
 70
    16
  9
$PLIMCHECK
 70
     0
  9
$PEXTMIN
 10
1.0000000000000000E+20
 20
1.0000000000000000E+20
 30
1.0000000000000000E+20
  9
$PEXTMAX
 10
-1.0000000000000000E+20
 20
-1.0000000000000000E+20
 30
-1.0000000000000000E+20
  9
$PLIMMIN
 10
0.0
 20
0.0
  9
$PLIMMAX
 10
420.0
 20
297.0
  9
$UNITMODE
 70
     0
  9
$VISRETAIN
 70
     0
  9
$PLINEGEN
 70
     0
  9
$PSLTSCALE
 70
     1
  0
ENDSEC
  0
SECTION
  2
TABLES
  0
TABLE
  2
VPORT
 70
     1
  0
VPORT
  2
*ACTIVE
 70
     0
 10
0.0
 20
0.0
 11
1.0
 21
1.0
 12
170.1168974302593995
 22
11.2014182737023997
 13
0.0
 23
0.0
 14
7.0
 24
7.0
 15
7.0
 25
7.0
 16
0.0
 26
0.0
 36
1.0
 17
0.0
 27
0.0
 37
0.0
 40
214.2623504259485117
 41
1.887387387387387
 42
50.0
 43
0.0
 44
0.0
 50
0.0
 51
0.0
 71
     0
 72
  2000
 73
     1
 74
     0
 75
     1
 76
     1
 77
     0
 78
     0
  0
ENDTAB
  0
TABLE
  2
LTYPE
 70
    19
  0
LTYPE
  2
CONTINUOUS
 70
     0
  3
Solid line
 72
    65
 73
     0
 40
0.0
  0
LTYPE
  2
CENTER2
 70
     0
  3
___ _ ___ _ ___ _ ___ _ ___ _ ___ _ ___ _ ___ _
 72
    65
 73
     4
 40
1.125
 49
0.75
 49
-0.125
 49
0.125
 49
-0.125
  0
LTYPE
  2
HIDDEN2
 70
     0
  3
_ _ _ _ _ _ _ _ _ _ _ _ _ _ _ _ _ _ _ _ _ _ _ _
 72
    65
 73
     2
 40
0.1875
 49
0.125
 49
-0.0625
  0
LTYPE
  2
HIDDEN
 70
     0
  3
Hidden __ __ __ __ __ __ __ __ __ __ __ __ __ _
 72
    65
 73
     2
 40
9.5249999999999986
 49
6.349999999999997
 49
-3.174999999999998
  0
LTYPE
  2
PHANTOM2
 70
     0
  3
Phantom (.5x) ___ _ _ ___ _ _ ___ _ _ ___ _ _
 72
    65
 73
     6
 40
31.75
 49
15.875
 49
-3.174999999999998
 49
3.174999999999998
 49
-3.174999999999998
 49
3.174999999999998
 49
-3.174999999999998
  0
LTYPE
  2
CENTER
 70
     0
  3
Center ____ _ ____ _ ____ _ ____ _ ____ _ ____
 72
    65
 73
     4
 40
50.7999999999999972
 49
31.75
 49
-6.349999999999997
 49
6.349999999999997
 49
-6.349999999999997
  0
LTYPE
  2
AMCONSTR
 70
     0
  3
_______________________
 72
    65
 73
     2
 40
9999.0
 49
9999.0
 49
0.0
  0
LTYPE
  2
AMZIGZAG2
 70
     0
  3
/\/-/\/-/\/-/\/-/\/-/\/
 72
    65
 73
     2
 40
0.4401
 49
0.0001
 49
-0.4400000000000003
  0
LTYPE
  2
ACANSTGB
 70
     0
  3
__ . . __ . .
 72
    65
 73
     6
 40
0.35433070866
 49
0.15748031496
 49
-0.03937007874
 49
0.03937007874
 49
-0.03937007874
 49
0.03937007874
 49
-0.03937007874
  0
LTYPE
  2
ACANSTGL
 70
     0
  3
_ _ _ _ _
 72
    65
 73
     2
 40
0.11811023622
 49
0.07874015748
 49
-0.03937007874
  0
ENDTAB
  0
TABLE
  2
LAYER
 70
     9
  0
LAYER
  2
0
 70
     0
 62
     7
  6
CONTINUOUS
  0
LAYER
  2
241
 70
     0
 62
   211
  6
CONTINUOUS
  0
LAYER
  2
240
 70
     0
 62
     4
  6
CONTINUOUS
  0
LAYER
  2
242
 70
     0
 62
     3
  6
CONTINUOUS
  0
LAYER
  2
243
 70
     0
 62
   211
  6
HIDDEN2
  0
LAYER
  2
245
 70
     0
 62
     2
  6
CENTER2
  0
LAYER
  2
247
 70
     0
 62
    60
  6
CONTINUOUS
  0
LAYER
  2
250
 70
     0
 62
     3
  6
CONTINUOUS
  0
LAYER
  2
DEFPOINTS
 70
     0
 62
     7
  6
CONTINUOUS
  0
ENDTAB
  0
TABLE
  2
STYLE
 70
     8
  0
STYLE
  2
STANDARD
 70
     0
 40
0.0
 41
1.0
 50
0.0
 71
     0
 42
3.0
  3
romans.shx
  4
BIGFONT.SHX
  0
STYLE
  2
YOKO
 70
     0
 40
0.0
 41
1.0
 50
0.0
 71
     0
 42
3.0
  3
romans.shx
  4
extfont.shx
  0
STYLE
  2
ACANSGDT
 70
     0
 40
0.0
 41
1.0
 50
0.0
 71
     0
 42
3.0
  3
amgdt.shx
  4

  0
STYLE
  2
ACJISTS
 70
     0
 40
1.0
 41
1.0
 50
0.0
 71
     0
 42
3.0
  3
amgdt.shx
  4
extfont.shx
  0
ENDTAB
  0
TABLE
  2
VIEW
 70
     0
  0
ENDTAB
  0
TABLE
  2
UCS
 70
     0
  0
ENDTAB
  0
TABLE
  2
APPID
 70
    27
  0
APPID
  2
ACAD
 70
     0
  0
APPID
  2
ACADANNOTATIVE
 70
     0
  0
APPID
  2
GLOBAL
 70
     0
  0
APPID
  2
DETAIL
 70
     0
  0
APPID
  2
GRPNAME
 70
     0
  0
APPID
  2
GPARA
 70
     0
  0
APPID
  2
ITEMNAME
 70
     0
  0
APPID
  2
HATCH_TYPE
 70
     0
  0
APPID
  2
HATCH_DISPLAY
 70
     0
  0
APPID
  2
HATCH_DISTANCE
 70
     0
  0
APPID
  2
MCAD_NO_VIS
 70
     0
  0
APPID
  2
ACAD_TEMP_GRAPHIC
 70
     0
  0
APPID
  2
AD_DRAW
 70
     0
  0
APPID
  2
ACATTRIBSERVICES
 70
     0
  0
APPID
  2
DESIGNERASSEMBLIES
 70
     0
  0
APPID
  2
ACADM_DIM_EDIT
 70
     0
  0
APPID
  2
AMDT_DM_ADJ
 70
     0
  0
APPID
  2
GENIUS_GENSCREG_15
 70
     0
  0
APPID
  2
GENIUS_GENODEF_13
 70
     0
  0
APPID
  2
GENIUS_GENOBJ-N-SDF_13
 70
     0
  0
APPID
  2
ACAD_DSTYLE_DIMBREAK
 70
     0
  0
APPID
  2
ACAD_DSTYLE_DIMJAG
 70
     0
  0
APPID
  2
ACAD_NAV_VCDISPLAY
 70
     0
  0
APPID
  2
ACAECLAYERSTANDARD
 70
     0
  0
APPID
  2
GENIUS_GENOBJ-N-FIL_13
 70
     0
  0
APPID
  2
ACAD_MLEADERVER
 70
     0
  0
APPID
  2
ACAD_EXEMPT_FROM_CAD_STANDARDS
 70
     0
  0
ENDTAB
  0
TABLE
  2
DIMSTYLE
 70
    17
  0
DIMSTYLE
  2
STANDARD
 70
     0
  3

  4

  5

  6

  7

 40
1.0
 41
2.0
 42
2.0
 43
3.75
 44
2.0
 45
0.0
 46
0.0
 47
0.0
 48
0.0
140
4.0
141
0.09
142
0.0
143
25.3999999999999986
144
1.0
145
0.0
146
1.0
147
1.0
 71
     0
 72
     0
 73
     1
 74
     1
 75
     0
 76
     0
 77
     0
 78
     8
170
     0
171
     2
172
     0
173
     1
174
     0
175
     0
176
   256
177
   256
178
   256
  0
DIMSTYLE
  2
BIGT
 70
     0
  3

  4

  5

  6

  7

 40
1.0
 41
2.2299999999999991
 42
0.5
 43
2.5
 44
1.0
 45
0.0
 46
0.0
 47
0.0
 48
0.0
140
3.5
141
0.0
142
0.0
143
25.3999999999999986
144
1.0
145
0.0
146
1.0
147
1.0
 71
     0
 72
     0
 73
     0
 74
     0
 75
     0
 76
     0
 77
     3
 78
     9
170
     0
171
     2
172
     1
173
     0
174
     0
175
     0
176
   256
177
   256
178
    40
  0
DIMSTYLE
  2
AM_ANSI
 70
     0
  3

  4
mm
  5

  6

  7

 40
1.0
 41
0.1
 42
0.05
 43
0.5
 44
0.1
 45
0.0
 46
0.0
 47
0.1
 48
0.1
140
0.12
141
0.0
142
0.0
143
25.3999999999999986
144
1.0
145
0.0
146
0.71
147
0.06
 71
     0
 72
     0
 73
     1
 74
     1
 75
     0
 76
     0
 77
     0
 78
     7
170
     0
171
     2
172
     0
173
     0
174
     0
175
     0
176
   256
177
   256
178
     2
  0
DIMSTYLE
  2
AM_ANSI$3
 70
     0
  3

  4
mm
  5

  6

  7

 40
1.0
 41
0.1
 42
0.05
 43
0.5
 44
0.1
 45
0.0
 46
0.0
 47
0.1
 48
0.1
140
0.12
141
0.0
142
0.0
143
25.3999999999999986
144
1.0
145
0.0
146
0.71
147
0.06
 71
     0
 72
     0
 73
     1
 74
     1
 75
     0
 76
     0
 77
     0
 78
     7
170
     0
171
     2
172
     0
173
     0
174
     0
175
     0
176
   256
177
   256
178
     2
  0
DIMSTYLE
  2
AM_ANSI$4
 70
     0
  3

  4
mm
  5

  6

  7

 40
1.0
 41
0.1
 42
0.05
 43
0.5
 44
0.1
 45
0.0
 46
0.0
 47
0.1
 48
0.1
140
0.12
141
0.0
142
0.0
143
25.3999999999999986
144
1.0
145
0.0
146
0.71
147
0.06
 71
     0
 72
     0
 73
     1
 74
     1
 75
     0
 76
     0
 77
     0
 78
     7
170
     0
171
     2
172
     0
173
     0
174
     0
175
     0
176
   256
177
   256
178
     2
  0
DIMSTYLE
  2
AM_ANSI$7
 70
     0
  3

  4
mm
  5

  6

  7

 40
1.0
 41
0.1
 42
0.05
 43
0.5
 44
0.1
 45
0.0
 46
0.0
 47
0.1
 48
0.1
140
0.24
141
0.0
142
0.0
143
25.3999999999999986
144
1.0
145
0.0
146
0.71
147
0.06
 71
     0
 72
     0
 73
     1
 74
     1
 75
     0
 76
     0
 77
     0
 78
     7
170
     0
171
     2
172
     0
173
     0
174
     0
175
     0
176
   256
177
   256
178
     2
  0
DIMSTYLE
  2
AM_ANSI$SF
 70
     0
  3

  4
mm
  5

  6

  7

 40
1.0
 41
0.1
 42
0.05
 43
0.5
 44
0.1
 45
0.0
 46
0.0
 47
0.1
 48
0.1
140
0.12
141
0.0
142
0.0
143
25.3999999999999986
144
1.0
145
0.0
146
0.71
147
0.06
 71
     0
 72
     0
 73
     1
 74
     1
 75
     1
 76
     1
 77
     0
 78
     7
170
     0
171
     2
172
     0
173
     0
174
     0
175
     0
176
   256
177
   256
178
     2
  0
DIMSTYLE
  2
AM_ANSI$SH
 70
     0
  3

  4
mm
  5

  6

  7

 40
1.0
 41
0.1
 42
0.05
 43
0.5
 44
0.1
 45
0.0
 46
0.0
 47
0.1
 48
0.1
140
0.12
141
0.0
142
0.0
143
25.3999999999999986
144
1.0
145
0.0
146
0.71
147
0.06
 71
     0
 72
     0
 73
     1
 74
     1
 75
     1
 76
     1
 77
     0
 78
     7
170
     0
171
     2
172
     0
173
     1
174
     0
175
     0
176
   256
177
   256
178
     2
  0
ENDTAB
  0
ENDSEC
  0
SECTION
  2
BLOCKS
  0
BLOCK
  8
0
  2
$MODEL_SPACE
 70
     0
 10
0.0
 20
0.0
 30
0.0
  3
$MODEL_SPACE
  1

  0
ENDBLK
  5
15C5
  8
0
  0
BLOCK
 67
     1
  8
0
  2
$PAPER_SPACE
 70
     0
 10
0.0
 20
0.0
 30
0.0
  3
$PAPER_SPACE
  1

  0
ENDBLK
  5
15C1
 67
     1
  8
0
  0
BLOCK
  8
0
  2
_OPEN
 70
     0
 10
0.0
 20
0.0
 30
0.0
  3
_OPEN
  1

  0
LINE
  5
595
  8
0
  6
BYBLOCK
 62
     0
 10
-1.0
 20
0.1666666666666666
 30
0.0
 11
0.0
 21
0.0
 31
0.0
  0
LINE
  5
596
  8
0
  6
BYBLOCK
 62
     0
 10
-1.0
 20
-0.1666666666666666
 30
0.0
 11
0.0
 21
0.0
 31
0.0
  0
LINE
  5
597
  8
0
  6
BYBLOCK
 62
     0
 10
0.0
 20
0.0
 30
0.0
 11
-1.0
 21
0.0
 31
0.0
  0
ENDBLK
  5
599
  8
0
  0
BLOCK
  8
0
  2
_ACMFILLEDHALF
 70
     0
 10
0.0
 20
0.0
 30
0.0
  3
_ACMFILLEDHALF
  1

  0
TRACE
  5
143E
  8
240
 62
     0
 10
-0.8
 20
0.0
 30
0.0
 11
-1.0
 21
0.166666666
 31
0.0
 12
0.0
 22
0.0
 32
0.0
 13
0.0
 23
0.0
 33
0.0
  0
LINE
  5
143F
  8
240
 62
     0
 10
-1.0
 20
0.0
 30
0.0
 11
-0.8
 21
0.0
 31
0.0
  0
ENDBLK
  5
143D
  8
0
  0
ENDSEC
  0
SECTION
  2
ENTITIES
  0
TEXT
  5
CB5
  8
241
  6
CONTINUOUS
 10
0.0
 20
49.0
 30
0.0
 40
5.0
  1
ST31W-CKB3-280
  7
YOKO
 11
0.0
 21
49.0
 31
0.0
 73
     1
  0
LINE
  5
10B1
  8
250
  6
CONTINUOUS
 10
-0.0000000000001705
 20
16.9187872856409705
 30
0.0
 11
-0.0000000000001705
 21
36.0
 31
0.0
  0
LINE
  5
10B2
  8
250
  6
CONTINUOUS
 10
279.9999999999997158
 20
16.9187872856409705
 30
0.0
 11
279.9999999999997158
 21
36.0
 31
0.0
  0
LINE
  5
10B3
  8
250
  6
CONTINUOUS
 10
2.229999999999789
 20
35.0
 30
0.0
 11
277.7699999999996976
 21
35.0
 31
0.0
  0
TEXT
  5
10B7
  8
250
  6
CONTINUOUS
 10
135.714285714285495
 20
36.0
 30
0.0
 40
3.0
  1
280
  0
LINE
  5
10B8
  8
250
  6
CONTINUOUS
 10
277.7699999999996976
 20
35.3716666666666697
 30
0.0
 11
279.9999999999997158
 21
35.0
 31
0.0
  0
LINE
  5
10B9
  8
250
  6
CONTINUOUS
 10
277.7699999999996976
 20
34.6283333333333303
 30
0.0
 11
279.9999999999997158
 21
35.0
 31
0.0
  0
LINE
  5
10BA
  8
250
  6
CONTINUOUS
 10
279.9999999999997158
 20
35.0
 30
0.0
 11
277.7699999999996976
 21
35.0
 31
0.0
  0
LINE
  5
10BB
  8
250
  6
CONTINUOUS
 10
2.229999999999789
 20
34.6283333333333303
 30
0.0
 11
-0.0000000000001705
 21
35.0
 31
0.0
  0
LINE
  5
10BC
  8
250
  6
CONTINUOUS
 10
2.229999999999789
 20
35.3716666666666626
 30
0.0
 11
-0.0000000000001705
 21
35.0
 31
0.0
  0
LINE
  5
10BD
  8
250
  6
CONTINUOUS
 10
-0.0000000000001705
 20
35.0
 30
0.0
 11
2.229999999999789
 21
35.0
 31
0.0
  0
LINE
  5
12AA
  8
243
 10
260.8830129999997212
 20
9.0
 30
0.0
 11
279.9999999999997158
 21
9.0
 31
0.0
  0
LINE
  5
12AB
  8
241
  6
CONTINUOUS
 10
273.4999999999996021
 20
0.8660254037844197
 30
0.0
 11
271.9999999999996021
 21
1.732050807568839
 31
0.0
1001
GRPNAME
1000
00000001
  0
LINE
  5
12AC
  8
241
  6
CONTINUOUS
 10
273.4999999999996021
 20
0.8660254037844197
 30
0.0
 11
273.4999999999996021
 21
-0.8660254037845334
 31
0.0
1001
GRPNAME
1000
00000001
  0
LINE
  5
12AD
  8
241
  6
CONTINUOUS
 10
270.4999999999996021
 20
0.8660254037844763
 30
0.0
 11
270.4999999999996021
 21
-0.8660254037844763
 31
0.0
1001
GRPNAME
1000
00000001
  0
LINE
  5
12AE
  8
241
  6
CONTINUOUS
 10
270.4999999999996021
 20
0.8660254037844763
 30
0.0
 11
271.9999999999996021
 21
1.732050807568839
 31
0.0
1001
GRPNAME
1000
00000001
  0
CIRCLE
  5
12AF
  8
242
  6
CONTINUOUS
 10
271.9999999999997158
 20
0.0
 30
0.0
 40
3.1000000000000001
  0
CIRCLE
  5
12B0
  8
241
  6
CONTINUOUS
 10
271.9999999999997158
 20
0.0
 30
0.0
 40
2.649999999999999
  0
LINE
  5
12B1
  8
241
  6
CONTINUOUS
 10
271.9999999999996021
 20
-1.7320508075688961
 30
0.0
 11
273.4999999999996021
 21
-0.8660254037845334
 31
0.0
1001
GRPNAME
1000
00000001
  0
LINE
  5
12B2
  8
245
  6
CENTER2
 10
271.9999999999997158
 20
3.9641720000000151
 30
0.0
 11
271.9999999999997158
 21
-4.5142379999999731
 31
0.0
  0
LINE
  5
12B3
  8
241
  6
CONTINUOUS
 10
271.9999999999996021
 20
-1.7320508075688961
 30
0.0
 11
270.4999999999996021
 21
-0.8660254037844763
 31
0.0
1001
GRPNAME
1000
00000001
  0
LINE
  5
12B7
  8
243
 10
260.8830129999997212
 20
-9.0
 30
0.0
 11
279.9999999999997158
 21
-9.0
 31
0.0
  0
LINE
  5
12B8
  8
240
  6
CONTINUOUS
 10
279.9999999999997158
 20
-15.5
 30
0.0
 11
279.9999999999997158
 21
15.5
 31
0.0
  0
LINE
  5
1321
  8
240
  6
CONTINUOUS
 10
0.0
 20
-15.5
 30
0.0
 11
0.0
 21
15.5
 31
0.0
  0
LINE
  5
1323
  8
240
  6
CONTINUOUS
 10
0.0
 20
-15.5
 30
0.0
 11
279.9999999999997158
 21
-15.5
 31
0.0
  0
LINE
  5
1324
  8
240
  6
CONTINUOUS
 10
0.0
 20
15.5
 30
0.0
 11
279.9999999999997158
 21
15.5
 31
0.0
  0
LINE
  5
1325
  8
245
  6
CENTER2
 10
283.1719368445753844
 20
0.0
 30
0.0
 11
-1.828263270319894
 21
0.0
 31
0.0
  0
LINE
  5
14D2
  8
250
  6
CONTINUOUS
 10
16.7343268209457889
 20
-30.1425391622060488
 30
0.0
 11
-2.8371017504827591
 21
-30.1425391622060488
 31
0.0
1001
ITEMNAME
1000
LNSP2
  0
TEXT
  5
14D3
  8
250
  6
CONTINUOUS
 10
-0.265673179054204
 20
-29.1425391622060488
 30
0.0
 40
3.0
  1
ST31W
  7
YOKO
1001
ITEMNAME
1000
LNSP3
1001
ACAD
1000
MTEXTBEGIN
1070
    73
1070
     1
1070
    44
1040
1.0
1070
    74
1070
     0
1000
MTEXTEND
  0
LINE
  5
14D4
  8
250
  6
CONTINUOUS
 10
24.0732007478650907
 20
-17.431236650439299
 30
0.0
 11
16.7343268209457889
 21
-30.1425391622060488
 31
0.0
1001
ACAD
1000
DSTYLE
1002
{
1070
     5
1000
OPEN
1070
    78
1070
     8
1070
   140
1040
3.0
1002
}
  0
LINE
  5
14D5
  8
250
  6
CONTINUOUS
 10
23.7513279727921294
 20
-17.2454033171059713
 30
0.0
 11
25.1882007478651495
 21
-15.5
 31
0.0
  0
LINE
  5
14D6
  8
250
  6
CONTINUOUS
 10
24.3950735229382794
 20
-17.6170699837726303
 30
0.0
 11
25.1882007478651495
 21
-15.5
 31
0.0
  0
LINE
  5
14D7
  8
250
  6
CONTINUOUS
 10
25.1882007478651495
 20
-15.5
 30
0.0
 11
24.0732007478650907
 21
-17.431236650439299
 31
0.0
  0
LINE
  5
14D8
  8
250
  6
CONTINUOUS
 10
282.7857849491812203
 20
25.9782679993923011
 30
0.0
 11
291.6213777988410811
 21
25.9782679993923011
 31
0.0
  0
LINE
  5
14D9
  8
250
  6
CONTINUOUS
 10
291.6213777988410811
 20
25.9782679993923011
 30
0.0
 11
282.7857849491812203
 21
25.9782679993923011
 31
0.0
  0
LINE
  5
14DA
  8
250
  6
CONTINUOUS
 10
282.7857849491812203
 20
25.9782679993923011
 30
0.0
 11
273.1080226768725083
 21
17.0152715432124602
 31
0.0
  0
LINE
  5
14DB
  8
250
  6
CONTINUOUS
 10
273.1080226768725083
 20
17.0152715432124602
 30
0.0
 11
271.4719138325926906
 21
15.5
 31
0.0
  0
LINE
  5
14DC
  8
250
  6
CONTINUOUS
 10
272.9085333945754996
 20
17.2306693579256489
 30
0.0
 11
271.4719138325926906
 21
15.5
 31
0.0
  0
LINE
  5
14DD
  8
250
  6
CONTINUOUS
 10
271.4719138325926906
 20
15.5
 30
0.0
 11
273.307511959169517
 21
16.7998737284992217
 31
0.0
  0
TEXT
  5
14DE
  8
250
  6
CONTINUOUS
 10
282.3857849491810725
 20
27.3782679993922784
 30
0.0
 40
2.799999999999998
  1
CK3
  7
ACJISTS
  0
LINE
  5
14DF
  8
247
  6
CONTINUOUS
 10
6.749999999930024
 20
-10.0
 30
0.0
 11
13.4423076919700204
 21
-10.0
 31
0.0
  0
ARC
  5
14E0
  8
247
  6
CONTINUOUS
 10
6.749999999930024
 20
-8.2500000000700311
 30
0.0
 40
1.7499999999299991
 50
90.0
 51
270.0
  0
ARC
  5
14E1
  8
247
  6
CONTINUOUS
 10
13.4423076919700204
 20
-8.2500000000700311
 30
0.0
 40
1.7499999999299991
 50
270.0
 51
90.0
  0
LINE
  5
14E2
  8
247
  6
CONTINUOUS
 10
7.6153846152799911
 20
-6.5000000001400622
 30
0.0
 11
6.7551484580379793
 21
-9.5000000000200089
 31
0.0
  0
LINE
  5
14E3
  8
247
  6
CONTINUOUS
 10
8.5150161816641798
 20
-7.9230769231598961
 30
0.0
 11
7.20732387402421
 21
-7.9230769231598961
 31
0.0
  0
ARC
  5
14E4
  8
247
  6
CONTINUOUS
 10
8.8548561839102131
 20
-7.049598667702865
 30
0.0
 40
0.5538165441895349
 50
342.9978896752951982
 51
82.9241662185135766
  0
ARC
  5
14E5
  8
247
  6
CONTINUOUS
 10
8.4331216769712114
 20
-6.9360330444658302
 30
0.0
 40
0.9904354236226808
 50
274.742936852202206
 51
343.8492262732668792
1001
GENIUS_GENOBJ-N-FIL_13
1002
{
1000
OWNER
1000
GEN
1002
}
1001
GENIUS_GENODEF_13
1002
{
1000
HIER
1070
     0
1002
}
1002
{
1000
MANEDIT
1070
     0
1002
}
1002
{
1000
NOSEL
1070
     0
1002
}
1002
{
1000
BEHIND
1070
     0
1002
}
1002
{
1000
OTHER
1070
     0
1002
}
1002
{
1000
REACTOR
1002
}
  0
LINE
  5
14E6
  8
247
  6
CONTINUOUS
 10
8.0628407656780023
 20
-9.5000000000200089
 30
0.0
 11
6.7551484580379793
 21
-9.5000000000200089
 31
0.0
  0
LINE
  5
14E7
  8
247
  6
CONTINUOUS
 10
7.6153846152799911
 20
-6.5000000001400622
 30
0.0
 11
8.9230769229200195
 21
-6.5000000001400622
 31
0.0
  0
ARC
  5
14E8
  8
247
  6
CONTINUOUS
 10
8.4390803634530016
 20
-8.4820242326654807
 30
0.0
 40
0.5640818586791229
 50
335.9909416525217125
 51
82.263443459069066
  0
ARC
  5
14E9
  8
247
  6
CONTINUOUS
 10
7.9617373146529049
 20
-8.4874290391865088
 30
0.0
 40
1.0176059446230981
 50
275.7019851642564845
 51
347.2773384368218217
1001
GENIUS_GENOBJ-N-FIL_13
1002
{
1000
OWNER
1000
GEN
1002
}
1001
GENIUS_GENODEF_13
1002
{
1000
HIER
1070
     0
1002
}
1002
{
1000
MANEDIT
1070
     0
1002
}
1002
{
1000
NOSEL
1070
     0
1002
}
1002
{
1000
BEHIND
1070
     0
1002
}
1002
{
1000
OTHER
1070
     0
1002
}
1002
{
1000
REACTOR
1002
}
  0
LINE
  5
14EA
  8
247
  6
CONTINUOUS
 10
9.7166869194580272
 20
-9.5000000000200089
 30
0.0
 11
10.5769230766999804
 21
-6.5000000001400622
 31
0.0
  0
LINE
  5
14EB
  8
247
  6
CONTINUOUS
 10
12.9999999996800302
 20
-6.5000000001400622
 30
0.0
 11
12.4342633805434293
 21
-6.5000000001400622
 31
0.0
  0
LINE
  5
14EC
  8
247
  6
CONTINUOUS
 10
11.5384615382000106
 20
-9.5000000000200089
 30
0.0
 11
12.1538461535599804
 21
-9.5000000000200089
 31
0.0
  0
ARC
  5
14ED
  8
247
  6
CONTINUOUS
 10
13.2912087908771301
 20
-8.5832851359733695
 30
0.0
 40
2.2526500823422122
 50
112.3594881415292974
 51
164.9932485428467999
  0
ARC
  5
14EE
  8
247
  6
CONTINUOUS
 10
12.6259305207867705
 20
-7.3083126551946389
 30
0.0
 40
0.8906723995727782
 50
4.9945893190752493
 51
65.1663289573005216
1001
GENIUS_GENOBJ-N-FIL_13
1002
{
1000
OWNER
1000
GEN
1002
}
1001
GENIUS_GENODEF_13
1002
{
1000
HIER
1070
     0
1002
}
1002
{
1000
MANEDIT
1070
     0
1002
}
1002
{
1000
NOSEL
1070
     0
1002
}
1002
{
1000
BEHIND
1070
     0
1002
}
1002
{
1000
OTHER
1070
     0
1002
}
1002
{
1000
REACTOR
1002
}
  0
ARC
  5
14EF
  8
247
  6
CONTINUOUS
 10
11.7735411137874202
 20
-8.1601458886677847
 30
0.0
 40
1.392781735586712
 50
285.8460965557807754
 51
352.3251370041621726
  0
ARC
  5
14F0
  8
247
  6
CONTINUOUS
 10
12.3577872741596497
 20
-8.4592434315272822
 30
0.0
 40
1.324563662670287
 50
159.7136016704893962
 51
231.7887456564149886
1001
GENIUS_GENOBJ-N-FIL_13
1002
{
1000
OWNER
1000
GEN
1002
}
1001
GENIUS_GENODEF_13
1002
{
1000
HIER
1070
     0
1002
}
1002
{
1000
MANEDIT
1070
     0
1002
}
1002
{
1000
NOSEL
1070
     0
1002
}
1002
{
1000
BEHIND
1070
     0
1002
}
1002
{
1000
OTHER
1070
     0
1002
}
1002
{
1000
REACTOR
1002
}
  0
LINE
  5
14F1
  8
247
  6
CONTINUOUS
 10
12.4615384612399698
 20
-8.3461538462199751
 30
0.0
 11
13.1538461535199591
 21
-8.3461538462199751
 31
0.0
  0
LINE
  5
14F2
  8
247
  6
CONTINUOUS
 10
6.749999999929968
 20
-6.5000000001400622
 30
0.0
 11
7.4230769229799289
 21
-6.5000000001400622
 31
0.0
  0
VIEWPORT
  5
22
 67
     1
  8
0
 10
261.517699115044195
 20
148.5
 30
0.0
 40
523.0353982300885036
 41
297.0
 68
     1
 69
     1
1001
ACAD
1000
MVIEW
1002
{
1070
    16
1010
0.0
1020
0.0
1030
0.0
1010
0.0
1020
0.0
1030
1.0
1040
0.0
1040
297.0
1040
261.517699115044195
1040
148.5
1040
50.0
1040
0.0
1040
0.0
1070
     0
1070
   100
1070
     1
1070
     1
1070
     0
1070
     0
1070
     0
1070
     0
1040
0.0
1040
0.0
1040
0.0
1040
1.0
1040
1.0
1040
10.0
1040
10.0
1070
     0
1002
{
1002
}
1002
}
1001
GENIUS_GENODEF_13
1002
{
1000
HIER
1070
     0
1002
}
1002
{
1000
MANEDIT
1070
     0
1002
}
1002
{
1000
NOSEL
1070
     0
1002
}
1002
{
1000
BEHIND
1070
     0
1002
}
1002
{
1000
OTHER
1070
     0
1002
}
1002
{
1000
REACTOR
1002
}
1001
GENIUS_GENOBJ-N-SDF_13
1002
{
1000
OWNER
1000
GEN
1002
}
1001
GENIUS_GENSCREG_15
1000
PF
1040
1.0
1000
DF
1040
1.0
1000
MIN
1011
0.0
1021
0.0
1031
0.0
1021
0.0
1031
0.0
1000
MAX
1011
523.0353982300885036
1021
0.0
1031
0.0
1021
297.0
1031
0.0
1000
FLAGS
1070
     4
  0
ENDSEC
  0
EOF
