  0
SECTION
  2
HEADER
  9
$ACADVER
  1
AC1009
  9
$INSBASE
 10
0.0
 20
0.0
 30
0.0
  9
$EXTMIN
 10
-0.9999999999999784
 20
-29.2343502942231304
 30
0.0
  9
$EXTMAX
 10
261.7419522264582952
 20
54.9523809523808993
 30
0.0
  9
$LIMMIN
 10
0.0
 20
0.0
  9
$LIMMAX
 10
297.0
 20
210.0
  9
$ORTHOMODE
 70
     1
  9
$REGENMODE
 70
     1
  9
$FILLMODE
 70
     1
  9
$QTEXTMODE
 70
     0
  9
$MIRRTEXT
 70
     1
  9
$DRAGMODE
 70
     2
  9
$LTSCALE
 40
10.0
  9
$OSMODE
 70
   807
  9
$ATTMODE
 70
     1
  9
$TEXTSIZE
 40
3.0
  9
$TRACEWID
 40
1.0
  9
$TEXTSTYLE
  7
YOKO
  9
$CLAYER
  8
240
  9
$CELTYPE
  6
BYLAYER
  9
$CECOLOR
 62
   256
  9
$DIMSCALE
 40
1.0
  9
$DIMASZ
 40
2.0
  9
$DIMEXO
 40
0.5
  9
$DIMDLI
 40
2.5
  9
$DIMRND
 40
0.0
  9
$DIMDLE
 40
0.0
  9
$DIMEXE
 40
1.0
  9
$DIMTP
 40
0.0
  9
$DIMTM
 40
0.0
  9
$DIMTXT
 40
2.799999999999998
  9
$DIMCEN
 40
0.0
  9
$DIMTSZ
 40
0.0
  9
$DIMTOL
 70
     0
  9
$DIMLIM
 70
     0
  9
$DIMTIH
 70
     0
  9
$DIMTOH
 70
     0
  9
$DIMSE1
 70
     0
  9
$DIMSE2
 70
     0
  9
$DIMTAD
 70
     3
  9
$DIMZIN
 70
     8
  9
$DIMBLK
  1

  9
$DIMASO
 70
     1
  9
$DIMSHO
 70
     1
  9
$DIMPOST
  1

  9
$DIMAPOST
  1

  9
$DIMALT
 70
     0
  9
$DIMALTD
 70
     2
  9
$DIMALTF
 40
25.3999999999999986
  9
$DIMLFAC
 40
1.0
  9
$DIMTOFL
 70
     1
  9
$DIMTVP
 40
0.0
  9
$DIMTIX
 70
     1
  9
$DIMSOXD
 70
     0
  9
$DIMSAH
 70
     1
  9
$DIMBLK1
  1
OPEN
  9
$DIMBLK2
  1
OPEN
  9
$DIMSTYLE
  2
BIGT
  9
$DIMCLRD
 70
   256
  9
$DIMCLRE
 70
   256
  9
$DIMCLRT
 70
    40
  9
$DIMTFAC
 40
1.0
  9
$DIMGAP
 40
1.0
  9
$LUNITS
 70
     2
  9
$LUPREC
 70
     3
  9
$SKETCHINC
 40
1.0
  9
$FILLETRAD
 40
0.0
  9
$AUNITS
 70
     0
  9
$AUPREC
 70
     3
  9
$MENU
  1
.
  9
$ELEVATION
 40
0.0
  9
$PELEVATION
 40
0.0
  9
$THICKNESS
 40
0.0
  9
$LIMCHECK
 70
     0
  9
$BLIPMODE
 70
     0
  9
$CHAMFERA
 40
10.0
  9
$CHAMFERB
 40
10.0
  9
$SKPOLY
 70
     0
  9
$TDCREATE
 40
2457057.3727083331905305
  9
$TDUPDATE
 40
2458292.6667245370335877
  9
$TDINDWG
 40
0.0351324769
  9
$TDUSRTIMER
 40
0.0351324653
  9
$USRTIMER
 70
     1
  9
$ANGBASE
 50
0.0
  9
$ANGDIR
 70
     0
  9
$PDMODE
 70
     1
  9
$PDSIZE
 40
-5.0
  9
$PLINEWID
 40
0.0
  9
$COORDS
 70
     1
  9
$SPLFRAME
 70
     0
  9
$SPLINETYPE
 70
     6
  9
$SPLINESEGS
 70
     8
  9
$ATTDIA
 70
     1
  9
$ATTREQ
 70
     1
  9
$HANDLING
 70
     1
  9
$HANDSEED
  5
E4A
  9
$SURFTAB1
 70
     6
  9
$SURFTAB2
 70
     6
  9
$SURFTYPE
 70
     6
  9
$SURFU
 70
     6
  9
$SURFV
 70
     6
  9
$UCSNAME
  2

  9
$UCSORG
 10
0.0
 20
0.0
 30
0.0
  9
$UCSXDIR
 10
1.0
 20
0.0
 30
0.0
  9
$UCSYDIR
 10
0.0
 20
1.0
 30
0.0
  9
$PUCSNAME
  2

  9
$PUCSORG
 10
0.0
 20
0.0
 30
0.0
  9
$PUCSXDIR
 10
1.0
 20
0.0
 30
0.0
  9
$PUCSYDIR
 10
0.0
 20
1.0
 30
0.0
  9
$USERI1
 70
     1
  9
$USERI2
 70
     0
  9
$USERI3
 70
     0
  9
$USERI4
 70
     0
  9
$USERI5
 70
     0
  9
$USERR1
 40
0.0
  9
$USERR2
 40
0.0
  9
$USERR3
 40
0.0
  9
$USERR4
 40
0.0
  9
$USERR5
 40
0.0
  9
$WORLDVIEW
 70
     1
  9
$SHADEDGE
 70
     3
  9
$SHADEDIF
 70
    70
  9
$TILEMODE
 70
     1
  9
$MAXACTVP
 70
    16
  9
$PLIMCHECK
 70
     0
  9
$PEXTMIN
 10
1.0000000000000000E+20
 20
1.0000000000000000E+20
 30
1.0000000000000000E+20
  9
$PEXTMAX
 10
-1.0000000000000000E+20
 20
-1.0000000000000000E+20
 30
-1.0000000000000000E+20
  9
$PLIMMIN
 10
0.0
 20
0.0
  9
$PLIMMAX
 10
420.0
 20
297.0
  9
$UNITMODE
 70
     0
  9
$VISRETAIN
 70
     0
  9
$PLINEGEN
 70
     0
  9
$PSLTSCALE
 70
     1
  0
ENDSEC
  0
SECTION
  2
TABLES
  0
TABLE
  2
VPORT
 70
     1
  0
VPORT
  2
*ACTIVE
 70
     0
 10
0.0
 20
0.0
 11
1.0
 21
1.0
 12
137.7973616517492985
 22
6.5994724368068063
 13
0.0
 23
0.0
 14
7.0
 24
7.0
 15
7.0
 25
7.0
 16
0.0
 26
0.0
 36
1.0
 17
0.0
 27
0.0
 37
0.0
 40
185.0890840666532995
 41
1.887387387387387
 42
50.0
 43
0.0
 44
0.0
 50
0.0
 51
0.0
 71
     0
 72
 20000
 73
     1
 74
     0
 75
     1
 76
     1
 77
     0
 78
     0
  0
ENDTAB
  0
TABLE
  2
LTYPE
 70
    22
  0
LTYPE
  2
CONTINUOUS
 70
     0
  3
Solid line
 72
    65
 73
     0
 40
0.0
  0
LTYPE
  2
CENTER2
 70
     0
  3
___ _ ___ _ ___ _ ___ _ ___ _ ___ _ ___ _ ___ _
 72
    65
 73
     4
 40
1.125
 49
0.75
 49
-0.125
 49
0.125
 49
-0.125
  0
LTYPE
  2
HIDDEN2
 70
     0
  3
_ _ _ _ _ _ _ _ _ _ _ _ _ _ _ _ _ _ _ _ _ _ _ _
 72
    65
 73
     2
 40
0.1875
 49
0.125
 49
-0.0625
  0
LTYPE
  2
PHANTOM2
 70
     0
  3
___ _ _ ___ _ _ ___ _ _ ___ _ _ ___ _ _ ___ _ _
 72
    65
 73
     6
 40
1.25
 49
0.625
 49
-0.125
 49
0.125
 49
-0.125
 49
0.125
 49
-0.125
  0
LTYPE
  2
AMCONSTR
 70
     0
  3
_______________________
 72
    65
 73
     2
 40
9999.0
 49
9999.0
 49
0.0
  0
LTYPE
  2
HIDDEN
 70
     0
  3
Hidden __ __ __ __ __ __ __ __ __ __ __ __ __ _
 72
    65
 73
     2
 40
0.375
 49
0.25
 49
-0.125
  0
LTYPE
  2
CENTER
 70
     0
  3
Center ____ _ ____ _ ____ _ ____ _ ____ _ ____
 72
    65
 73
     4
 40
2.0
 49
1.25
 49
-0.25
 49
0.25
 49
-0.25
  0
LTYPE
  2
AMZIGZAG2
 70
     0
  3
/\/-/\/-/\/-/\/-/\/-/\/
 72
    65
 73
     2
 40
0.4401
 49
0.0001
 49
-0.4400000000000001
  0
LTYPE
  2
ACANSTGB
 70
     0
  3
__ . . __ . .
 72
    65
 73
     6
 40
0.35433070866
 49
0.15748031496
 49
-0.03937007874
 49
0.03937007874
 49
-0.03937007874
 49
0.03937007874
 49
-0.03937007874
  0
LTYPE
  2
ACANSTGL
 70
     0
  3
_ _ _ _ _
 72
    65
 73
     2
 40
0.11811023622
 49
0.07874015748
 49
-0.03937007874
  0
ENDTAB
  0
TABLE
  2
LAYER
 70
     9
  0
LAYER
  2
0
 70
     0
 62
     7
  6
CONTINUOUS
  0
LAYER
  2
240
 70
     0
 62
     4
  6
CONTINUOUS
  0
LAYER
  2
241
 70
     0
 62
   211
  6
CONTINUOUS
  0
LAYER
  2
242
 70
     0
 62
     3
  6
CONTINUOUS
  0
LAYER
  2
245
 70
     0
 62
     2
  6
CENTER2
  0
LAYER
  2
250
 70
     0
 62
     3
  6
CONTINUOUS
  0
LAYER
  2
DEFPOINTS
 70
     0
 62
     7
  6
CONTINUOUS
  0
LAYER
  2
247
 70
     0
 62
    60
  6
CONTINUOUS
  0
LAYER
  2
243
 70
     0
 62
   211
  6
HIDDEN2
  0
ENDTAB
  0
TABLE
  2
STYLE
 70
    10
  0
STYLE
  2
STANDARD
 70
     0
 40
0.0
 41
1.0
 50
0.0
 71
     0
 42
3.0
  3
romans.shx
  4
BIGFONT.SHX
  0
STYLE
  2
YOKO
 70
     0
 40
0.0
 41
1.0
 50
0.0
 71
     0
 42
3.0
  3
romans.shx
  4
extfont.shx
  0
STYLE
  2
ACJISTS
 70
     0
 40
1.0
 41
1.0
 50
0.0
 71
     0
 42
3.0
  3
amgdt.shx
  4
extfont.shx
  0
STYLE
  2

 70
     1
 40
0.0
 41
1.0
 50
0.0
 71
     0
 42
3.0
  3
genltshp.shx
  4

  0
STYLE
  2
ACANSGDT
 70
     0
 40
0.0
 41
1.0
 50
0.0
 71
     0
 42
3.0
  3
amgdt.shx
  4

  0
ENDTAB
  0
TABLE
  2
VIEW
 70
     0
  0
ENDTAB
  0
TABLE
  2
UCS
 70
     0
  0
ENDTAB
  0
TABLE
  2
APPID
 70
    42
  0
APPID
  2
ACAD
 70
     0
  0
APPID
  2
ACADANNOTATIVE
 70
     0
  0
APPID
  2
GLOBAL
 70
     0
  0
APPID
  2
DETAIL
 70
     0
  0
APPID
  2
GRPNAME
 70
     0
  0
APPID
  2
GPARA
 70
     0
  0
APPID
  2
DCO15
 70
     0
  0
APPID
  2
ITEMNAME
 70
     0
  0
APPID
  2
GRADE_0
 70
     0
  0
APPID
  2
ACAD_PSEXT
 70
     0
  0
APPID
  2
MCAD_NO_VIS
 70
     0
  0
APPID
  2
ACAD_TEMP_GRAPHIC
 70
     0
  0
APPID
  2
ACATTRIBSERVICES
 70
     0
  0
APPID
  2
GENIUS_GENSCREG_15
 70
     0
  0
APPID
  2
GENIUS_GENODEF_13
 70
     0
  0
APPID
  2
GENIUS_GENOBJ-N-SDF_13
 70
     0
  0
APPID
  2
GENIUS_GENREC_14
 70
     0
  0
APPID
  2
GENIUS_GENOBJ-N-REC_13
 70
     0
  0
APPID
  2
GENIUS_GENDIMSH_14
 70
     0
  0
APPID
  2
GENIUS_GENOBJ-N-DIM_13
 70
     0
  0
APPID
  2
GENIUS_GENDIM_13
 70
     0
  0
APPID
  2
GENIUS_GENDTOL_13
 70
     0
  0
APPID
  2
GENIUS_GENOLIS_13
 70
     0
  0
APPID
  2
GENIUS_GENOENT_13
 70
     0
  0
APPID
  2
GENIUS_GENOBJ-F-FEM_13
 70
     0
  0
APPID
  2
GENIUS_GENOREF_13
 70
     0
  0
APPID
  2
GENIUS_GEFFEM_13
 70
     0
  0
APPID
  2
GENIUS_GEFFEMP_13
 70
     0
  0
APPID
  2
AD_DRAW
 70
     0
  0
APPID
  2
DESIGNERASSEMBLIES
 70
     0
  0
APPID
  2
ACADM_DIM_EDIT
 70
     0
  0
APPID
  2
AMDT_DM_ADJ
 70
     0
  0
APPID
  2
GENIUS_GENOBJ-N-FIL_13
 70
     0
  0
APPID
  2
GENIUS_GENFIL_13
 70
     0
  0
APPID
  2
GENIUS_GENOBJ-N-CHA_13
 70
     0
  0
APPID
  2
ACAD_NAV_VCDISPLAY
 70
     0
  0
APPID
  2
ACAECLAYERSTANDARD
 70
     0
  0
APPID
  2
ACAD_DSTYLE_DIMINSPECT
 70
     0
  0
APPID
  2
ACAD_MLEADERVER
 70
     0
  0
APPID
  2
ACAD_DSTYLE_DIMJAG
 70
     0
  0
APPID
  2
ACAD_DSTYLE_DIMBREAK
 70
     0
  0
APPID
  2
ACAD_EXEMPT_FROM_CAD_STANDARDS
 70
     0
  0
ENDTAB
  0
TABLE
  2
DIMSTYLE
 70
    31
  0
DIMSTYLE
  2
STANDARD
 70
     0
  3

  4

  5

  6

  7

 40
1.0
 41
0.18
 42
0.0625
 43
0.38
 44
0.18
 45
0.0
 46
0.0
 47
0.0
 48
0.0
140
0.18
141
0.09
142
0.0
143
25.3999999999999986
144
1.0
145
0.0
146
1.0
147
0.09
 71
     0
 72
     0
 73
     1
 74
     1
 75
     0
 76
     0
 77
     0
 78
     0
170
     0
171
     2
172
     0
173
     0
174
     0
175
     0
176
     0
177
     0
178
     0
  0
DIMSTYLE
  2
BIGT
 70
     0
  3

  4

  5

  6

  7

 40
1.0
 41
2.2299999999999991
 42
0.5
 43
7.0
 44
1.0
 45
0.0
 46
0.0
 47
0.0
 48
0.01
140
2.799999999999998
141
0.0
142
0.0
143
25.3999999999999986
144
1.0
145
0.0
146
1.0
147
1.0
 71
     0
 72
     0
 73
     0
 74
     0
 75
     0
 76
     0
 77
     3
 78
     9
170
     0
171
     2
172
     1
173
     0
174
     1
175
     0
176
   256
177
   256
178
    40
  0
DIMSTYLE
  2
AM_ANSI
 70
     0
  3

  4
mm
  5

  6

  7

 40
1.0
 41
0.12
 42
0.05
 43
0.5
 44
0.1
 45
0.0
 46
0.0
 47
0.1
 48
0.1
140
0.12
141
0.0
142
0.0
143
25.3999999999999986
144
1.0
145
0.0
146
0.71
147
0.06
 71
     0
 72
     0
 73
     1
 74
     1
 75
     0
 76
     0
 77
     0
 78
     7
170
     0
171
     2
172
     0
173
     0
174
     0
175
     0
176
   256
177
   256
178
     2
  0
DIMSTYLE
  2
AM_ANSI$3
 70
     0
  3

  4
mm
  5

  6

  7

 40
1.0
 41
0.12
 42
0.05
 43
0.5
 44
0.1
 45
0.0
 46
0.0
 47
0.1
 48
0.1
140
0.12
141
0.0
142
0.0
143
25.3999999999999986
144
1.0
145
0.0
146
0.71
147
0.06
 71
     0
 72
     0
 73
     1
 74
     1
 75
     0
 76
     0
 77
     0
 78
     7
170
     0
171
     2
172
     0
173
     0
174
     0
175
     0
176
   256
177
   256
178
     2
  0
DIMSTYLE
  2
AM_ANSI$4
 70
     0
  3

  4
mm
  5

  6

  7

 40
1.0
 41
0.12
 42
0.05
 43
0.5
 44
0.1
 45
0.0
 46
0.0
 47
0.1
 48
0.1
140
0.12
141
0.0
142
0.0
143
25.3999999999999986
144
1.0
145
0.0
146
0.71
147
0.06
 71
     0
 72
     0
 73
     1
 74
     1
 75
     0
 76
     0
 77
     0
 78
     7
170
     0
171
     2
172
     0
173
     0
174
     0
175
     0
176
   256
177
   256
178
     2
  0
DIMSTYLE
  2
AM_ANSI$7
 70
     0
  3

  4
mm
  5

  6

  7

 40
1.0
 41
0.12
 42
0.05
 43
0.5
 44
0.1
 45
0.0
 46
0.0
 47
0.1
 48
0.1
140
0.12
141
0.0
142
0.0
143
25.3999999999999986
144
1.0
145
0.0
146
0.71
147
0.06
 71
     0
 72
     0
 73
     1
 74
     1
 75
     0
 76
     0
 77
     0
 78
     7
170
     0
171
     2
172
     0
173
     0
174
     0
175
     0
176
   256
177
   256
178
     2
  0
DIMSTYLE
  2
AM_ANSI$SF
 70
     0
  3

  4
mm
  5

  6

  7

 40
1.0
 41
0.12
 42
0.05
 43
0.5
 44
0.1
 45
0.0
 46
0.0
 47
0.1
 48
0.1
140
0.12
141
0.0
142
0.0
143
25.3999999999999986
144
1.0
145
0.0
146
0.71
147
0.06
 71
     0
 72
     0
 73
     1
 74
     1
 75
     1
 76
     1
 77
     0
 78
     7
170
     0
171
     2
172
     0
173
     0
174
     0
175
     0
176
   256
177
   256
178
     2
  0
DIMSTYLE
  2
AM_ANSI$SH
 70
     0
  3

  4
mm
  5

  6
GENAXEH
  7

 40
1.0
 41
0.12
 42
0.05
 43
0.5
 44
0.1
 45
0.0
 46
0.0
 47
0.1
 48
0.1
140
0.12
141
0.0
142
0.0
143
25.3999999999999986
144
1.0
145
0.0
146
0.71
147
0.06
 71
     0
 72
     0
 73
     1
 74
     1
 75
     1
 76
     1
 77
     0
 78
     7
170
     0
171
     2
172
     0
173
     1
174
     0
175
     0
176
   256
177
   256
178
     2
  0
ENDTAB
  0
ENDSEC
  0
SECTION
  2
BLOCKS
  0
BLOCK
  8
0
  2
$MODEL_SPACE
 70
     0
 10
0.0
 20
0.0
 30
0.0
  3
$MODEL_SPACE
  1

  0
ENDBLK
  5
D01
  8
0
  0
BLOCK
 67
     1
  8
0
  2
$PAPER_SPACE
 70
     0
 10
0.0
 20
0.0
 30
0.0
  3
$PAPER_SPACE
  1

  0
ENDBLK
  5
CFD
 67
     1
  8
0
  0
BLOCK
  8
0
  2
_OPEN
 70
     0
 10
0.0
 20
0.0
 30
0.0
  3
_OPEN
  1

  0
LINE
  5
A70
  8
0
  6
BYBLOCK
 62
     0
 10
-1.0
 20
0.1666666666666666
 30
0.0
 11
0.0
 21
0.0
 31
0.0
  0
LINE
  5
A71
  8
0
  6
BYBLOCK
 62
     0
 10
-1.0
 20
-0.1666666666666666
 30
0.0
 11
0.0
 21
0.0
 31
0.0
  0
LINE
  5
A72
  8
0
  6
BYBLOCK
 62
     0
 10
0.0
 20
0.0
 30
0.0
 11
-1.0
 21
0.0
 31
0.0
  0
ENDBLK
  5
A73
  8
0
  0
BLOCK
  8
0
  2
矢印なし
 70
     0
 10
0.0
 20
0.0
 30
0.0
  3
矢印なし
  1

  0
ENDBLK
  5
6E5
  8
0
  0
BLOCK
  8
0
  2
GENAXEH
 70
     0
 10
0.0
 20
0.0
 30
0.0
  3
GENAXEH
  1

  0
LINE
  5
AAB
  8
0
 10
-1.0
 20
0.0
 30
0.0
 11
1.0
 21
0.0
 31
0.0
  0
ENDBLK
  5
AAC
  8
0
  0
BLOCK
  8
0
  2
*U6
 70
     1
 10
0.0
 20
0.0
 30
0.0
  3
*U6
  1

  0
TEXT
  5
C8B
  8
250
 10
5.1428870987580328
 20
-27.8343502942231389
 30
0.0
 40
2.799999999999998
  1
ST28W
  7
ACJISTS
  0
ENDBLK
  5
C8D
  8
0
  0
BLOCK
  8
0
  2
_ACMFILLEDHALF
 70
     0
 10
0.0
 20
0.0
 30
0.0
  3
_ACMFILLEDHALF
  1

  0
TRACE
  5
DCA
  8
240
 62
     0
 10
-0.8
 20
0.0
 30
0.0
 11
-1.0
 21
0.166666666
 31
0.0
 12
0.0
 22
0.0
 32
0.0
 13
0.0
 23
0.0
 33
0.0
  0
LINE
  5
DCB
  8
240
 62
     0
 10
-1.0
 20
0.0
 30
0.0
 11
-0.8
 21
0.0
 31
0.0
  0
ENDBLK
  5
DC9
  8
0
  0
ENDSEC
  0
SECTION
  2
ENTITIES
  0
INSERT
  5
6E6
  8
245
  2
矢印なし
 10
175.6238269664376901
 20
90.5512357169059499
 30
0.0
  0
TEXT
  5
8A4
  8
241
  6
CONTINUOUS
 10
0.0
 20
48.9999999999999503
 30
0.0
 40
5.0
  1
ST28W-CKB2-245
  7
YOKO
 11
0.0
 21
48.9999999999999503
 31
0.0
 73
     1
  0
LINE
  5
975
  8
250
  6
CONTINUOUS
 10
248.6752855597916891
 20
26.0257739379897686
 30
0.0
 11
261.7419522264582952
 21
26.0257739379897686
 31
0.0
1001
ITEMNAME
1000
LNSP2
  0
LINE
  5
B1C
  8
240
  6
CONTINUOUS
 10
0.0
 20
13.9999999999999396
 30
0.0
 11
225.0000000000001137
 21
13.9999999999999396
 31
0.0
  0
LINE
  5
B1D
  8
240
  6
CONTINUOUS
 10
0.0
 20
-14.0000000000000302
 30
0.0
 11
225.0000000000011084
 21
-13.9999999999999591
 31
0.0
  0
LINE
  5
B1F
  8
245
  6
CENTER2
 10
246.0000000000013074
 20
-0.0000000000003553
 30
0.0
 11
-0.9999999999999784
 21
0.0
 31
0.0
  0
LINE
  5
B20
  8
240
  6
CONTINUOUS
 10
0.0
 20
13.9999999999999396
 30
0.0
 11
0.0
 21
-14.0000000000000302
 31
0.0
  0
LINE
  5
B23
  8
240
  6
CONTINUOUS
 10
245.0000000000011937
 20
11.9999999999999005
 30
0.0
 11
225.0000000000019895
 21
11.9999999999997708
 31
0.0
  0
LINE
  5
B24
  8
240
  6
CONTINUOUS
 10
245.0000000000013074
 20
-12.0000000000001705
 30
0.0
 11
225.0000000000009095
 21
-12.0000000000004903
 31
0.0
  0
LINE
  5
B29
  8
243
  6
HIDDEN2
 10
227.5000000000015064
 20
7.0000000000000124
 30
0.0
 11
245.0000000000013074
 21
6.9999999999998979
 31
0.0
  0
LINE
  5
B2D
  8
245
  6
CENTER2
 10
238.4500000000012108
 20
3.4999999999995
 30
0.0
 11
238.4500000000012108
 21
-3.500000000000496
 31
0.0
  0
LINE
  5
B32
  8
241
  6
CONTINUOUS
 10
237.2000000000003013
 20
-0.7216878364882149
 30
0.0
 11
238.4500000000008981
 21
-1.443375672974879
 31
0.0
  0
LINE
  5
B33
  8
241
  6
CONTINUOUS
 10
238.4500000000008981
 20
-1.443375672974879
 30
0.0
 11
239.7000000000003013
 21
-0.7216878364867372
 31
0.0
  0
LINE
  5
B34
  8
240
  6
CONTINUOUS
 10
245.0000000000013074
 20
-12.0000000000001705
 30
0.0
 11
245.0000000000011937
 21
11.9999999999999005
 31
0.0
  0
LINE
  5
B35
  8
240
  6
CONTINUOUS
 10
225.0000000000011084
 20
-13.9999999999999591
 30
0.0
 11
225.0000000000009095
 21
-12.0000000000004903
 31
0.0
  0
LINE
  5
B36
  8
240
  6
CONTINUOUS
 10
225.0000000000001137
 20
13.9999999999999396
 30
0.0
 11
225.0000000000019895
 21
11.9999999999997708
 31
0.0
  0
LINE
  5
B3C
  8
241
  6
CONTINUOUS
 10
220.5
 20
-13.9999999999999591
 30
0.0
 11
220.5
 21
13.9999999999993197
 31
0.0
  0
LINE
  5
B3F
  8
243
  6
HIDDEN2
 10
227.5000000000015064
 20
-7.000000000000683
 30
0.0
 11
245.0000000000013074
 21
-7.000000000000651
 31
0.0
  0
LINE
  5
B44
  8
241
  6
CONTINUOUS
 10
225.0000000000009948
 20
11.7999999999991694
 30
0.0
 11
225.0000000000011937
 21
-11.7999999999998195
 31
0.0
  0
LINE
  5
B48
  8
241
  6
CONTINUOUS
 10
237.2000000000003013
 20
0.7216878364875328
 30
0.0
 11
237.1999999999993065
 21
-0.7216878364882147
 31
0.0
  0
LINE
  5
B49
  8
241
  6
CONTINUOUS
 10
239.7000000000003013
 20
0.7216878364860551
 30
0.0
 11
239.7000000000020918
 21
-0.7216878364867373
 31
0.0
  0
LINE
  5
B4A
  8
241
  6
CONTINUOUS
 10
237.2000000000003013
 20
0.7216878364875328
 30
0.0
 11
238.4500000000008981
 21
1.443375672974198
 31
0.0
  0
LINE
  5
B4B
  8
241
  6
CONTINUOUS
 10
238.4500000000008981
 20
1.443375672974198
 30
0.0
 11
239.7000000000003013
 21
0.7216878364860551
 31
0.0
  0
LINE
  5
BC5
  8
247
  6
CONTINUOUS
 10
6.7499999999299964
 20
-9.0000000000000036
 30
0.0
 11
13.4423076919700009
 21
-9.0000000000000036
 31
0.0
  0
ARC
  5
BC6
  8
247
  6
CONTINUOUS
 10
6.7499999999299964
 20
-7.2500000000700311
 30
0.0
 40
1.7499999999299991
 50
90.0
 51
270.0
  0
ARC
  5
BC7
  8
247
  6
CONTINUOUS
 10
13.4423076919700009
 20
-7.2500000000700311
 30
0.0
 40
1.7499999999299991
 50
270.0
 51
90.0
  0
LINE
  5
BC8
  8
247
  6
CONTINUOUS
 10
7.6153846152799911
 20
-5.5000000001400631
 30
0.0
 11
6.7551484580379917
 21
-8.5000000000200089
 31
0.0
  0
LINE
  5
BC9
  8
247
  6
CONTINUOUS
 10
8.5150161816641798
 20
-6.923076923159897
 30
0.0
 11
7.2073238740241816
 21
-6.923076923159897
 31
0.0
  0
ARC
  5
BCA
  8
247
  6
CONTINUOUS
 10
8.8548561839102131
 20
-6.0495986677028668
 30
0.0
 40
0.5538165441895349
 50
342.9978896752954256
 51
82.924166218512795
  0
ARC
  5
BCB
  8
247
  6
CONTINUOUS
 10
8.4331216769712114
 20
-5.9360330444658311
 30
0.0
 40
0.9904354236226808
 50
274.7429368522014101
 51
343.8492262732664244
1001
GENIUS_GENOBJ-N-FIL_13
1002
{
1000
OWNER
1000
GEN
1002
}
1001
GENIUS_GENODEF_13
1002
{
1000
HIER
1070
     0
1002
}
1002
{
1000
MANEDIT
1070
     0
1002
}
1002
{
1000
NOSEL
1070
     0
1002
}
1002
{
1000
BEHIND
1070
     0
1002
}
1002
{
1000
OTHER
1070
     0
1002
}
1002
{
1000
REACTOR
1002
}
  0
LINE
  5
BCC
  8
247
  6
CONTINUOUS
 10
8.0628407656779864
 20
-8.5000000000200089
 30
0.0
 11
6.7551484580379917
 21
-8.5000000000200089
 31
0.0
  0
LINE
  5
BCD
  8
247
  6
CONTINUOUS
 10
7.6153846152799911
 20
-5.5000000001400631
 30
0.0
 11
8.9230769229200035
 21
-5.5000000001400631
 31
0.0
  0
ARC
  5
BCE
  8
247
  6
CONTINUOUS
 10
8.43908036345303
 20
-7.4820242326654807
 30
0.0
 40
0.5640818586791229
 50
335.9909416525217125
 51
82.2634434590691228
  0
ARC
  5
BCF
  8
247
  6
CONTINUOUS
 10
7.9617373146529342
 20
-7.4874290391865079
 30
0.0
 40
1.0176059446230981
 50
275.7019851642580761
 51
347.2773384368222764
1001
GENIUS_GENOBJ-N-FIL_13
1002
{
1000
OWNER
1000
GEN
1002
}
1001
GENIUS_GENODEF_13
1002
{
1000
HIER
1070
     0
1002
}
1002
{
1000
MANEDIT
1070
     0
1002
}
1002
{
1000
NOSEL
1070
     0
1002
}
1002
{
1000
BEHIND
1070
     0
1002
}
1002
{
1000
OTHER
1070
     0
1002
}
1002
{
1000
REACTOR
1002
}
  0
LINE
  5
BD0
  8
247
  6
CONTINUOUS
 10
9.7166869194580006
 20
-8.5000000000200089
 30
0.0
 11
10.5769230766999893
 21
-5.5000000001400631
 31
0.0
  0
LINE
  5
BD1
  8
247
  6
CONTINUOUS
 10
12.99999999968
 20
-5.5000000001400631
 30
0.0
 11
12.4342633805434009
 21
-5.5000000001400631
 31
0.0
  0
LINE
  5
BD2
  8
247
  6
CONTINUOUS
 10
11.5384615382000106
 20
-8.5000000000200089
 30
0.0
 11
12.1538461535599893
 21
-8.5000000000200089
 31
0.0
  0
ARC
  5
BD3
  8
247
  6
CONTINUOUS
 10
13.2912087908771301
 20
-7.5832851359733713
 30
0.0
 40
2.2526500823422122
 50
112.3594881415299938
 51
164.9932485428460893
  0
ARC
  5
BD4
  8
247
  6
CONTINUOUS
 10
12.6259305207867705
 20
-6.3083126551946407
 30
0.0
 40
0.8906723995727782
 50
4.9945893190753701
 51
65.1663289573017437
1001
GENIUS_GENOBJ-N-FIL_13
1002
{
1000
OWNER
1000
GEN
1002
}
1001
GENIUS_GENODEF_13
1002
{
1000
HIER
1070
     0
1002
}
1002
{
1000
MANEDIT
1070
     0
1002
}
1002
{
1000
NOSEL
1070
     0
1002
}
1002
{
1000
BEHIND
1070
     0
1002
}
1002
{
1000
OTHER
1070
     0
1002
}
1002
{
1000
REACTOR
1002
}
  0
ARC
  5
BD5
  8
247
  6
CONTINUOUS
 10
11.7735411137874202
 20
-7.1601458886677847
 30
0.0
 40
1.392781735586712
 50
285.8460965557807754
 51
352.3251370041625137
  0
ARC
  5
BD6
  8
247
  6
CONTINUOUS
 10
12.3577872741596302
 20
-7.459243431527284
 30
0.0
 40
1.324563662670287
 50
159.7136016704901067
 51
231.7887456564139939
1001
GENIUS_GENOBJ-N-FIL_13
1002
{
1000
OWNER
1000
GEN
1002
}
1001
GENIUS_GENODEF_13
1002
{
1000
HIER
1070
     0
1002
}
1002
{
1000
MANEDIT
1070
     0
1002
}
1002
{
1000
NOSEL
1070
     0
1002
}
1002
{
1000
BEHIND
1070
     0
1002
}
1002
{
1000
OTHER
1070
     0
1002
}
1002
{
1000
REACTOR
1002
}
  0
LINE
  5
BD7
  8
247
  6
CONTINUOUS
 10
12.46153846124
 20
-7.3461538462199769
 30
0.0
 11
13.1538461535199893
 21
-7.3461538462199769
 31
0.0
  0
LINE
  5
BD8
  8
247
  6
CONTINUOUS
 10
6.749999999929968
 20
-5.5000000001400631
 30
0.0
 11
7.4230769229799289
 21
-5.5000000001400631
 31
0.0
  0
LINE
  5
BD9
  8
250
  6
CONTINUOUS
 10
0.0
 20
14.4999999999999396
 30
0.0
 11
0.0000000000000013
 21
36.0
 31
0.0
  0
LINE
  5
BDA
  8
250
  6
CONTINUOUS
 10
245.0000000000011937
 20
12.4999999999999005
 30
0.0
 11
245.0000000000011937
 21
36.0
 31
0.0
  0
LINE
  5
BDB
  8
250
  6
CONTINUOUS
 10
2.0
 20
35.0
 30
0.0
 11
243.0000000000011937
 21
35.0
 31
0.0
  0
TEXT
  5
BDF
  8
250
  6
CONTINUOUS
 10
251.0752855597916948
 20
27.0257739379897686
 30
0.0
 40
2.799999999999998
  1
CK2
  7
YOKO
1001
ITEMNAME
1000
LNSP3
  0
LINE
  5
BE2
  8
250
  6
CONTINUOUS
 10
245.5000000000013074
 20
-12.0000000000001794
 30
0.0
 11
260.0
 21
-12.0000000000001794
 31
0.0
  0
LINE
  5
BE3
  8
250
  6
CONTINUOUS
 10
245.5000000000011937
 20
11.9999999999999005
 30
0.0
 11
260.0
 21
11.9999999999998899
 31
0.0
  0
LINE
  5
BE4
  8
250
  6
CONTINUOUS
 10
259.0
 20
-10.0000000000001794
 30
0.0
 11
259.0
 21
9.9999999999998952
 31
0.0
  0
TEXT
  5
BE8
  8
250
  6
CONTINUOUS
 10
118.5000000000005969
 20
36.0
 30
0.0
 40
2.799999999999998
  1
245
  0
LINE
  5
BE9
  8
250
  6
CONTINUOUS
 10
243.0000000000011937
 20
35.3333333333333428
 30
0.0
 11
245.0000000000011937
 21
35.0
 31
0.0
  0
LINE
  5
BEA
  8
250
  6
CONTINUOUS
 10
243.0000000000011937
 20
34.6666666666666714
 30
0.0
 11
245.0000000000011937
 21
35.0
 31
0.0
  0
LINE
  5
BEB
  8
250
  6
CONTINUOUS
 10
245.0000000000011937
 20
35.0
 30
0.0
 11
243.0000000000011937
 21
35.0
 31
0.0
  0
LINE
  5
BEC
  8
250
  6
CONTINUOUS
 10
2.0
 20
34.6666666666666714
 30
0.0
 11
0.0000000000000013
 21
35.0
 31
0.0
  0
LINE
  5
BED
  8
250
  6
CONTINUOUS
 10
2.0
 20
35.3333333333333428
 30
0.0
 11
0.0000000000000013
 21
35.0
 31
0.0
  0
LINE
  5
BEE
  8
250
  6
CONTINUOUS
 10
0.0000000000000013
 20
35.0
 30
0.0
 11
2.0
 21
35.0
 31
0.0
  0
LINE
  5
BEF
  8
250
  6
CONTINUOUS
 10
241.57750120110029
 20
13.73205080756874
 30
0.0
 11
248.6752855597916891
 21
26.0257739379897686
 31
0.0
1001
ACAD
1000
DSTYLE
1002
{
1070
    41
1040
2.0
1002
}
  0
LINE
  5
BF0
  8
250
  6
CONTINUOUS
 10
241.8661763356952008
 20
13.5653841409020703
 30
0.0
 11
240.57750120110029
 21
11.9999999999998597
 31
0.0
  0
LINE
  5
BF1
  8
250
  6
CONTINUOUS
 10
241.2888260665054929
 20
13.8987174742354007
 30
0.0
 11
240.57750120110029
 21
11.9999999999998597
 31
0.0
  0
LINE
  5
BF2
  8
250
  6
CONTINUOUS
 10
240.57750120110029
 20
11.9999999999998597
 30
0.0
 11
241.57750120110029
 21
13.73205080756874
 31
0.0
  0
TEXT
  5
BF3
  8
250
  6
CONTINUOUS
 10
258.0
 20
-4.0000000000000968
 30
0.0
 40
2.799999999999998
  1
\U+220524
 50
90.0
  0
LINE
  5
BF4
  8
250
  6
CONTINUOUS
 10
258.6666666666666856
 20
9.9999999999998952
 30
0.0
 11
259.0
 21
11.9999999999999005
 31
0.0
  0
LINE
  5
BF5
  8
250
  6
CONTINUOUS
 10
259.3333333333333144
 20
9.9999999999998952
 30
0.0
 11
259.0
 21
11.9999999999999005
 31
0.0
  0
LINE
  5
BF6
  8
250
  6
CONTINUOUS
 10
259.0
 20
11.9999999999999005
 30
0.0
 11
259.0
 21
9.9999999999998952
 31
0.0
  0
LINE
  5
BF7
  8
250
  6
CONTINUOUS
 10
259.3333333333333144
 20
-10.0000000000001794
 30
0.0
 11
259.0
 21
-12.0000000000001794
 31
0.0
  0
LINE
  5
BF8
  8
250
  6
CONTINUOUS
 10
258.6666666666666856
 20
-10.0000000000001794
 30
0.0
 11
259.0
 21
-12.0000000000001794
 31
0.0
  0
LINE
  5
BF9
  8
250
  6
CONTINUOUS
 10
259.0
 20
-12.0000000000001794
 30
0.0
 11
259.0
 21
-10.0000000000001794
 31
0.0
  0
LINE
  5
C02
  8
250
  6
CONTINUOUS
 10
5.5428870987580332
 20
-29.2343502942231304
 30
0.0
 11
21.0095537654247018
 21
-29.2343502942231304
 31
0.0
  0
LINE
  5
C03
  8
250
  6
CONTINUOUS
 10
21.0095537654247018
 20
-29.2343502942231304
 30
0.0
 11
28.793130830515409
 21
-15.9249807451960201
 31
0.0
  0
LINE
  5
C04
  8
250
  6
CONTINUOUS
 10
28.7931308305153983
 20
-15.9249807451960201
 30
0.0
 11
29.9188968499993315
 21
-14.0000000000000195
 31
0.0
  0
LINE
  5
C05
  8
250
  6
CONTINUOUS
 10
29.0465593522973684
 20
-16.0731906526988304
 30
0.0
 11
29.9188968499993315
 21
-14.0000000000000195
 31
0.0
  0
LINE
  5
C06
  8
250
  6
CONTINUOUS
 10
29.9188968499993315
 20
-14.0000000000000195
 30
0.0
 11
28.5397023087334283
 21
-15.7767708376932099
 31
0.0
  0
INSERT
  5
C07
  8
240
  2
*U6
 10
0.0
 20
0.0
 30
0.0
  0
CIRCLE
  5
C19
  8
242
  6
CONTINUOUS
 10
238.4500000000012108
 20
-0.0000000000001847
 30
0.0
 40
2.25
  0
CIRCLE
  5
C1A
  8
241
  6
CONTINUOUS
 10
238.4500000000012108
 20
-0.0000000000004974
 30
0.0
 40
2.5
  0
VIEWPORT
  5
22
 67
     1
  8
0
 10
261.517699115044195
 20
148.5
 30
0.0
 40
523.0353982300885036
 41
297.0
 68
     1
 69
     1
1001
ACAD
1000
MVIEW
1002
{
1070
    16
1010
0.0
1020
0.0
1030
0.0
1010
0.0
1020
0.0
1030
1.0
1040
0.0
1040
297.0
1040
261.517699115044195
1040
148.5
1040
50.0
1040
0.0
1040
0.0
1070
     0
1070
   100
1070
     1
1070
     1
1070
     0
1070
     0
1070
     0
1070
     0
1040
0.0
1040
0.0
1040
0.0
1040
1.0
1040
1.0
1040
10.0
1040
10.0
1070
     0
1002
{
1002
}
1002
}
1001
GENIUS_GENOBJ-N-SDF_13
1002
{
1000
OWNER
1000
GEN
1002
}
1001
GENIUS_GENODEF_13
1002
{
1000
HIER
1070
     0
1002
}
1002
{
1000
MANEDIT
1070
     0
1002
}
1002
{
1000
NOSEL
1070
     0
1002
}
1002
{
1000
BEHIND
1070
     0
1002
}
1002
{
1000
OTHER
1070
     0
1002
}
1002
{
1000
REACTOR
1002
}
1001
GENIUS_GENSCREG_15
1000
PF
1040
1.0
1000
DF
1040
1.0
1000
MIN
1011
0.0
1021
0.0
1031
0.0
1021
0.0
1031
0.0
1000
MAX
1011
523.0353982300885036
1021
0.0
1031
0.0
1021
297.0
1031
0.0
1000
FLAGS
1070
     4
  0
ENDSEC
  0
EOF
