  0
SECTION
  2
HEADER
  9
$ACADVER
  1
AC1009
  9
$INSBASE
 10
0.0
 20
0.0
 30
0.0
  9
$EXTMIN
 10
-14.326505950434919
 20
-22.53653727194251
 30
-0.0000000349181948
  9
$EXTMAX
 10
176.00364238065731
 20
54.010254334621088
 30
0.0000000814935747
  9
$LIMMIN
 10
0.0
 20
0.0
  9
$LIMMAX
 10
420.0
 20
297.0
  9
$ORTHOMODE
 70
     1
  9
$REGENMODE
 70
     1
  9
$FILLMODE
 70
     1
  9
$QTEXTMODE
 70
     0
  9
$MIRRTEXT
 70
     1
  9
$DRAGMODE
 70
     2
  9
$LTSCALE
 40
10.0
  9
$OSMODE
 70
    39
  9
$ATTMODE
 70
     1
  9
$TEXTSIZE
 40
3.0
  9
$TRACEWID
 40
1.0
  9
$TEXTSTYLE
  7
YOKO
  9
$CLAYER
  8
241
  9
$CELTYPE
  6
BYLAYER
  9
$CECOLOR
 62
   256
  9
$DIMSCALE
 40
1.0
  9
$DIMASZ
 40
2.0
  9
$DIMEXO
 40
2.0
  9
$DIMDLI
 40
2.5
  9
$DIMRND
 40
0.0
  9
$DIMDLE
 40
0.0
  9
$DIMEXE
 40
2.0
  9
$DIMTP
 40
0.0
  9
$DIMTM
 40
0.0
  9
$DIMTXT
 40
4.0
  9
$DIMCEN
 40
0.0
  9
$DIMTSZ
 40
0.0
  9
$DIMTOL
 70
     0
  9
$DIMLIM
 70
     0
  9
$DIMTIH
 70
     0
  9
$DIMTOH
 70
     0
  9
$DIMSE1
 70
     0
  9
$DIMSE2
 70
     0
  9
$DIMTAD
 70
     3
  9
$DIMZIN
 70
     8
  9
$DIMBLK
  1

  9
$DIMASO
 70
     1
  9
$DIMSHO
 70
     1
  9
$DIMPOST
  1

  9
$DIMAPOST
  1

  9
$DIMALT
 70
     0
  9
$DIMALTD
 70
     2
  9
$DIMALTF
 40
25.399999999999999
  9
$DIMLFAC
 40
1.0
  9
$DIMTOFL
 70
     1
  9
$DIMTVP
 40
0.0
  9
$DIMTIX
 70
     1
  9
$DIMSOXD
 70
     0
  9
$DIMSAH
 70
     1
  9
$DIMBLK1
  1
OPEN
  9
$DIMBLK2
  1
OPEN
  9
$DIMSTYLE
  2
BIGT
  9
$DIMCLRD
 70
   256
  9
$DIMCLRE
 70
   256
  9
$DIMCLRT
 70
    40
  9
$DIMTFAC
 40
1.0
  9
$DIMGAP
 40
1.0
  9
$LUNITS
 70
     2
  9
$LUPREC
 70
     3
  9
$SKETCHINC
 40
1.0
  9
$FILLETRAD
 40
0.0
  9
$AUNITS
 70
     0
  9
$AUPREC
 70
     3
  9
$MENU
  1
.
  9
$ELEVATION
 40
0.0
  9
$PELEVATION
 40
0.0
  9
$THICKNESS
 40
0.0
  9
$LIMCHECK
 70
     0
  9
$BLIPMODE
 70
     0
  9
$CHAMFERA
 40
10.0
  9
$CHAMFERB
 40
10.0
  9
$SKPOLY
 70
     0
  9
$TDCREATE
 40
2455145.7025486459
  9
$TDUPDATE
 40
2456093.5997238201
  9
$TDINDWG
 40
0.0771305556
  9
$TDUSRTIMER
 40
0.0771303819
  9
$USRTIMER
 70
     1
  9
$ANGBASE
 50
0.0
  9
$ANGDIR
 70
     0
  9
$PDMODE
 70
     1
  9
$PDSIZE
 40
-5.0
  9
$PLINEWID
 40
0.0
  9
$COORDS
 70
     2
  9
$SPLFRAME
 70
     0
  9
$SPLINETYPE
 70
     6
  9
$SPLINESEGS
 70
     8
  9
$ATTDIA
 70
     1
  9
$ATTREQ
 70
     1
  9
$HANDLING
 70
     1
  9
$HANDSEED
  5
13E6
  9
$SURFTAB1
 70
     6
  9
$SURFTAB2
 70
     6
  9
$SURFTYPE
 70
     6
  9
$SURFU
 70
     6
  9
$SURFV
 70
     6
  9
$UCSNAME
  2

  9
$UCSORG
 10
0.0
 20
0.0
 30
0.0
  9
$UCSXDIR
 10
1.0
 20
0.0
 30
0.0
  9
$UCSYDIR
 10
0.0
 20
1.0
 30
0.0
  9
$PUCSNAME
  2

  9
$PUCSORG
 10
0.0
 20
0.0
 30
0.0
  9
$PUCSXDIR
 10
1.0
 20
0.0
 30
0.0
  9
$PUCSYDIR
 10
0.0
 20
1.0
 30
0.0
  9
$USERI1
 70
     1
  9
$USERI2
 70
     0
  9
$USERI3
 70
     0
  9
$USERI4
 70
     0
  9
$USERI5
 70
     0
  9
$USERR1
 40
0.0
  9
$USERR2
 40
0.0
  9
$USERR3
 40
0.0
  9
$USERR4
 40
0.0
  9
$USERR5
 40
0.0
  9
$WORLDVIEW
 70
     1
  9
$SHADEDGE
 70
     3
  9
$SHADEDIF
 70
    70
  9
$TILEMODE
 70
     1
  9
$MAXACTVP
 70
    16
  9
$PLIMCHECK
 70
     0
  9
$PEXTMIN
 10
1.0000000000000000E+020
 20
1.0000000000000000E+020
 30
1.0000000000000000E+020
  9
$PEXTMAX
 10
-1.0000000000000000E+020
 20
-1.0000000000000000E+020
 30
-1.0000000000000000E+020
  9
$PLIMMIN
 10
0.0
 20
0.0
  9
$PLIMMAX
 10
420.0
 20
297.0
  9
$UNITMODE
 70
     0
  9
$VISRETAIN
 70
     0
  9
$PLINEGEN
 70
     0
  9
$PSLTSCALE
 70
     1
  0
ENDSEC
  0
SECTION
  2
TABLES
  0
TABLE
  2
VPORT
 70
    38
  0
VPORT
  2
*ACTIVE
 70
     0
 10
0.0
 20
0.0
 11
1.0
 21
1.0
 12
80.838568215111223
 22
15.736858531339299
 13
0.0
 23
0.0
 14
7.0
 24
7.0
 15
7.0
 25
7.0
 16
0.0
 26
0.0
 36
1.0
 17
0.0
 27
0.0
 37
0.0
 40
137.7904649916029
 41
1.3877995642701519
 42
50.0
 43
0.0
 44
0.0
 50
0.0
 51
0.0
 71
     0
 72
  2000
 73
     1
 74
     0
 75
     0
 76
     0
 77
     0
 78
     0
  0
ENDTAB
  0
TABLE
  2
LTYPE
 70
    21
  0
LTYPE
  2
CONTINUOUS
 70
     0
  3
Solid line
 72
    65
 73
     0
 40
0.0
  0
LTYPE
  2
CENTER2
 70
     0
  3
___ _ ___ _ ___ _ ___ _ ___ _ ___ _ ___ _ ___ _
 72
    65
 73
     4
 40
1.125
 49
0.75
 49
-0.125
 49
0.125
 49
-0.125
  0
LTYPE
  2
PHANTOM2
 70
     0
  3
___ _ _ ___ _ _ ___ _ _ ___ _ _ ___ _ _ ___ _ _
 72
    65
 73
     6
 40
1.25
 49
0.625
 49
-0.125
 49
0.125
 49
-0.125
 49
0.125
 49
-0.125
  0
LTYPE
  2
HIDDEN2
 70
     0
  3
_ _ _ _ _ _ _ _ _ _ _ _ _ _ _ _ _ _ _ _ _ _ _ _
 72
    65
 73
     2
 40
0.1875
 49
0.125
 49
-0.0625
  0
LTYPE
  2
AMCONSTR
 70
     0
  3
_______________________
 72
    65
 73
     2
 40
9999.0
 49
9999.0
 49
0.0
  0
LTYPE
  2
HIDDEN
 70
     0
  3
Hidden __ __ __ __ __ __ __ __ __ __ __ __ __ _
 72
    65
 73
     2
 40
9.5249999999999968
 49
6.349999999999997
 49
-3.174999999999998
  0
LTYPE
  2
CENTER
 70
     0
  3
____ _ ____ _ ____ _ ____ _ ____ _ ____ _ ____ 
 72
    65
 73
     4
 40
2.0
 49
1.25
 49
-0.25
 49
0.25
 49
-0.25
  0
LTYPE
  2
ACANSTGB
 70
     0
  3
__ . . __ . .
 72
    65
 73
     6
 40
0.35433070866
 49
0.15748031496
 49
-0.03937007874
 49
0.03937007874
 49
-0.03937007874
 49
0.03937007874
 49
-0.03937007874
  0
LTYPE
  2
ACANSTGL
 70
     0
  3
_ _ _ _ _
 72
    65
 73
     2
 40
0.11811023622
 49
0.07874015748
 49
-0.03937007874
  0
LTYPE
  2
AMZIGZAG2
 70
     0
  3
/\/-/\/-/\/-/\/-/\/-/\/
 72
    65
 73
     2
 40
0.4401
 49
0.0001
 49
-0.4400000000000001
  0
ENDTAB
  0
TABLE
  2
LAYER
 70
     8
  0
LAYER
  2
0
 70
     0
 62
     7
  6
CONTINUOUS
  0
LAYER
  2
240
 70
     0
 62
     4
  6
CONTINUOUS
  0
LAYER
  2
241
 70
     0
 62
   211
  6
CONTINUOUS
  0
LAYER
  2
245
 70
     0
 62
     2
  6
CENTER2
  0
LAYER
  2
250
 70
     0
 62
     3
  6
CONTINUOUS
  0
LAYER
  2
DEFPOINTS
 70
     0
 62
     7
  6
CONTINUOUS
  0
ENDTAB
  0
TABLE
  2
STYLE
 70
     9
  0
STYLE
  2
STANDARD
 70
     0
 40
0.0
 41
1.0
 50
0.0
 71
     0
 42
3.0
  3
romans.shx
  4
BIGFONT.SHX
  0
STYLE
  2
YOKO
 70
     0
 40
0.0
 41
1.0
 50
0.0
 71
     0
 42
3.0
  3
romans.shx
  4
extfont.shx
  0
STYLE
  2
ACANSTS
 70
     0
 40
1.0
 41
1.0
 50
0.0
 71
     0
 42
3.0
  3
romans.shx
  4
extfont.shx
  0
STYLE
  2
ACANSGDT
 70
     0
 40
0.0
 41
1.0
 50
0.0
 71
     0
 42
3.0
  3
amgdtans.shx
  4

  0
STYLE
  2

 70
     1
 40
0.0
 41
1.0
 50
0.0
 71
     0
 42
3.0
  3
ltypeshp.shx
  4

  0
ENDTAB
  0
TABLE
  2
VIEW
 70
     0
  0
ENDTAB
  0
TABLE
  2
UCS
 70
     0
  0
ENDTAB
  0
TABLE
  2
APPID
 70
    38
  0
APPID
  2
ACAD
 70
     0
  0
APPID
  2
GLOBAL
 70
     0
  0
APPID
  2
DETAIL
 70
     0
  0
APPID
  2
GRPNAME
 70
     0
  0
APPID
  2
GPARA
 70
     0
  0
APPID
  2
DCO15
 70
     0
  0
APPID
  2
ITEMNAME
 70
     0
  0
APPID
  2
GRADE_0
 70
     0
  0
APPID
  2
HATCH_TYPE
 70
     0
  0
APPID
  2
HATCH_DISPLAY
 70
     0
  0
APPID
  2
HATCH_DISTANCE
 70
     0
  0
APPID
  2
CONTENTBLOCKICON
 70
     0
  0
APPID
  2
MCAD_NO_VIS
 70
     0
  0
APPID
  2
ACAD_TEMP_GRAPHIC
 70
     0
  0
APPID
  2
ACATTRIBSERVICES
 70
     0
  0
APPID
  2
GENIUS_GENSCREG_15
 70
     0
  0
APPID
  2
GENIUS_GENODEF_13
 70
     0
  0
APPID
  2
GENIUS_GENOBJ-N-SDF_13
 70
     0
  0
APPID
  2
GENIUS_GENREC_14
 70
     0
  0
APPID
  2
GENIUS_GENOBJ-N-REC_13
 70
     0
  0
APPID
  2
GENIUS_GENDIMSH_14
 70
     0
  0
APPID
  2
GENIUS_GENOBJ-N-DIM_13
 70
     0
  0
APPID
  2
GENIUS_GENDIM_13
 70
     0
  0
APPID
  2
GENIUS_GENDTOL_13
 70
     0
  0
APPID
  2
GENIUS_GENOLIS_13
 70
     0
  0
APPID
  2
GENIUS_GENOENT_13
 70
     0
  0
APPID
  2
GENIUS_GENOBJ-F-FEM_13
 70
     0
  0
APPID
  2
GENIUS_GENOREF_13
 70
     0
  0
APPID
  2
GENIUS_GEFFEM_13
 70
     0
  0
APPID
  2
GENIUS_GEFFEMP_13
 70
     0
  0
APPID
  2
AD_DRAW
 70
     0
  0
APPID
  2
DESIGNERASSEMBLIES
 70
     0
  0
APPID
  2
ACADM_DIM_EDIT
 70
     0
  0
APPID
  2
AMDT_DM_ADJ
 70
     0
  0
APPID
  2
GENIUS_GENOBJ-N-FIL_13
 70
     0
  0
APPID
  2
GENIUS_GENFIL_13
 70
     0
  0
APPID
  2
GENIUS_GENOBJ-N-CHA_13
 70
     0
  0
APPID
  2
ACAD_MLEADERVER
 70
     0
  0
ENDTAB
  0
TABLE
  2
DIMSTYLE
 70
    29
  0
DIMSTYLE
  2
BIGT
 70
     0
  3

  4

  5

  6

  7

 40
1.0
 41
2.2299999999999991
 42
0.5
 43
7.0
 44
1.0
 45
0.0
 46
0.0
 47
0.0
 48
0.01
140
2.799999999999998
141
0.0
142
0.0
143
25.399999999999999
144
1.0
145
0.0
146
1.0
147
1.0
 71
     0
 72
     0
 73
     0
 74
     0
 75
     0
 76
     0
 77
     3
 78
     9
170
     0
171
     2
172
     1
173
     0
174
     1
175
     0
176
   256
177
   256
178
    40
  0
DIMSTYLE
  2
AM_ANSI
 70
     0
  3

  4
mm
  5

  6

  7

 40
1.0
 41
0.1
 42
0.05
 43
0.5
 44
0.1
 45
0.0
 46
0.0
 47
0.1
 48
0.1
140
0.12
141
0.0
142
0.0
143
25.399999999999999
144
1.0
145
0.0
146
0.71
147
0.06
 71
     0
 72
     0
 73
     1
 74
     1
 75
     0
 76
     0
 77
     0
 78
     7
170
     0
171
     2
172
     0
173
     0
174
     0
175
     0
176
   256
177
   256
178
     2
  0
DIMSTYLE
  2
AM_ANSI$3
 70
     0
  3

  4
mm
  5

  6

  7

 40
1.0
 41
0.1
 42
0.05
 43
0.5
 44
0.1
 45
0.0
 46
0.0
 47
0.1
 48
0.1
140
0.12
141
0.0
142
0.0
143
25.399999999999999
144
1.0
145
0.0
146
0.71
147
0.06
 71
     0
 72
     0
 73
     1
 74
     1
 75
     0
 76
     0
 77
     0
 78
     7
170
     0
171
     2
172
     0
173
     0
174
     0
175
     0
176
   256
177
   256
178
     2
  0
DIMSTYLE
  2
AM_ANSI$4
 70
     0
  3

  4
mm
  5

  6

  7

 40
1.0
 41
0.1
 42
0.05
 43
0.5
 44
0.1
 45
0.0
 46
0.0
 47
0.1
 48
0.1
140
0.12
141
0.0
142
0.0
143
25.399999999999999
144
1.0
145
0.0
146
0.71
147
0.06
 71
     0
 72
     0
 73
     1
 74
     1
 75
     0
 76
     0
 77
     0
 78
     7
170
     0
171
     2
172
     0
173
     0
174
     0
175
     0
176
   256
177
   256
178
     2
  0
DIMSTYLE
  2
AM_ANSI$7
 70
     0
  3

  4
mm
  5

  6

  7

 40
1.0
 41
0.1
 42
0.05
 43
0.5
 44
0.1
 45
0.0
 46
0.0
 47
0.1
 48
0.1
140
0.24
141
0.0
142
0.0
143
25.399999999999999
144
1.0
145
0.0
146
0.71
147
0.06
 71
     0
 72
     0
 73
     1
 74
     1
 75
     0
 76
     0
 77
     0
 78
     7
170
     0
171
     2
172
     0
173
     0
174
     0
175
     0
176
   256
177
   256
178
     2
  0
DIMSTYLE
  2
AM_ANSI$SF
 70
     0
  3

  4
mm
  5

  6

  7

 40
1.0
 41
0.1
 42
0.05
 43
0.5
 44
0.1
 45
0.0
 46
0.0
 47
0.1
 48
0.1
140
0.12
141
0.0
142
0.0
143
25.399999999999999
144
1.0
145
0.0
146
0.71
147
0.06
 71
     0
 72
     0
 73
     1
 74
     1
 75
     1
 76
     1
 77
     0
 78
     7
170
     0
171
     2
172
     0
173
     0
174
     0
175
     0
176
   256
177
   256
178
     2
  0
DIMSTYLE
  2
AM_ANSI$SH
 70
     0
  3

  4
mm
  5

  6

  7

 40
1.0
 41
0.1
 42
0.05
 43
0.5
 44
0.1
 45
0.0
 46
0.0
 47
0.1
 48
0.1
140
0.12
141
0.0
142
0.0
143
25.399999999999999
144
1.0
145
0.0
146
0.71
147
0.06
 71
     0
 72
     0
 73
     1
 74
     1
 75
     1
 76
     1
 77
     0
 78
     7
170
     0
171
     2
172
     0
173
     1
174
     0
175
     0
176
   256
177
   256
178
     2
  0
ENDTAB
  0
ENDSEC
  0
SECTION
  2
BLOCKS
  0
BLOCK
  8
0
  2
$MODEL_SPACE
 70
     0
 10
0.0
 20
0.0
 30
0.0
  3
$MODEL_SPACE
  1

  0
ENDBLK
  5
1267
  8
0
  0
BLOCK
 67
     1
  8
0
  2
$PAPER_SPACE
 70
     0
 10
0.0
 20
0.0
 30
0.0
  3
$PAPER_SPACE
  1

  0
ENDBLK
  5
1263
 67
     1
  8
0
  0
BLOCK
  8
0
  2
_OPEN
 70
     0
 10
0.0
 20
0.0
 30
0.0
  3
_OPEN
  1

  0
LINE
  5
10B8
  8
0
  6
BYBLOCK
 62
     0
 10
-1.0
 20
0.1666666666666666
 30
0.0
 11
0.0
 21
0.0
 31
0.0
  0
LINE
  5
10B9
  8
0
  6
BYBLOCK
 62
     0
 10
-1.0
 20
-0.1666666666666666
 30
0.0
 11
0.0
 21
0.0
 31
0.0
  0
LINE
  5
10BA
  8
0
  6
BYBLOCK
 62
     0
 10
0.0
 20
0.0
 30
0.0
 11
-1.0
 21
0.0
 31
0.0
  0
ENDBLK
  5
10BB
  8
0
  0
BLOCK
  8
0
  2
矢印なし
 70
     0
 10
0.0
 20
0.0
 30
0.0
  3
矢印なし
  1

  0
ENDBLK
  5
6E5
  8
0
  0
ENDSEC
  0
SECTION
  2
ENTITIES
  0
INSERT
  5
6E6
  8
245
  2
矢印なし
 10
175.62382697000001
 20
90.551235719999994
 30
0.0
  0
TEXT
  5
90D
  8
241
 10
0.0
 20
49.0
 30
0.0
 40
5.0
  1
ST25-FCM26092-165
  7
YOKO
 11
0.0
 21
49.0
 31
0.0
 73
     1
  0
LINE
  5
C0C
  8
250
 10
7.5787339400000002
 20
-22.517036690000001
 30
0.0
 11
-7.3545993999999979
 21
-22.517036690000001
 31
0.0
1001
ITEMNAME
1000
LNSP2
  0
LINE
  5
1117
  8
240
  6
CONTINUOUS
 10
126.99999999000001
 20
12.5
 30
0.0
 11
2.0000000099999991
 21
12.5
 31
0.0
  0
LINE
  5
1118
  8
240
  6
CONTINUOUS
 10
126.99999999000001
 20
-12.5
 30
0.0
 11
2.0000000099999991
 21
-12.5
 31
0.0
  0
LINE
  5
1119
  8
245
  6
CENTER2
 10
166.0
 20
0.0
 30
0.0
 11
-1.0
 21
0.0
 31
0.0
  0
LINE
  5
111A
  8
240
  6
CONTINUOUS
 10
0.0
 20
11.34529946
 30
0.0
 11
2.0000000099999991
 21
12.5
 31
0.0
  0
LINE
  5
111B
  8
241
  6
CONTINUOUS
 10
2.0
 20
12.5
 30
0.0
 11
2.0
 21
0.0
 31
0.0
  0
LINE
  5
111C
  8
241
  6
CONTINUOUS
 10
2.0
 20
-12.5
 30
0.0
 11
2.0
 21
0.0
 31
0.0
  0
LINE
  5
111D
  8
240
  6
CONTINUOUS
 10
0.0
 20
-11.34529946
 30
0.0
 11
0.0
 21
0.0
 31
0.0
  0
LINE
  5
111E
  8
240
  6
CONTINUOUS
 10
0.0
 20
-11.34529946
 30
0.0
 11
2.0
 21
-12.5
 31
0.0
  0
LINE
  5
111F
  8
240
  6
CONTINUOUS
 10
0.0
 20
11.34529946
 30
0.0
 11
0.0
 21
0.0
 31
0.0
  0
LINE
  5
1120
  8
240
  6
CONTINUOUS
 10
154.2130527242021
 20
12.4
 30
0.0
 11
127.17320506999999
 21
12.4
 31
0.0
  0
LINE
  5
1121
  8
240
  6
CONTINUOUS
 10
154.2130527242021
 20
-12.4
 30
0.0
 11
127.17320506999999
 21
-12.4
 31
0.0
  0
LINE
  5
1122
  8
241
  6
CONTINUOUS
 10
127.0
 20
12.499999989999999
 30
0.0
 11
127.0
 21
0.0
 31
0.0
  0
LINE
  5
1123
  8
240
  6
CONTINUOUS
 10
127.17320506999999
 20
12.4
 30
0.0
 11
126.99999999000001
 21
12.5
 31
0.0
  0
LINE
  5
1124
  8
241
  6
CONTINUOUS
 10
129.0
 20
0.0
 30
0.0
 11
129.0
 21
-12.4
 31
0.0
  0
LINE
  5
1125
  8
241
  6
CONTINUOUS
 10
127.0
 20
-12.499999989999999
 30
0.0
 11
127.0
 21
0.0
 31
0.0
  0
LINE
  5
1126
  8
240
  6
CONTINUOUS
 10
127.17320506999999
 20
-12.4
 30
0.0
 11
127.0
 21
-12.499999989999999
 31
0.0
  0
LINE
  5
1127
  8
241
  6
CONTINUOUS
 10
129.0
 20
0.0
 30
0.0
 11
129.0
 21
12.4
 31
0.0
  0
LINE
  5
11A6
  8
240
 10
164.5
 20
-6.4999999999999432
 30
0.0
 11
164.50000000000011
 21
6.4999999999999432
 31
0.0
  0
LINE
  5
11A8
  8
245
 10
155.76834944375631
 20
9.6529999999999241
 30
0.0
 11
162.3581690777597
 21
9.6529999999999241
 31
0.0
  0
LINE
  5
11A9
  8
245
 10
159.4319999999997
 20
12.16320134552266
 30
0.0
 11
159.4320000000009
 21
7.2667411759452136
 31
0.0
  0
LINE
  5
11AA
  8
241
 10
163.76545945840891
 20
5.8368196378789188
 30
0.0
 11
145.2345405415908
 21
10.93908634297556
 31
0.0
  0
ARC
  5
11AC
  8
241
 10
145.4999999999996
 20
11.903208366342559
 30
0.0
 40
1.0
 50
180.00000000001791
 51
254.60574432855719
  0
LINE
  5
11AD
  8
241
 10
144.4999999999994
 20
12.399999999999929
 30
0.0
 11
144.4999999999994
 21
11.90320836634254
 31
0.0
  0
ARC
  5
11AE
  8
241
 10
163.5
 20
4.8726976145119023
 30
0.0
 40
1.0
 50
0.0
 51
74.60574432855725
  0
CIRCLE
  5
11AF
  8
241
 10
159.43200000000019
 20
9.6529999999999241
 30
0.0
 40
2.0
  0
LINE
  5
11B0
  8
240
 10
154.2130527242021
 20
12.999999999999959
 30
0.0
 11
165.0
 21
12.99999999999992
 31
0.0
1001
GRPNAME
1000
PASTMD05
  0
LINE
  5
11B1
  8
241
 10
161.3568551599673
 20
6.499999999999952
 30
0.0
 11
164.50000000000011
 21
6.4999999999999432
 31
0.0
1001
GRPNAME
1000
PASTMD05
  0
LINE
  5
11B2
  8
240
 10
164.65094727579819
 20
6.4999999999999396
 30
0.0
 11
164.65094727579819
 21
10.794015161927639
 31
0.0
1001
GRPNAME
1000
PASTMD05
  0
LINE
  5
11B3
  8
240
 10
164.65094727579819
 20
10.794015161927639
 30
0.0
 11
165.00000000000011
 21
11.20999999999993
 31
0.0
1001
GRPNAME
1000
PASTMD05
  0
LINE
  5
11B4
  8
240
 10
165.00000000000011
 20
11.20999999999993
 30
0.0
 11
165.00000000000011
 21
12.99999999999994
 31
0.0
1001
GRPNAME
1000
PASTMD05
  0
LINE
  5
11B5
  8
241
 10
154.2130527242021
 20
12.399999999999929
 30
0.0
 11
154.2130527242021
 21
8.4669604880042382
 31
0.0
1001
GRPNAME
1000
PASTMD05
  0
LINE
  5
11B6
  8
241
 10
154.2130527242021
 20
12.999999999999959
 30
0.0
 11
158.9100546907529
 21
11.58369238724203
 31
0.0
  0
LINE
  5
11B7
  8
241
 10
160.9342405764182
 20
10.97333073529443
 30
0.0
 11
164.65094727579819
 21
9.8526158558442152
 31
0.0
  0
LINE
  5
11B8
  8
241
 10
154.2130527242021
 20
9.647384144155696
 30
0.0
 11
157.7421425294414
 21
8.5832422100323171
 31
0.0
  0
LINE
  5
11B9
  8
241
 10
160.24880656791009
 20
7.8273968036236372
 30
0.0
 11
164.65094727579819
 21
6.499999999999952
 31
0.0
  0
LINE
  5
11BC
  8
240
 10
164.65094727579819
 20
6.4999999999999396
 30
0.0
 11
164.50000000000011
 21
6.499999999999944
 31
0.0
  0
LINE
  5
11BD
  8
240
 10
154.2130527242021
 20
12.4
 30
0.0
 11
154.2130527242021
 21
12.999999999999959
 31
0.0
  0
LINE
  5
11BE
  8
241
 10
164.1105226728242
 20
-12.310249403335931
 30
0.0
 11
154.99999998999999
 21
-12.550000000000001
 31
0.0
1001
GRPNAME
1000
PASTMD0N
  0
LINE
  5
11BF
  8
241
 10
154.45050452000001
 20
-12.4
 30
0.0
 11
154.99999998999999
 21
-12.550000000000001
 31
0.0
1001
GRPNAME
1000
PASTMD0N
  0
ARC
  5
11C0
  8
241
 10
164.09999999999999
 20
-11.9103878355945
 30
0.0
 40
0.4
 50
271.50743575718832
 51
0.0
1001
GENIUS_GENOBJ-N-FIL_13
1002
{
1000
OWNER
1000
GEN
1002
}
1001
GENIUS_GENODEF_13
1002
{
1000
HIER
1070
     0
1002
}
1002
{
1000
MANEDIT
1070
     0
1002
}
1002
{
1000
NOSEL
1070
     0
1002
}
1002
{
1000
BEHIND
1070
     0
1002
}
1002
{
1000
OTHER
1070
     0
1002
}
1002
{
1000
REACTOR
1002
}
  0
LINE
  5
11C4
  8
250
 10
156.0
 20
13.5
 30
0.0
 11
156.0
 21
22.0
 31
0.0
  0
LINE
  5
11C5
  8
250
 10
165.0
 20
13.5
 30
0.0
 11
165.0
 21
22.0
 31
0.0
  0
LINE
  5
11C6
  8
250
 10
158.22999999999999
 20
21.0
 30
0.0
 11
162.77000000000001
 21
21.0
 31
0.0
  0
LINE
  5
11CB
  8
250
 10
165.5
 20
13.0
 30
0.0
 11
176.0
 21
13.0
 31
0.0
  0
LINE
  5
11CC
  8
250
 10
175.0
 20
-10.77
 30
0.0
 11
175.0
 21
10.77
 31
0.0
  0
LINE
  5
11D0
  8
250
 10
126.99999999000001
 20
13.0
 30
0.0
 11
126.99999999000001
 21
29.0
 31
0.0
  0
LINE
  5
11D1
  8
250
 10
165.0
 20
13.5
 30
0.0
 11
165.0
 21
29.0
 31
0.0
  0
LINE
  5
11D2
  8
250
 10
129.22999999000001
 20
28.0
 30
0.0
 11
162.77000000000001
 21
28.0
 31
0.0
  0
LINE
  5
11D6
  8
250
 10
1.5000000099999991
 20
-12.5
 30
0.0
 11
-11.5
 21
-12.5
 31
0.0
  0
LINE
  5
11D7
  8
250
 10
1.5000000099999991
 20
12.5
 30
0.0
 11
-11.5
 21
12.5
 31
0.0
  0
LINE
  5
11D8
  8
250
 10
-10.5
 20
-10.27
 30
0.0
 11
-10.5
 21
10.27
 31
0.0
  0
LINE
  5
11DC
  8
250
 10
0.0
 20
11.84529946
 30
0.0
 11
0.0
 21
36.0
 31
0.0
  0
LINE
  5
11DD
  8
250
 10
165.0
 20
13.5
 30
0.0
 11
165.0
 21
36.0
 31
0.0
  0
LINE
  5
11DE
  8
250
 10
2.2299999999999991
 20
35.0
 30
0.0
 11
162.77000000000001
 21
35.0
 31
0.0
  0
TEXT
  5
11E2
  8
250
 10
-4.9545994000000002
 20
-21.517036690000001
 30
0.0
 40
2.799999999999998
  1
ST25
  7
YOKO
1001
ITEMNAME
1000
LNSP3
1001
ACAD
1000
MTEXTBEGIN
1070
    73
1070
     1
1070
    44
1040
1.0
1070
    74
1070
     0
1000
MTEXTEND
  0
LINE
  5
11E3
  8
250
 10
12.24707276992102
 20
-14.4312366503937
 30
0.0
 11
7.5787339400000002
 21
-22.517036690000001
 31
0.0
1001
ACAD
1000
DSTYLE
1002
{
1070
     6
1000
OPEN
1070
   343
1005
594
1002
}
  0
LINE
  5
11E4
  8
250
 10
11.92519999485541
 20
-14.245403317047209
 30
0.0
 11
13.362072769999999
 21
-12.5
 31
0.0
  0
LINE
  5
11E5
  8
250
 10
12.56894554498664
 20
-14.617069983740199
 30
0.0
 11
13.362072769999999
 21
-12.5
 31
0.0
  0
LINE
  5
11E6
  8
250
 10
13.362072769999999
 20
-12.5
 30
0.0
 11
12.24707276992102
 21
-14.4312366503937
 31
0.0
  0
TEXT
  5
11E7
  8
250
 10
159.23333333333329
 20
22.0
 30
0.0
 40
2.799999999999998
  1
9
1001
ACAD
1000
MTEXTBEGIN
1070
    73
1070
     1
1070
    44
1040
1.0
1070
    74
1070
     0
1000
MTEXTEND
  0
LINE
  5
11E8
  8
250
 10
162.77000000000001
 20
21.37166666666667
 30
0.0
 11
165.0
 21
21.0
 31
0.0
  0
LINE
  5
11E9
  8
250
 10
162.77000000000001
 20
20.62833333333333
 30
0.0
 11
165.0
 21
21.0
 31
0.0
  0
LINE
  5
11EA
  8
250
 10
165.0
 20
21.0
 30
0.0
 11
162.77000000000001
 21
21.0
 31
0.0
  0
LINE
  5
11EB
  8
250
 10
158.22999999999999
 20
20.62833333333333
 30
0.0
 11
156.0
 21
21.0
 31
0.0
  0
LINE
  5
11EC
  8
250
 10
158.22999999999999
 20
21.37166666666667
 30
0.0
 11
156.0
 21
21.0
 31
0.0
  0
LINE
  5
11ED
  8
250
 10
156.0
 20
21.0
 30
0.0
 11
158.22999999999999
 21
21.0
 31
0.0
  0
TEXT
  5
11EE
  8
250
 10
174.0
 20
-3.799999999999998
 30
0.0
 40
2.799999999999998
  1
\U+2205
 50
90.0
1001
ACAD
1000
MTEXTBEGIN
1070
    73
1070
     1
1070
    44
1040
1.0
1070
    74
1070
     0
1000
MTEXTEND
  0
TEXT
  5
11EF
  8
250
 10
174.0
 20
-1.2666666666666651
 30
0.0
 40
2.799999999999998
  1
26
 50
90.0
1001
ACAD
1000
MTEXTBEGIN
1070
    73
1070
     1
1070
    44
1040
1.0
1070
    74
1070
     0
1000
MTEXTEND
  0
LINE
  5
11F0
  8
250
 10
174.6283333333333
 20
10.77
 30
0.0
 11
175.0
 21
13.0
 31
0.0
  0
LINE
  5
11F1
  8
250
 10
175.3716666666667
 20
10.77
 30
0.0
 11
175.0
 21
13.0
 31
0.0
  0
LINE
  5
11F2
  8
250
 10
175.0
 20
13.0
 30
0.0
 11
175.0
 21
10.77
 31
0.0
  0
TEXT
  5
11F6
  8
250
 10
143.33333333333329
 20
29.0
 30
0.0
 40
2.799999999999998
  1
38
1001
ACAD
1000
MTEXTBEGIN
1070
    73
1070
     1
1070
    44
1040
1.0
1070
    74
1070
     0
1000
MTEXTEND
  0
LINE
  5
11F7
  8
250
 10
162.77000000000001
 20
28.371666666666659
 30
0.0
 11
165.0
 21
28.0
 31
0.0
  0
LINE
  5
11F8
  8
250
 10
162.77000000000001
 20
27.62833333333333
 30
0.0
 11
165.0
 21
28.0
 31
0.0
  0
LINE
  5
11F9
  8
250
 10
165.0
 20
28.0
 30
0.0
 11
162.77000000000001
 21
28.0
 31
0.0
  0
LINE
  5
11FA
  8
250
 10
129.22999999000001
 20
27.62833333333333
 30
0.0
 11
126.99999999000001
 21
28.0
 31
0.0
  0
LINE
  5
11FB
  8
250
 10
129.22999999000001
 20
28.371666666666659
 30
0.0
 11
126.99999999000001
 21
28.0
 31
0.0
  0
LINE
  5
11FC
  8
250
 10
126.99999999000001
 20
28.0
 30
0.0
 11
129.22999999000001
 21
28.0
 31
0.0
  0
TEXT
  5
11FD
  8
250
 10
-11.5
 20
-3.799999999999998
 30
0.0
 40
2.799999999999998
  1
\U+2205
 50
90.0
1001
ACAD
1000
MTEXTBEGIN
1070
    73
1070
     1
1070
    44
1040
1.0
1070
    74
1070
     0
1000
MTEXTEND
  0
TEXT
  5
11FE
  8
250
 10
-11.5
 20
-1.2666666666666651
 30
0.0
 40
2.799999999999998
  1
25
 50
90.0
1001
ACAD
1000
MTEXTBEGIN
1070
    73
1070
     1
1070
    44
1040
1.0
1070
    74
1070
     0
1000
MTEXTEND
  0
LINE
  5
11FF
  8
250
 10
-10.871666666666661
 20
10.27
 30
0.0
 11
-10.5
 21
12.5
 31
0.0
  0
LINE
  5
1200
  8
250
 10
-10.12833333333333
 20
10.27
 30
0.0
 11
-10.5
 21
12.5
 31
0.0
  0
LINE
  5
1201
  8
250
 10
-10.5
 20
12.5
 30
0.0
 11
-10.5
 21
10.27
 31
0.0
  0
LINE
  5
1202
  8
250
 10
-10.12833333333333
 20
-10.27
 30
0.0
 11
-10.5
 21
-12.5
 31
0.0
  0
LINE
  5
1203
  8
250
 10
-10.871666666666661
 20
-10.27
 30
0.0
 11
-10.5
 21
-12.5
 31
0.0
  0
LINE
  5
1204
  8
250
 10
-10.5
 20
-12.5
 30
0.0
 11
-10.5
 21
-10.27
 31
0.0
  0
TEXT
  5
1205
  8
250
 10
78.300000000000026
 20
36.0
 30
0.0
 40
2.799999999999998
  1
165
1001
ACAD
1000
MTEXTBEGIN
1070
    73
1070
     1
1070
    44
1040
1.0
1070
    74
1070
     0
1000
MTEXTEND
  0
LINE
  5
1206
  8
250
 10
162.77000000000001
 20
35.37166666666667
 30
0.0
 11
165.0
 21
35.0
 31
0.0
  0
LINE
  5
1207
  8
250
 10
162.77000000000001
 20
34.62833333333333
 30
0.0
 11
165.0
 21
35.0
 31
0.0
  0
LINE
  5
1208
  8
250
 10
165.0
 20
35.0
 30
0.0
 11
162.77000000000001
 21
35.0
 31
0.0
  0
LINE
  5
1209
  8
250
 10
2.2299999999999991
 20
34.62833333333333
 30
0.0
 11
0.0
 21
35.0
 31
0.0
  0
LINE
  5
120A
  8
250
 10
2.2299999999999991
 20
35.37166666666667
 30
0.0
 11
0.0
 21
35.0
 31
0.0
  0
LINE
  5
120B
  8
250
 10
0.0
 20
35.0
 30
0.0
 11
2.2299999999999991
 21
35.0
 31
0.0
  0
LINE
  5
1372
  8
241
 10
154.45050452000001
 20
-12.4
 30
0.0
 11
154.45050452000001
 21
8.4015809783748239
 31
0.0
  0
LINE
  5
1373
  8
240
 10
154.2130527242021
 20
-12.999999999999959
 30
0.0
 11
165.0
 21
-12.999999999999909
 31
0.0
1001
GRPNAME
1000
PASTMD05
  0
LINE
  5
1374
  8
240
 10
164.65094727579819
 20
-6.4999999999999378
 30
0.0
 11
164.65094727579819
 21
-10.794015161927639
 31
0.0
1001
GRPNAME
1000
PASTMD05
  0
LINE
  5
1375
  8
240
 10
164.65094727579819
 20
-10.794015161927639
 30
0.0
 11
165.00000000000011
 21
-11.20999999999993
 31
0.0
1001
GRPNAME
1000
PASTMD05
  0
LINE
  5
1376
  8
240
 10
165.00000000000011
 20
-11.20999999999993
 30
0.0
 11
165.00000000000011
 21
-12.999999999999931
 31
0.0
1001
GRPNAME
1000
PASTMD05
  0
LINE
  5
1377
  8
240
 10
164.65094727579819
 20
-6.4999999999999378
 30
0.0
 11
164.5
 21
-6.4999999999999432
 31
0.0
  0
LINE
  5
1378
  8
240
 10
154.2130527242021
 20
-12.4
 30
0.0
 11
154.2130527242021
 21
-12.999999999999959
 31
0.0
  0
LINE
  5
1379
  8
250
 10
165.5
 20
-13.0
 30
0.0
 11
176.0
 21
-13.0
 31
0.0
  0
LINE
  5
137A
  8
250
 10
174.6283333333333
 20
-10.769999999999991
 30
0.0
 11
175.0
 21
-13.0
 31
0.0
  0
LINE
  5
137B
  8
250
 10
175.3716666666667
 20
-10.769999999999991
 30
0.0
 11
175.0
 21
-13.0
 31
0.0
  0
LINE
  5
137C
  8
250
 10
175.0
 20
-13.0
 30
0.0
 11
175.0
 21
-10.769999999999991
 31
0.0
  0
LINE
  5
1389
  8
241
 10
164.5
 20
-11.9103878355945
 30
0.0
 11
164.5
 21
-6.4999999999999432
 31
0.0
  0
LINE
  5
138A
  8
241
 10
154.45050452000001
 20
-12.4
 30
0.0
 11
154.2130527242021
 21
-12.4
 31
0.0
  0
VIEWPORT
  5
22
 67
     1
  8
0
 10
261.51769911999997
 20
148.5
 30
0.0
 40
523.03539823000006
 41
297.0
 68
     1
 69
     1
1001
ACAD
1000
MVIEW
1002
{
1070
    16
1010
0.0
1020
0.0
1030
0.0
1010
0.0
1020
0.0
1030
1.0
1040
0.0
1040
297.0
1040
261.51769911999997
1040
148.5
1040
50.0
1040
0.0
1040
0.0
1070
     0
1070
   100
1070
     1
1070
     1
1070
     0
1070
     0
1070
     0
1070
     0
1040
0.0
1040
0.0
1040
0.0
1040
1.0
1040
1.0
1040
10.0
1040
10.0
1070
     0
1002
{
1002
}
1002
}
1001
GENIUS_GENODEF_13
1002
{
1000
HIER
1070
     0
1002
}
1002
{
1000
MANEDIT
1070
     0
1002
}
1002
{
1000
NOSEL
1070
     0
1002
}
1002
{
1000
BEHIND
1070
     0
1002
}
1002
{
1000
OTHER
1070
     0
1002
}
1002
{
1000
REACTOR
1002
}
1001
GENIUS_GENOBJ-N-SDF_13
1002
{
1000
OWNER
1000
GEN
1002
}
1001
GENIUS_GENSCREG_15
1000
PF
1040
1.0
1000
DF
1040
1.0
1000
MIN
1011
0.0000000049999471
1021
6.7140188501893466E+073
1031
9.9859011902164311E+073
1021
0.0
1031
0.0
1000
MAX
1011
523.035398235
1021
6.7140188501893466E+073
1031
9.9859011902164311E+073
1021
297.0
1031
0.0
1000
FLAGS
1070
     2
  0
ENDSEC
  0
EOF
