  0
SECTION
  2
HEADER
  9
$ACADVER
  1
AC1009
  9
$INSBASE
 10
0.0
 20
0.0
 30
0.0
  9
$EXTMIN
 10
-108.9999999999999
 20
-25.14131103937331
 30
0.0
  9
$EXTMAX
 10
21.999996006665889
 20
52.999996000000053
 30
0.0
  9
$LIMMIN
 10
0.0
 20
0.0
  9
$LIMMAX
 10
297.0
 20
210.0
  9
$ORTHOMODE
 70
     0
  9
$REGENMODE
 70
     1
  9
$FILLMODE
 70
     1
  9
$QTEXTMODE
 70
     0
  9
$MIRRTEXT
 70
     1
  9
$DRAGMODE
 70
     2
  9
$LTSCALE
 40
10.0
  9
$OSMODE
 70
  3071
  9
$ATTMODE
 70
     1
  9
$TEXTSIZE
 40
3.0
  9
$TRACEWID
 40
1.0
  9
$TEXTSTYLE
  7
YOKO
  9
$CLAYER
  8
240
  9
$CELTYPE
  6
BYLAYER
  9
$CECOLOR
 62
   256
  9
$DIMSCALE
 40
1.0
  9
$DIMASZ
 40
2.2299999999999991
  9
$DIMEXO
 40
0.5
  9
$DIMDLI
 40
2.5
  9
$DIMRND
 40
0.0
  9
$DIMDLE
 40
0.0
  9
$DIMEXE
 40
1.0
  9
$DIMTP
 40
0.0
  9
$DIMTM
 40
0.0
  9
$DIMTXT
 40
3.0
  9
$DIMCEN
 40
0.0
  9
$DIMTSZ
 40
0.0
  9
$DIMTOL
 70
     0
  9
$DIMLIM
 70
     0
  9
$DIMTIH
 70
     0
  9
$DIMTOH
 70
     0
  9
$DIMSE1
 70
     0
  9
$DIMSE2
 70
     1
  9
$DIMTAD
 70
     3
  9
$DIMZIN
 70
     8
  9
$DIMBLK
  1
OPEN
  9
$DIMASO
 70
     1
  9
$DIMSHO
 70
     1
  9
$DIMPOST
  1

  9
$DIMAPOST
  1

  9
$DIMALT
 70
     0
  9
$DIMALTD
 70
     2
  9
$DIMALTF
 40
25.399999999999999
  9
$DIMLFAC
 40
1.0
  9
$DIMTOFL
 70
     1
  9
$DIMTVP
 40
0.0
  9
$DIMTIX
 70
     0
  9
$DIMSOXD
 70
     0
  9
$DIMSAH
 70
     0
  9
$DIMBLK1
  1

  9
$DIMBLK2
  1

  9
$DIMSTYLE
  2
BIGT
  9
$DIMCLRD
 70
   256
  9
$DIMCLRE
 70
   256
  9
$DIMCLRT
 70
    40
  9
$DIMTFAC
 40
1.0
  9
$DIMGAP
 40
1.0
  9
$LUNITS
 70
     2
  9
$LUPREC
 70
     2
  9
$SKETCHINC
 40
1.0
  9
$FILLETRAD
 40
0.0
  9
$AUNITS
 70
     0
  9
$AUPREC
 70
     3
  9
$MENU
  1
.
  9
$ELEVATION
 40
0.0
  9
$PELEVATION
 40
0.0
  9
$THICKNESS
 40
0.0
  9
$LIMCHECK
 70
     0
  9
$BLIPMODE
 70
     0
  9
$CHAMFERA
 40
10.0
  9
$CHAMFERB
 40
10.0
  9
$SKPOLY
 70
     0
  9
$TDCREATE
 40
2452291.599082211
  9
$TDUPDATE
 40
2455812.5683370829
  9
$TDINDWG
 40
0.0123747338
  9
$TDUSRTIMER
 40
0.0123745486
  9
$USRTIMER
 70
     1
  9
$ANGBASE
 50
0.0
  9
$ANGDIR
 70
     0
  9
$PDMODE
 70
    35
  9
$PDSIZE
 40
2.0
  9
$PLINEWID
 40
0.0
  9
$COORDS
 70
     1
  9
$SPLFRAME
 70
     0
  9
$SPLINETYPE
 70
     6
  9
$SPLINESEGS
 70
     8
  9
$ATTDIA
 70
     1
  9
$ATTREQ
 70
     1
  9
$HANDLING
 70
     1
  9
$HANDSEED
  5
1060
  9
$SURFTAB1
 70
     6
  9
$SURFTAB2
 70
     6
  9
$SURFTYPE
 70
     6
  9
$SURFU
 70
     6
  9
$SURFV
 70
     6
  9
$UCSNAME
  2

  9
$UCSORG
 10
0.0
 20
0.0
 30
0.0
  9
$UCSXDIR
 10
1.0
 20
0.0
 30
0.0
  9
$UCSYDIR
 10
0.0
 20
1.0
 30
0.0
  9
$PUCSNAME
  2

  9
$PUCSORG
 10
0.0
 20
0.0
 30
0.0
  9
$PUCSXDIR
 10
1.0
 20
0.0
 30
0.0
  9
$PUCSYDIR
 10
0.0
 20
1.0
 30
0.0
  9
$USERI1
 70
     1
  9
$USERI2
 70
     0
  9
$USERI3
 70
     0
  9
$USERI4
 70
     0
  9
$USERI5
 70
     0
  9
$USERR1
 40
0.0
  9
$USERR2
 40
0.0
  9
$USERR3
 40
0.0
  9
$USERR4
 40
0.0
  9
$USERR5
 40
0.0
  9
$WORLDVIEW
 70
     1
  9
$SHADEDGE
 70
     3
  9
$SHADEDIF
 70
    70
  9
$TILEMODE
 70
     1
  9
$MAXACTVP
 70
    16
  9
$PLIMCHECK
 70
     0
  9
$PEXTMIN
 10
1.0000000000000000E+020
 20
1.0000000000000000E+020
 30
1.0000000000000000E+020
  9
$PEXTMAX
 10
-1.0000000000000000E+020
 20
-1.0000000000000000E+020
 30
-1.0000000000000000E+020
  9
$PLIMMIN
 10
0.0
 20
0.0
  9
$PLIMMAX
 10
420.0
 20
297.0
  9
$UNITMODE
 70
     0
  9
$VISRETAIN
 70
     0
  9
$PLINEGEN
 70
     0
  9
$PSLTSCALE
 70
     1
  0
ENDSEC
  0
SECTION
  2
TABLES
  0
TABLE
  2
VPORT
 70
     1
  0
VPORT
  2
*ACTIVE
 70
     0
 10
0.0
 20
0.0
 11
1.0
 21
1.0
 12
-43.489600853274112
 22
13.927839791532451
 13
0.0
 23
0.0
 14
7.0
 24
7.0
 15
7.0
 25
7.0
 16
0.0
 26
0.0
 36
1.0
 17
0.0
 27
0.0
 37
0.0
 40
78.786891091217456
 41
1.8471023427866831
 42
50.0
 43
0.0
 44
0.0
 50
0.0
 51
0.0
 71
     0
 72
  2000
 73
     1
 74
     0
 75
     0
 76
     0
 77
     0
 78
     0
  0
ENDTAB
  0
TABLE
  2
LTYPE
 70
    16
  0
LTYPE
  2
CONTINUOUS
 70
     0
  3
Solid line
 72
    65
 73
     0
 40
0.0
  0
LTYPE
  2
CENTER2
 70
     0
  3
___ _ ___ _ ___ _ ___ _ ___ _ ___ _ ___ _ ___ _
 72
    65
 73
     4
 40
1.125
 49
0.75
 49
-0.125
 49
0.125
 49
-0.125
  0
LTYPE
  2
AMCONSTR
 70
     0
  3
_______________________
 72
    65
 73
     2
 40
9999.0
 49
9999.0
 49
0.0
  0
LTYPE
  2
CENTER
 70
     0
  3
__ . __
 72
    65
 73
     4
 40
7.0
 49
4.0
 49
-1.0
 49
1.0
 49
-1.0
  0
LTYPE
  2
HIDDEN
 70
     0
  3
Hidden __ __ __ __ __ __ __ __ __ __ __ __ __ _
 72
    65
 73
     2
 40
9.5249999999999986
 49
6.3499999999999979
 49
-3.174999999999998
  0
LTYPE
  2
PHANTOM2
 70
     0
  3
Phantom (.5x) ___ _ _ ___ _ _ ___ _ _ ___ _ _
 72
    65
 73
     6
 40
31.75
 49
15.875
 49
-3.174999999999998
 49
3.174999999999998
 49
-3.174999999999998
 49
3.174999999999998
 49
-3.174999999999998
  0
LTYPE
  2
HIDDEN2
 70
     0
  3
Hidden (.5x) _ _ _ _ _ _ _ _ _ _ _ _ _ _ _ _ _
 72
    65
 73
     2
 40
0.1875
 49
0.125
 49
-0.0625
  0
LTYPE
  2
AMZIGZAG2
 70
     0
  3
/\/-/\/-/\/-/\/-/\/-/\/
 72
    65
 73
     2
 40
0.4401
 49
0.0001
 49
-0.4400000000000001
  0
LTYPE
  2
ACANSTGB
 70
     0
  3
__ . . __ . .
 72
    65
 73
     6
 40
0.35433070866
 49
0.15748031496
 49
-0.03937007874
 49
0.03937007874
 49
-0.03937007874
 49
0.03937007874
 49
-0.03937007874
  0
LTYPE
  2
ACANSTGL
 70
     0
  3
_ _ _ _ _
 72
    65
 73
     2
 40
0.11811023622
 49
0.07874015748
 49
-0.03937007874
  0
ENDTAB
  0
TABLE
  2
LAYER
 70
     7
  0
LAYER
  2
0
 70
     0
 62
     7
  6
CONTINUOUS
  0
LAYER
  2
240
 70
     0
 62
     4
  6
CONTINUOUS
  0
LAYER
  2
241
 70
     0
 62
   211
  6
CONTINUOUS
  0
LAYER
  2
245
 70
     0
 62
     2
  6
CENTER2
  0
LAYER
  2
247
 70
     0
 62
    60
  6
CONTINUOUS
  0
LAYER
  2
250
 70
     0
 62
     3
  6
CONTINUOUS
  0
LAYER
  2
DEFPOINTS
 70
     0
 62
     7
  6
CONTINUOUS
  0
ENDTAB
  0
TABLE
  2
STYLE
 70
     5
  0
STYLE
  2
STANDARD
 70
     0
 40
0.0
 41
1.0
 50
0.0
 71
     0
 42
3.0
  3
romans.shx
  4
BIGFONT.SHX
  0
STYLE
  2
YOKO
 70
     0
 40
0.0
 41
1.0
 50
0.0
 71
     0
 42
3.0
  3
romans.shx
  4
extfont.shx
  0
STYLE
  2

 70
     1
 40
0.0
 41
1.0
 50
0.0
 71
     0
 42
3.0
  3
genltshp.shx
  4

  0
STYLE
  2
ACANSGDT
 70
     0
 40
0.0
 41
1.0
 50
0.0
 71
     0
 42
3.0
  3
amgdt.shx
  4

  0
ENDTAB
  0
TABLE
  2
VIEW
 70
     0
  0
ENDTAB
  0
TABLE
  2
UCS
 70
     0
  0
ENDTAB
  0
TABLE
  2
APPID
 70
    28
  0
APPID
  2
ACAD
 70
     0
  0
APPID
  2
ACADANNOTATIVE
 70
     0
  0
APPID
  2
GLOBAL
 70
     0
  0
APPID
  2
DETAIL
 70
     0
  0
APPID
  2
GRPNAME
 70
     0
  0
APPID
  2
GPARA
 70
     0
  0
APPID
  2
HATCH_TYPE
 70
     0
  0
APPID
  2
HATCH_DISPLAY
 70
     0
  0
APPID
  2
HATCH_DISTANCE
 70
     0
  0
APPID
  2
ITEMNAME
 70
     0
  0
APPID
  2
MCAD_NO_VIS
 70
     0
  0
APPID
  2
ACAD_TEMP_GRAPHIC
 70
     0
  0
APPID
  2
ACATTRIBSERVICES
 70
     0
  0
APPID
  2
GENIUS_GENSCREG_15
 70
     0
  0
APPID
  2
GENIUS_GENOBJ-N-SDF_13
 70
     0
  0
APPID
  2
GENIUS_GENODEF_13
 70
     0
  0
APPID
  2
AD_DRAW
 70
     0
  0
APPID
  2
DESIGNERASSEMBLIES
 70
     0
  0
APPID
  2
ACADM_DIM_EDIT
 70
     0
  0
APPID
  2
AMDT_DM_ADJ
 70
     0
  0
APPID
  2
ACAD_DSTYLE_DIMJAG
 70
     0
  0
APPID
  2
ACAD_DSTYLE_DIMBREAK
 70
     0
  0
APPID
  2
ACAD_EXEMPT_FROM_CAD_STANDARDS
 70
     0
  0
APPID
  2
ACAD_MLEADERVER
 70
     0
  0
APPID
  2
ACAD_DSTYLE_DIMARC_LENGTH_
 70
     0
  0
APPID
  2
ACAD_DSTYLE_DIM_LINETYPE
 70
     0
  0
APPID
  2
ACAD_DSTYLE_DIM_EXT1_LINETYPE
 70
     0
  0
APPID
  2
ACAD_DSTYLE_DIM_EXT2_LINETYPE
 70
     0
  0
ENDTAB
  0
TABLE
  2
DIMSTYLE
 70
     8
  0
DIMSTYLE
  2
STANDARD
 70
     0
  3

  4

  5

  6

  7

 40
1.0
 41
2.0
 42
2.0
 43
3.75
 44
2.0
 45
0.0
 46
0.0
 47
0.0
 48
0.0
140
4.0
141
0.09
142
0.0
143
25.399999999999999
144
1.0
145
0.0
146
1.0
147
1.0
 71
     0
 72
     0
 73
     1
 74
     1
 75
     0
 76
     0
 77
     0
 78
     8
170
     0
171
     2
172
     0
173
     1
174
     0
175
     0
176
   256
177
   256
178
   256
  0
DIMSTYLE
  2
BIGT
 70
     0
  3

  4

  5

  6

  7

 40
1.0
 41
2.2299999999999991
 42
0.5
 43
2.5
 44
1.0
 45
0.0
 46
0.0
 47
0.0
 48
0.0
140
3.5
141
0.0
142
0.0
143
25.399999999999999
144
1.0
145
0.0
146
1.0
147
1.0
 71
     0
 72
     0
 73
     0
 74
     0
 75
     0
 76
     0
 77
     3
 78
     9
170
     0
171
     2
172
     1
173
     0
174
     0
175
     0
176
   256
177
   256
178
    40
  0
DIMSTYLE
  2
AM_ANSI
 70
     0
  3

  4
mm
  5

  6

  7

 40
1.0
 41
0.12
 42
0.05
 43
0.5
 44
0.1
 45
0.0
 46
0.0
 47
0.1
 48
0.1
140
0.12
141
0.0
142
0.0
143
25.399999999999999
144
1.0
145
0.0
146
0.71
147
0.06
 71
     0
 72
     0
 73
     1
 74
     1
 75
     0
 76
     0
 77
     0
 78
     7
170
     0
171
     2
172
     0
173
     0
174
     0
175
     0
176
   256
177
   256
178
     2
  0
DIMSTYLE
  2
AM_ANSI$3
 70
     0
  3

  4
mm
  5

  6

  7

 40
1.0
 41
0.12
 42
0.05
 43
0.5
 44
0.1
 45
0.0
 46
0.0
 47
0.1
 48
0.1
140
0.12
141
0.0
142
0.0
143
25.399999999999999
144
1.0
145
0.0
146
0.71
147
0.06
 71
     0
 72
     0
 73
     1
 74
     1
 75
     0
 76
     0
 77
     0
 78
     7
170
     0
171
     2
172
     0
173
     0
174
     0
175
     0
176
   256
177
   256
178
     2
  0
DIMSTYLE
  2
AM_ANSI$4
 70
     0
  3

  4
mm
  5

  6

  7

 40
1.0
 41
0.12
 42
0.05
 43
0.5
 44
0.1
 45
0.0
 46
0.0
 47
0.1
 48
0.1
140
0.12
141
0.0
142
0.0
143
25.399999999999999
144
1.0
145
0.0
146
0.71
147
0.06
 71
     0
 72
     0
 73
     1
 74
     1
 75
     0
 76
     0
 77
     0
 78
     7
170
     0
171
     2
172
     0
173
     0
174
     0
175
     0
176
   256
177
   256
178
     2
  0
DIMSTYLE
  2
AM_ANSI$7
 70
     0
  3

  4
mm
  5

  6

  7

 40
1.0
 41
0.12
 42
0.05
 43
0.5
 44
0.1
 45
0.0
 46
0.0
 47
0.1
 48
0.1
140
0.12
141
0.0
142
0.0
143
25.399999999999999
144
1.0
145
0.0
146
0.71
147
0.06
 71
     0
 72
     0
 73
     1
 74
     1
 75
     0
 76
     0
 77
     0
 78
     7
170
     0
171
     2
172
     0
173
     0
174
     0
175
     0
176
   256
177
   256
178
     2
  0
DIMSTYLE
  2
AM_ANSI$SF
 70
     0
  3

  4
mm
  5

  6

  7

 40
1.0
 41
0.12
 42
0.05
 43
0.5
 44
0.1
 45
0.0
 46
0.0
 47
0.1
 48
0.1
140
0.12
141
0.0
142
0.0
143
25.399999999999999
144
1.0
145
0.0
146
0.71
147
0.06
 71
     0
 72
     0
 73
     1
 74
     1
 75
     1
 76
     1
 77
     0
 78
     7
170
     0
171
     2
172
     0
173
     0
174
     0
175
     0
176
   256
177
   256
178
     2
  0
DIMSTYLE
  2
AM_ANSI$SH
 70
     0
  3

  4
mm
  5

  6
GENAXEH
  7

 40
1.0
 41
0.12
 42
0.05
 43
0.5
 44
0.1
 45
0.0
 46
0.0
 47
0.1
 48
0.1
140
0.12
141
0.0
142
0.0
143
25.399999999999999
144
1.0
145
0.0
146
0.71
147
0.06
 71
     0
 72
     0
 73
     1
 74
     1
 75
     1
 76
     1
 77
     0
 78
     7
170
     0
171
     2
172
     0
173
     1
174
     0
175
     0
176
   256
177
   256
178
     2
  0
ENDTAB
  0
ENDSEC
  0
SECTION
  2
BLOCKS
  0
BLOCK
  8
0
  2
$MODEL_SPACE
 70
     0
 10
0.0
 20
0.0
 30
0.0
  3
$MODEL_SPACE
  1

  0
ENDBLK
  5
CD5
  8
0
  0
BLOCK
 67
     1
  8
0
  2
$PAPER_SPACE
 70
     0
 10
0.0
 20
0.0
 30
0.0
  3
$PAPER_SPACE
  1

  0
ENDBLK
  5
CD1
 67
     1
  8
0
  0
BLOCK
  8
0
  2
_OPEN
 70
     0
 10
0.0
 20
0.0
 30
0.0
  3
_OPEN
  1

  0
LINE
  5
595
  8
0
  6
BYBLOCK
 62
     0
 10
-1.0
 20
0.1666666666666666
 30
0.0
 11
0.0
 21
0.0
 31
0.0
  0
LINE
  5
596
  8
0
  6
BYBLOCK
 62
     0
 10
-1.0
 20
-0.1666666666666666
 30
0.0
 11
0.0
 21
0.0
 31
0.0
  0
LINE
  5
597
  8
0
  6
BYBLOCK
 62
     0
 10
0.0
 20
0.0
 30
0.0
 11
-1.0
 21
0.0
 31
0.0
  0
ENDBLK
  5
599
  8
0
  0
BLOCK
  8
0
  2
GENAXEH
 70
     0
 10
0.0
 20
0.0
 30
0.0
  3
GENAXEH
  1

  0
LINE
  5
AE4
  8
0
 10
-1.0
 20
0.0
 30
0.0
 11
1.0
 21
0.0
 31
0.0
  0
ENDBLK
  5
AE6
  8
0
  0
ENDSEC
  0
SECTION
  2
ENTITIES
  0
TEXT
  5
7D6
  8
241
 10
-91.0
 20
48.99999600000001
 30
0.0
 40
4.0
  1
ST25-C1040C
  7
YOKO
 11
-91.0
 21
48.99999600000001
 31
0.0
 73
     1
  0
LINE
  5
9B2
  8
250
 10
-89.926557640349984
 20
-25.14131103937331
 30
0.0
 11
-105.9265576403499
 21
-25.14131103937331
 31
0.0
1001
ITEMNAME
1000
LNSP2
  0
LINE
  5
BB1
  8
250
 10
-35.0
 20
19.499998000000001
 30
0.0
 11
-35.0
 21
35.99999600000001
 31
0.0
  0
LINE
  5
BB2
  8
250
 10
0.0
 20
4.9813210000000083
 30
0.0
 11
0.0000000000000019
 21
35.99999600000001
 31
0.0
  0
LINE
  5
BB3
  8
250
 10
-32.77000000000001
 20
34.99999600000001
 30
0.0
 11
-2.229999999999996
 21
34.99999600000001
 31
0.0
  0
LINE
  5
BB7
  8
250
 10
-93.0
 20
11.556623
 30
0.0
 11
-93.0
 21
35.99999600000001
 31
0.0
  0
LINE
  5
BB8
  8
250
 10
-35.0
 20
19.499998000000001
 30
0.0
 11
-35.0
 21
35.99999600000001
 31
0.0
  0
LINE
  5
BB9
  8
250
 10
-90.769999999999996
 20
34.99999600000001
 30
0.0
 11
-37.22999999999999
 21
34.99999600000001
 31
0.0
  0
TEXT
  5
BBD
  8
250
 10
-103.3551290689213
 20
-24.141311039373299
 30
0.0
 40
3.0
  1
ST25
  7
YOKO
1001
ITEMNAME
1000
LNSP3
1001
ACAD
1000
MTEXTBEGIN
1070
    73
1070
     1
1070
    44
1040
1.0
1070
    74
1070
     0
1000
MTEXTEND
  0
LINE
  5
BBE
  8
250
 10
-91.366024999999993
 20
-12.50000099999999
 30
0.0
 11
-105.9999999999999
 21
-12.50000099999999
 31
0.0
  0
LINE
  5
BBF
  8
250
 10
-91.366024999999993
 20
12.499999000000001
 30
0.0
 11
-105.9999999999999
 21
12.499999000000001
 31
0.0
  0
LINE
  5
BC0
  8
250
 10
-104.9999999999999
 20
-10.27000099999999
 30
0.0
 11
-104.9999999999999
 21
10.269999
 31
0.0
  0
LINE
  5
BC6
  8
250
 10
-14.8530104179369
 20
19.99999900000001
 30
0.0
 11
21.999996006665889
 21
19.999998999999999
 31
0.0
  0
LINE
  5
BC7
  8
250
 10
20.999996006665899
 20
17.769998999999999
 30
0.0
 11
20.999996006665889
 21
-4.785716602025313
 31
0.0
  0
LINE
  5
BCA
  8
250
 10
0.1470077149093072
 20
4.9999989999999883
 30
0.0
 11
15.00000276461696
 21
4.9999989999999821
 31
0.0
  0
LINE
  5
BCB
  8
250
 10
14.00000276461696
 20
2.7699989999999821
 30
0.0
 11
14.00000276461696
 21
-5.0000009999999859
 31
0.0
  0
LINE
  5
BCE
  8
250
 10
-32.77000000000001
 20
34.62832933333334
 30
0.0
 11
-35.0
 21
34.99999600000001
 31
0.0
  0
LINE
  5
BCF
  8
250
 10
-32.77000000000001
 20
35.371662666666673
 30
0.0
 11
-35.0
 21
34.99999600000001
 31
0.0
  0
LINE
  5
BD0
  8
250
 10
-35.0
 20
34.99999600000001
 30
0.0
 11
-32.77000000000001
 21
34.99999600000001
 31
0.0
  0
TEXT
  5
BD1
  8
250
 10
-105.9999999999999
 20
-4.0714295714285811
 30
0.0
 40
3.0
  1
\U+2205
 50
90.0
1001
ACAD
1000
MTEXTBEGIN
1070
    73
1070
     1
1070
    44
1040
1.0
1070
    74
1070
     0
1000
MTEXTEND
  0
TEXT
  5
BD2
  8
250
 10
-105.9999999999999
 20
-1.357143857142868
 30
0.0
 40
3.0
  1
25
 50
90.0
1001
ACAD
1000
MTEXTBEGIN
1070
    73
1070
     1
1070
    44
1040
1.0
1070
    74
1070
     0
1000
MTEXTEND
  0
LINE
  5
BD3
  8
250
 10
-104.6283333333332
 20
-10.27000099999999
 30
0.0
 11
-104.9999999999999
 21
-12.50000099999999
 31
0.0
  0
LINE
  5
BD4
  8
250
 10
-105.3716666666665
 20
-10.27000099999999
 30
0.0
 11
-104.9999999999999
 21
-12.50000099999999
 31
0.0
  0
LINE
  5
BD5
  8
250
 10
-104.9999999999999
 20
-12.50000099999999
 30
0.0
 11
-104.9999999999999
 21
-10.27000099999999
 31
0.0
  0
LINE
  5
BD6
  8
250
 10
-105.3716666666665
 20
10.269999
 30
0.0
 11
-104.9999999999999
 21
12.499999000000001
 31
0.0
  0
LINE
  5
BD7
  8
250
 10
-104.6283333333332
 20
10.269999
 30
0.0
 11
-104.9999999999999
 21
12.499999000000001
 31
0.0
  0
LINE
  5
BD8
  8
250
 10
-104.9999999999999
 20
12.499999000000001
 30
0.0
 11
-104.9999999999999
 21
10.269999
 31
0.0
  0
LINE
  5
BD9
  8
250
 10
-83.743093886208285
 20
-14.431237650439281
 30
0.0
 11
-89.926557640349984
 21
-25.14131103937331
 31
0.0
1001
ACAD
1000
DSTYLE
1002
{
1070
     5
1000
OPEN
1070
    76
1070
     1
1070
    78
1070
     8
1070
   140
1040
3.0
1070
   282
1070
     1
1002
}
  0
LINE
  5
BDA
  8
250
 10
-84.064966661281474
 20
-14.24540431710594
 30
0.0
 11
-82.628093886208262
 21
-12.50000099999999
 31
0.0
  0
LINE
  5
BDB
  8
250
 10
-83.421221111135068
 20
-14.617070983772621
 30
0.0
 11
-82.628093886208262
 21
-12.50000099999999
 31
0.0
  0
LINE
  5
BDC
  8
250
 10
-82.628093886208262
 20
-12.50000099999999
 30
0.0
 11
-83.743093886208285
 21
-14.431237650439281
 31
0.0
  0
TEXT
  5
BDD
  8
250
 10
-66.857142857142861
 20
35.99999600000001
 30
0.0
 40
3.0
  1
58
1001
ACAD
1000
MTEXTBEGIN
1070
    73
1070
     1
1070
    44
1040
1.0
1070
    74
1070
     0
1000
MTEXTEND
  0
LINE
  5
BDE
  8
250
 10
-90.769999999999996
 20
34.62832933333334
 30
0.0
 11
-93.0
 21
34.99999600000001
 31
0.0
  0
LINE
  5
BDF
  8
250
 10
-90.769999999999996
 20
35.371662666666673
 30
0.0
 11
-93.0
 21
34.99999600000001
 31
0.0
  0
LINE
  5
BE0
  8
250
 10
-93.0
 20
34.99999600000001
 30
0.0
 11
-90.769999999999996
 21
34.99999600000001
 31
0.0
  0
LINE
  5
BE1
  8
250
 10
-37.229999999999997
 20
35.37166266666668
 30
0.0
 11
-35.0
 21
34.99999600000001
 31
0.0
  0
LINE
  5
BE2
  8
250
 10
-37.229999999999997
 20
34.62832933333334
 30
0.0
 11
-35.0
 21
34.99999600000001
 31
0.0
  0
LINE
  5
BE3
  8
250
 10
-35.0
 20
34.99999600000001
 30
0.0
 11
-37.229999999999997
 21
34.99999600000001
 31
0.0
  0
LINE
  5
BE4
  8
250
 10
20.62832933999923
 20
17.769998999999999
 30
0.0
 11
20.999996006665899
 21
19.999998999999999
 31
0.0
  0
LINE
  5
BE5
  8
250
 10
21.371662673332558
 20
17.769998999999999
 30
0.0
 11
20.999996006665899
 21
19.999998999999999
 31
0.0
  0
LINE
  5
BE6
  8
250
 10
20.999996006665899
 20
19.999998999999999
 30
0.0
 11
20.999996006665899
 21
17.769998999999999
 31
0.0
  0
TEXT
  5
BE7
  8
250
 10
12.3765025001595
 20
-4.4147784874501932
 30
0.0
 40
3.0
  1
\U+2205
 50
90.0
  0
TEXT
  5
BE8
  8
250
 10
12.3765025001595
 20
-1.7004927731644801
 30
0.0
 40
3.0
  1
10
 50
90.0
  0
TEXT
  5
BE9
  8
250
 10
19.999996006665889
 20
-4.0714308877395951
 30
0.0
 40
3.0
  1
\U+2205
 50
90.0
1001
ACAD
1000
MTEXTBEGIN
1070
    73
1070
     1
1070
    44
1040
1.0
1070
    74
1070
     0
1000
MTEXTEND
  0
TEXT
  5
BEA
  8
250
 10
19.999996006665889
 20
-1.3571451734538811
 30
0.0
 40
3.0
  1
40
 50
90.0
1001
ACAD
1000
MTEXTBEGIN
1070
    73
1070
     1
1070
    44
1040
1.0
1070
    74
1070
     0
1000
MTEXTEND
  0
LINE
  5
BEB
  8
250
 10
13.628336097950299
 20
2.7699989999999821
 30
0.0
 11
14.00000276461696
 21
4.9999989999999821
 31
0.0
  0
LINE
  5
BEC
  8
250
 10
14.371669431283641
 20
2.7699989999999821
 30
0.0
 11
14.00000276461696
 21
4.9999989999999821
 31
0.0
  0
LINE
  5
BED
  8
250
 10
14.00000276461696
 20
4.9999989999999821
 30
0.0
 11
14.00000276461696
 21
2.7699989999999821
 31
0.0
  0
LINE
  5
BEE
  8
250
 10
-2.229999999999996
 20
35.37166266666668
 30
0.0
 11
0.0000000000000019
 21
34.99999600000001
 31
0.0
  0
LINE
  5
BEF
  8
250
 10
-2.229999999999996
 20
34.62832933333334
 30
0.0
 11
0.0000000000000019
 21
34.99999600000001
 31
0.0
  0
LINE
  5
BF0
  8
250
 10
0.0000000000000019
 20
34.99999600000001
 30
0.0
 11
-2.229999999999996
 21
34.99999600000001
 31
0.0
  0
TEXT
  5
BF1
  8
250
 10
-20.357142857142861
 20
35.99999600000001
 30
0.0
 40
3.0
  1
35
1001
ACAD
1000
MTEXTBEGIN
1070
    73
1070
     1
1070
    44
1040
1.0
1070
    74
1070
     0
1000
MTEXTEND
  0
TEXT
  5
DAD
  8
247
 10
-31.55839836123431
 20
-3.999999733333524
 30
0.0
 40
2.0
  1
ST25-C1040
 50
90.0
 41
0.7
  7
YOKO
 11
-31.55839836123431
 21
-3.999999733333524
 31
0.0
 73
     1
  0
LINE
  5
DB1
  8
247
 10
-33.408312054414267
 20
-6.6036193541093127
 30
0.0
 11
-33.630648968476812
 21
-6.6737297056718017
 31
0.0
1001
ACAD
1000
ASC_BOUNDS
1002
{
1070
    19
1005
DAF
1002
}
  0
POLYLINE
  5
DB2
  8
247
 66
     1
 10
0.0
 20
0.0
 30
0.0
 70
     1
  0
VERTEX
  5
DB3
  8
247
 10
-33.443318890351783
 20
-6.4926047056718073
 30
0.0
  0
VERTEX
  5
DB4
  8
247
 10
-33.665655804414257
 20
-6.5627150572343123
 30
0.0
  0
VERTEX
  5
DB5
  8
247
 10
-33.665655804414257
 20
-6.5627150572343123
 30
0.0
  0
VERTEX
  5
DB6
  8
247
 10
-33.443318890351783
 20
-6.4926047056718073
 30
0.0
  0
SEQEND
  5
DB7
  8
247
  0
POLYLINE
  5
DB8
  8
247
 66
     1
 10
0.0
 20
0.0
 30
0.0
 70
     1
1001
HATCH_DISTANCE
1040
1.0
1001
HATCH_DISPLAY
1070
     0
1001
HATCH_TYPE
1070
     7
  0
VERTEX
  5
DB9
  8
247
 10
-33.443318890351783
 20
-6.4926047056718073
 30
0.0
  0
VERTEX
  5
DBA
  8
247
 10
-33.665655804414257
 20
-6.5627150572343123
 30
0.0
  0
VERTEX
  5
DBB
  8
247
 10
-33.665655804414257
 20
-6.5627150572343123
 30
0.0
  0
VERTEX
  5
DBC
  8
247
 10
-33.443318890351783
 20
-6.4926047056718073
 30
0.0
  0
SEQEND
  5
DBD
  8
247
  0
LINE
  5
DBE
  8
247
 10
-33.443318890351783
 20
-6.4926047056718073
 30
0.0
 11
-33.665655804414257
 21
-6.5627150572343123
 31
0.0
1001
ACAD
1000
ASC_BOUNDS
1002
{
1070
    19
1005
DB0
1002
}
  0
POLYLINE
  5
DBF
  8
247
 66
     1
 10
0.0
 20
0.0
 30
0.0
 70
     1
  0
VERTEX
  5
DC0
  8
247
 10
-33.443318890351783
 20
-6.4926047056718073
 30
0.0
  0
VERTEX
  5
DC1
  8
247
 10
-33.665655804414257
 20
-6.5627150572343123
 30
0.0
  0
VERTEX
  5
DC2
  8
247
 10
-33.665655804414257
 20
-6.5627150572343123
 30
0.0
  0
VERTEX
  5
DC3
  8
247
 10
-33.443318890351783
 20
-6.4926047056718073
 30
0.0
  0
SEQEND
  5
DC4
  8
247
  0
POLYLINE
  5
DC5
  8
247
 66
     1
 10
0.0
 20
0.0
 30
0.0
 70
     1
1001
HATCH_DISTANCE
1040
1.0
1001
HATCH_DISPLAY
1070
     0
1001
HATCH_TYPE
1070
     7
  0
VERTEX
  5
DC6
  8
247
 10
-33.443318890351783
 20
-6.4926047056718073
 30
0.0
  0
VERTEX
  5
DC7
  8
247
 10
-33.665655804414257
 20
-6.5627150572343123
 30
0.0
  0
VERTEX
  5
DC8
  8
247
 10
-33.665655804414257
 20
-6.5627150572343123
 30
0.0
  0
VERTEX
  5
DC9
  8
247
 10
-33.443318890351783
 20
-6.4926047056718073
 30
0.0
  0
SEQEND
  5
DCA
  8
247
  0
LINE
  5
DCB
  8
247
 10
-33.706041546601767
 20
-10.37515548692164
 30
0.0
 11
-33.473236859101782
 21
-10.44190841660954
 31
0.0
  0
LINE
  5
DCC
  8
247
 10
-33.706041546601767
 20
-10.49624240098426
 30
0.0
 11
-33.473236859101782
 21
-10.56299533067177
 31
0.0
1001
ACAD
1000
ASC_BOUNDS
1002
{
1070
    19
1005
DB0
1002
}
  0
LINE
  5
DCD
  8
247
 10
-33.473236859101718
 20
-10.435183032756621
 30
0.0
 11
-33.70604154660171
 21
-10.20237834525661
 31
0.0
  0
LINE
  5
DCE
  8
247
 10
-33.304332215158439
 20
-9.5695621715527182
 30
0.0
 11
-33.59462245531958
 21
-9.2792719313916621
 31
0.0
  0
LINE
  5
DCF
  8
247
 10
-33.4405956276834
 20
-9.6919301353145926
 30
0.0
 11
-33.680693532042568
 21
-9.4518322309554303
 31
0.0
  0
LINE
  5
DD0
  8
247
 10
-33.44996342160178
 20
-8.7411808775467961
 30
0.0
 11
-33.706041546601767
 21
-8.6677482603593017
 31
0.0
  0
ARC
  5
DD1
  8
247
 10
-32.483825726289268
 20
-6.2511076353593173
 30
0.0
 40
1.2222158203124971
 50
0.0
 51
194.77079396609301
1001
ACAD
1000
ASC_BOUNDS
1002
{
1070
    19
1005
DB0
1002
}
  0
LINE
  5
DD2
  8
247
 10
-32.908371784735152
 20
-10.482785354549589
 30
0.0
 11
-33.706041546601682
 21
-9.6851155926831023
 31
0.0
  0
ARC
  5
DD3
  8
247
 10
-32.483825726289268
 20
-10.97701290879677
 30
0.0
 40
1.2222158203124971
 50
180.0
 51
0.0
1001
ACAD
1000
ASC_BOUNDS
1002
{
1070
    19
1005
DB0
1002
}
  0
ARC
  5
DD4
  8
247
 10
-33.124038616914277
 20
-9.6217394712968041
 30
0.0
 40
0.5820078735351563
 50
17.669577547398891
 51
180.2361598426715
  0
LINE
  5
DD5
  8
247
 10
-31.610816662568599
 20
-8.6630812681718066
 30
0.0
 11
-33.706041546601767
 21
-8.062287322859305
 31
0.0
  0
POLYLINE
  5
DD6
  8
247
 66
     1
 10
0.0
 20
0.0
 30
0.0
 70
     1
1001
ACAD
1000
ASC_BOUNDS
1002
{
1070
    19
1005
DAE
1002
}
  0
VERTEX
  5
DD7
  8
247
 10
-33.706041546601767
 20
-8.6677482603593017
 30
0.0
  0
VERTEX
  5
DD8
  8
247
 10
-33.44996342160178
 20
-8.7411808775467961
 30
0.0
  0
VERTEX
  5
DD9
  8
247
 10
-33.44996342160178
 20
-8.6564103697343011
 30
0.0
  0
VERTEX
  5
DDA
  8
247
 10
-31.610816662568599
 20
-9.1837804869218171
 30
0.0
  0
VERTEX
  5
DDB
  8
247
 10
-31.610816662568599
 20
-8.6630812681718066
 30
0.0
  0
VERTEX
  5
DDC
  8
247
 10
-33.706041546601767
 20
-8.062287322859305
 30
0.0
  0
SEQEND
  5
DDD
  8
247
  0
POLYLINE
  5
DDE
  8
247
 66
     1
 10
0.0
 20
0.0
 30
0.0
 70
     1
1001
HATCH_DISTANCE
1040
1.0
1001
HATCH_DISPLAY
1070
     0
1001
HATCH_TYPE
1070
     7
  0
VERTEX
  5
DDF
  8
247
 10
-33.706041546601767
 20
-8.6677482603593017
 30
0.0
  0
VERTEX
  5
DE0
  8
247
 10
-33.44996342160178
 20
-8.7411808775467961
 30
0.0
  0
VERTEX
  5
DE1
  8
247
 10
-33.44996342160178
 20
-8.6564103697343011
 30
0.0
  0
VERTEX
  5
DE2
  8
247
 10
-31.610816662568599
 20
-9.1837804869218171
 30
0.0
  0
VERTEX
  5
DE3
  8
247
 10
-31.610816662568599
 20
-8.6630812681718066
 30
0.0
  0
VERTEX
  5
DE4
  8
247
 10
-33.706041546601767
 20
-8.062287322859305
 30
0.0
  0
SEQEND
  5
DE5
  8
247
  0
LINE
  5
DE6
  8
247
 10
-33.270979318469898
 20
-10.37880919710171
 30
0.0
 11
-33.70604154660171
 21
-9.9437469689698617
 31
0.0
  0
ARC
  5
DE7
  8
247
 10
-32.949435101289282
 20
-7.2862834166093062
 30
0.0
 40
0.7566075439453125
 50
143.44401219705779
 51
254.00018438768549
1001
ACAD
1000
ASC_BOUNDS
1002
{
1070
    19
1005
DAF
1002
}
  0
LINE
  5
DE8
  8
240
 10
-34.499997999999998
 20
-19.5
 30
0.0
 11
-32.624358000000029
 21
-19.5
 31
0.0
  0
LINE
  5
DE9
  8
240
 10
-34.499997999999998
 20
-19.5
 30
0.0
 11
-30.767946999999989
 21
-19.5
 31
0.0
  0
LINE
  5
DEA
  8
240
 10
-34.499997999999998
 20
-19.500001000000001
 30
0.0
 11
-31.463945000000031
 21
-19.500001000000001
 31
0.0
  0
LINE
  5
DEB
  8
240
 10
-32.624358000000029
 20
19.499999999999979
 30
0.0
 11
-34.499997999999998
 21
19.499999999999979
 31
0.0
  0
LINE
  5
DEC
  8
240
 10
-34.499997999999998
 20
19.499998999999999
 30
0.0
 11
-30.767946999999989
 21
19.499998999999999
 31
0.0
  0
LINE
  5
DED
  8
245
 10
-96.736808000000025
 20
0.0
 30
0.0
 11
0.964985999999989
 21
0.0
 31
0.0
  0
LINE
  5
DEE
  8
241
 10
-34.999997999999977
 20
-12.49999999999998
 30
0.0
 11
-34.999997999999948
 21
12.49999999999998
 31
0.0
  0
LINE
  5
DEF
  8
240
 10
-92.999998000000005
 20
-11.05662499999999
 30
0.0
 11
-92.999998000000005
 21
0.0
 31
0.0
  0
LINE
  5
DF0
  8
241
 10
-90.999998000000019
 20
-12.5
 30
0.0
 11
-90.999998000000019
 21
12.481716
 31
0.0
  0
LINE
  5
DF1
  8
241
 10
-35.0
 20
-3.610787000000014
 30
0.0
 11
-35.0
 21
-0.0000009999999975
 31
0.0
  0
LINE
  5
DF2
  8
240
 10
-90.866022999999998
 20
-12.5
 30
0.0
 11
-34.99999800000009
 21
-12.5
 31
0.0
  0
LINE
  5
DF3
  8
240
 10
-92.749998000000005
 20
-11.48963800000001
 30
0.0
 11
-91.116023000000013
 21
-12.43301300000001
 31
0.0
  0
ARC
  5
DF4
  8
240
 10
-92.499998000000019
 20
-11.05662499999999
 30
0.0
 40
0.5
 50
180.0
 51
239.99999999999989
  0
ARC
  5
DF5
  8
240
 10
-90.866022999999998
 20
-12.0
 30
0.0
 40
0.5
 50
239.99999999999989
 51
270.0
  0
LINE
  5
DF6
  8
240
 10
-34.999998000000012
 20
-19.00000099999999
 30
0.0
 11
-34.99999800000009
 21
-12.5
 31
0.0
  0
ARC
  5
DF7
  8
240
 10
-34.499997999999998
 20
-19.0
 30
0.0
 40
0.5
 50
180.0
 51
270.0
  0
ARC
  5
DF8
  8
240
 10
-34.499997999999998
 20
-19.00000099999999
 30
0.0
 40
0.5
 50
180.0
 51
270.0
  0
LINE
  5
DF9
  8
247
 10
-33.706041546601767
 20
-8.6677482603593017
 30
0.0
 11
-33.706041546601767
 21
-8.062287322859305
 31
0.0
  0
LINE
  5
DFA
  8
241
 10
-34.999998000000012
 20
-10.92131400000001
 30
0.0
 11
-34.999998000000012
 21
-0.0000029999999925
 31
0.0
  0
LINE
  5
DFB
  8
247
 10
-33.706041546601767
 20
-10.37515548692164
 30
0.0
 11
-33.706041546601682
 21
-9.6241383652439083
 31
0.0
  0
LINE
  5
DFC
  8
247
 10
-33.706041546601767
 20
-10.97701290879677
 30
0.0
 11
-33.706041546601767
 21
-10.49624240098426
 31
0.0
1001
ACAD
1000
ASC_BOUNDS
1002
{
1070
    19
1005
DB0
1002
}
  0
ARC
  5
DFD
  8
247
 10
-32.483825726289268
 20
-6.2511076353593173
 30
0.0
 40
1.222216369628905
 50
200.22964506331999
 51
208.57168892371641
1001
ACAD
1000
ASC_BOUNDS
1002
{
1070
    19
1005
DAF
1002
}
  0
LINE
  5
DFE
  8
240
 10
-90.866022999999998
 20
12.499999999999989
 30
0.0
 11
-34.99999799999992
 21
12.499999999999989
 31
0.0
  0
LINE
  5
DFF
  8
240
 10
-92.749998000000005
 20
11.489636999999981
 30
0.0
 11
-91.116023000000013
 21
12.43301199999998
 31
0.0
  0
LINE
  5
E00
  8
240
 10
-92.999998000000005
 20
11.05662399999999
 30
0.0
 11
-92.999998000000005
 21
0.0
 31
0.0
  0
ARC
  5
E01
  8
240
 10
-92.499998000000019
 20
11.05662399999999
 30
0.0
 40
0.5
 50
120.0
 51
180.0
  0
ARC
  5
E02
  8
240
 10
-90.866022999999998
 20
11.999999999999989
 30
0.0
 40
0.5
 50
90.0
 51
120.0
  0
LINE
  5
E03
  8
240
 10
-34.999998000000012
 20
18.999999999999989
 30
0.0
 11
-34.99999799999992
 21
12.499999999999989
 31
0.0
  0
ARC
  5
E04
  8
240
 10
-34.499997999999998
 20
18.999999999999989
 30
0.0
 40
0.5
 50
90.0
 51
180.0
  0
ARC
  5
E05
  8
240
 10
-34.499997999999998
 20
18.999998999999999
 30
0.0
 40
0.5
 50
90.0
 51
180.0
  0
LINE
  5
E06
  8
241
 10
-30.499998000000009
 20
-19.536567000000009
 30
0.0
 11
-30.499997999999891
 21
19.499999000000191
 31
0.0
  0
LINE
  5
E07
  8
240
 10
-0.2003850000000114
 20
-4.0928900000000086
 30
0.0
 11
-0.2003850000000114
 21
4.1346886919769883
 31
0.0
  0
LINE
  5
E08
  8
241
 10
-15.11593400000001
 20
-11.077436000000001
 30
0.0
 11
-15.11593400000001
 21
3.9159329999999928
 31
0.0
  0
LINE
  5
E09
  8
240
 10
-18.130828000000012
 20
-22.353553999999999
 30
0.0
 11
-0.4902770000000203
 21
-4.7130229999999917
 31
0.0
  0
ARC
  5
E0A
  8
241
 10
-33.303845000000031
 20
-21.776313000000009
 30
0.0
 40
8.0
 50
0.0
 51
47.527173000000211
  0
ARC
  5
E0B
  8
241
 10
-10.277274000000009
 20
-20.62567199999997
 30
0.0
 40
8.0
 50
143.36145600000009
 51
180.0
  0
LINE
  5
E0C
  8
240
 10
-25.035896000000012
 20
-22.5
 30
0.0
 11
-18.48438100000002
 21
-22.5
 31
0.0
  0
LINE
  5
E0D
  8
240
 10
-30.267946999999989
 20
-19.633974999999989
 30
0.0
 11
-25.535896000000012
 21
-22.36602499999999
 31
0.0
  0
ARC
  5
E0E
  8
240
 10
-30.767946999999989
 20
-20.5
 30
0.0
 40
1.0
 50
60.000000000000419
 51
90.0
  0
ARC
  5
E0F
  8
240
 10
-25.035896000000012
 20
-21.5
 30
0.0
 40
1.0
 50
239.99999999999989
 51
270.0
  0
LINE
  5
E10
  8
241
 10
-25.30384500000002
 20
-22.25541500000001
 30
0.0
 11
-25.30384500000002
 21
-21.776313000000009
 31
0.0
  0
ARC
  5
E11
  8
240
 10
-18.48438100000002
 20
-22.0
 30
0.0
 40
0.5
 50
270.0
 51
314.99996600000111
  0
LINE
  5
E12
  8
241
 10
-18.277273999999998
 20
-22.137606999999999
 30
0.0
 11
-18.277273999999998
 21
-20.62567199999997
 31
0.0
  0
LINE
  5
E13
  8
247
 10
-31.494414318818571
 20
-10.97701290879677
 30
0.0
 11
-31.494414318818571
 21
-6.2511076353593173
 31
0.0
1001
ACAD
1000
ASC_BOUNDS
1002
{
1070
    19
1005
DB0
1002
}
  0
LINE
  5
E14
  8
247
 10
-31.26160963731008
 20
-10.97701290879677
 30
0.0
 11
-31.26160963731008
 21
-6.2511076353593173
 31
0.0
1001
ACAD
1000
ASC_BOUNDS
1002
{
1070
    19
1005
DB0
1002
}
  0
ARC
  5
E15
  8
247
 10
-32.367423382539272
 20
-7.453170135359299
 30
0.0
 40
0.756615234375
 50
253.99975070172931
 51
34.963873291630136
1001
ACAD
1000
ASC_BOUNDS
1002
{
1070
    19
1005
DAF
1002
}
  0
ARC
  5
E16
  8
241
 10
-22.499998000000009
 20
-9.9747500000000002
 30
0.0
 40
8.0
 50
180.0
 51
227.5271730000002
  0
LINE
  5
E17
  8
247
 10
-32.459018865918331
 20
-9.8976127682192452
 30
0.0
 11
-33.292105489354952
 21
-9.0645261447826861
 31
0.0
  0
LINE
  5
E18
  8
247
 10
-32.183156717265717
 20
-10.69073766944542
 30
0.0
 11
-32.998073226137343
 21
-9.8758211605739064
 31
0.0
  0
LINE
  5
E19
  8
247
 10
-31.820549183531028
 20
-10.794713826893361
 30
0.0
 11
-32.805570217583472
 21
-9.8096927928409343
 31
0.0
  0
LINE
  5
E1A
  8
247
 10
-31.610816662568599
 20
-10.85485372910928
 30
0.0
 11
-31.610816662568599
 21
-9.8887599791092935
 31
0.0
  0
LINE
  5
E1B
  8
247
 10
-31.610816662568599
 20
-10.228552218995491
 30
0.0
 11
-32.465029992379243
 21
-9.3743388891847683
 31
0.0
  0
ARC
  5
E1C
  8
247
 10
-32.216102093476792
 20
-10.1484855650468
 30
0.0
 40
0.3492072715759277
 50
351.66285421114799
 51
156.33819215911359
  0
LINE
  5
E1D
  8
247
 10
-31.61081666256857
 20
-9.9699208427086905
 30
0.0
 11
-32.268976317500289
 21
-9.3117611877769608
 31
0.0
  0
LINE
  5
E1E
  8
247
 10
-32.535951662422811
 20
-10.00833574604396
 30
0.0
 11
-31.870585231363609
 21
-10.19911970883315
 31
0.0
  0
LINE
  5
E1F
  8
247
 10
-31.610816662568599
 20
-10.48718359528228
 30
0.0
 11
-31.910255374662011
 21
-10.18774488318882
 31
0.0
  0
LINE
  5
E20
  8
247
 10
-31.610816662568599
 20
-10.745814971569009
 30
0.0
 11
-32.272857550901563
 21
-10.08377408323601
 31
0.0
  0
LINE
  5
E21
  8
247
 10
-32.290668078292157
 20
-9.8073321795586672
 30
0.0
 11
-33.054044469407501
 21
-9.0439557884433412
 31
0.0
  0
ARC
  5
E22
  8
247
 10
-32.192819866914249
 20
-9.8887599791092935
 30
0.0
 40
0.5820029296875
 50
0.0
 51
130.3298406541675
  0
LINE
  5
E23
  8
247
 10
-31.654452546737929
 20
-9.6676535822525231
 30
0.0
 11
-31.971713470057491
 21
-9.3503926589329573
 31
0.0
  0
LINE
  5
E24
  8
247
 10
-31.610816662568599
 20
-9.1837804869218171
 30
0.0
 11
-31.610816662568599
 21
-8.6630812681718066
 31
0.0
  0
LINE
  5
E25
  8
247
 10
-33.473236859101782
 20
-10.97701290879677
 30
0.0
 11
-33.473236859101782
 21
-10.56299533067177
 31
0.0
1001
ACAD
1000
ASC_BOUNDS
1002
{
1070
    19
1005
DB0
1002
}
  0
LINE
  5
E26
  8
247
 10
-33.473236859101782
 20
-10.44190841660954
 30
0.0
 11
-33.473236859101043
 21
-10.32081271348453
 31
0.0
  0
LINE
  5
E27
  8
247
 10
-33.44996342160178
 20
-8.7411808775467961
 30
0.0
 11
-33.44996342160178
 21
-8.6564103697343011
 31
0.0
  0
LINE
  5
E28
  8
247
 10
-32.545764251000463
 20
-10.58676151199753
 30
0.0
 11
-33.360677327904938
 21
-9.7718484350930215
 31
0.0
  0
LINE
  5
E29
  8
247
 10
-31.610816662568599
 20
-10.85485372910928
 30
0.0
 11
-33.473236859101043
 21
-10.32081271348453
 31
0.0
  0
ARC
  5
E2A
  8
247
 10
-32.483825726289268
 20
-10.97701290879677
 30
0.0
 40
0.9894111328124999
 50
180.0
 51
0.0
1001
ACAD
1000
ASC_BOUNDS
1002
{
1070
    19
1005
DB0
1002
}
  0
ARC
  5
E2B
  8
247
 10
-33.147312054414243
 20
-9.8814650572343101
 30
0.0
 40
0.349197280883789
 50
351.66260168792923
 51
156.33815509518979
  0
LINE
  5
E2C
  8
247
 10
-33.46715193315606
 20
-9.7413180167980329
 30
0.0
 11
-32.801805236944517
 21
-9.9320988410015048
 31
0.0
  0
LINE
  5
E2D
  8
247
 10
-31.610816662568599
 20
-9.1837804869218171
 30
0.0
 11
-33.44996342160178
 21
-8.6564103697343011
 31
0.0
  0
LINE
  5
E2E
  8
247
 10
-33.075539790020891
 20
-9.5397232204035305
 30
0.0
 11
-33.465115959671607
 21
-9.1501470507528335
 31
0.0
  0
LINE
  5
E2F
  8
247
 10
-32.178722210664262
 20
-7.713141815046809
 30
0.0
 11
-33.272898968476767
 21
-7.3993898619218026
 31
0.0
1001
ACAD
1000
ASC_BOUNDS
1002
{
1070
    19
1005
DAF
1002
}
  0
ARC
  5
E30
  8
247
 10
-32.327644085664282
 20
-6.2161447447343061
 30
0.0
 40
1.9799648437499999
 50
245.20517736984061
 51
262.79482596205219
1001
ACAD
1000
ASC_BOUNDS
1002
{
1070
    19
1005
DAF
1002
}
  0
ARC
  5
E31
  8
247
 10
-32.111345257539263
 20
-7.4781662291093038
 30
0.0
 40
0.2444446334838867
 50
254.0002730571824
 51
74.000273057182383
1001
ACAD
1000
ASC_BOUNDS
1002
{
1070
    19
1005
DAF
1002
}
  0
LINE
  5
E32
  8
247
 10
-31.610816662568599
 20
-6.8830236509843106
 30
0.0
 11
-32.798113812226767
 21
-6.542570525984301
 31
0.0
1001
ACAD
1000
ASC_BOUNDS
1002
{
1070
    19
1005
DAF
1002
}
  0
LINE
  5
E33
  8
247
 10
-32.798113812226767
 20
-7.2206906431718183
 30
0.0
 11
-32.798113812226767
 21
-6.542570525984301
 31
0.0
1001
ACAD
1000
ASC_BOUNDS
1002
{
1070
    19
1005
DAF
1002
}
  0
LINE
  5
E34
  8
247
 10
-32.565309124726781
 20
-7.2874435728593019
 30
0.0
 11
-32.798113812226767
 21
-7.2206906431718183
 31
0.0
1001
ACAD
1000
ASC_BOUNDS
1002
{
1070
    19
1005
DAF
1002
}
  0
LINE
  5
E35
  8
247
 10
-31.747372326631051
 20
-7.0195881041093013
 30
0.0
 11
-31.610816662568599
 21
-6.8830236509843106
 31
0.0
1001
ACAD
1000
ASC_BOUNDS
1002
{
1070
    19
1005
DAF
1002
}
  0
LINE
  5
E36
  8
247
 10
-32.565309124726781
 20
-7.2874435728593019
 30
0.0
 11
-32.565309124726781
 21
-7.0936974791093066
 31
0.0
1001
ACAD
1000
ASC_BOUNDS
1002
{
1070
    19
1005
DAF
1002
}
  0
LINE
  5
E37
  8
247
 10
-32.043968304414278
 20
-7.2431906431718138
 30
0.0
 11
-32.565309124726781
 21
-7.0936974791093066
 31
0.0
1001
ACAD
1000
ASC_BOUNDS
1002
{
1070
    19
1005
DAF
1002
}
  0
ARC
  5
E38
  8
247
 10
-32.483825726289268
 20
-6.2511076353593173
 30
0.0
 40
0.9894111328124999
 50
0.0
 51
194.12743649641101
1001
ACAD
1000
ASC_BOUNDS
1002
{
1070
    19
1005
DB0
1002
}
  0
ARC
  5
E39
  8
247
 10
-32.483825726289268
 20
-6.2511076353593173
 30
0.0
 40
0.9894138793945311
 50
200.8721834020736
 51
222.5419489373881
1001
ACAD
1000
ASC_BOUNDS
1002
{
1070
    19
1005
DAF
1002
}
  0
ARC
  5
E3A
  8
247
 10
-33.20551322628927
 20
-7.1644142759843117
 30
0.0
 40
0.2444448051452637
 50
91.710121382062752
 51
253.998398354447
1001
ACAD
1000
ASC_BOUNDS
1002
{
1070
    19
1005
DAF
1002
}
  0
ARC
  5
E3B
  8
241
 10
-23.11593400000001
 20
-11.077436000000001
 30
0.0
 40
8.0
 50
323.36145800000043
 51
0.0
  0
ARC
  5
E3C
  8
240
 10
-1.1973830000000021
 20
-4.0059160000000107
 30
0.0
 40
1.0
 50
314.99996600000111
 51
0.0
  0
LINE
  5
E3D
  8
241
 10
-15.83450800000003
 20
20.48149900000001
 30
0.0
 11
-0.1171550000000323
 21
4.7641649999999904
 31
0.0
  0
ARC
  5
E3E
  8
241
 10
-9.7263760000000197
 20
5.5974429999999948
 30
0.0
 40
5.0
 50
225.0
 51
280.00000000000023
  0
LINE
  5
E3F
  8
241
 10
-10.768723
 20
2.2468659999999812
 30
0.0
 11
-0.3305380000000113
 21
4.0873990000000031
 31
0.0
  0
LINE
  5
E40
  8
241
 10
-13.261910000000031
 20
2.061908999999984
 30
0.0
 11
-30.499997999999859
 21
19.29999699999987
 31
0.0
  0
LINE
  5
E41
  8
241
 10
-11.20910000000001
 20
2.3857160000000008
 30
0.0
 11
-26.790185000000012
 21
17.966799999999999
 31
0.0
  0
ARC
  5
E42
  8
241
 10
-10.855547
 20
2.7392690000000059
 30
0.0
 40
0.5
 50
225.00000200000011
 51
280.00000000000023
  0
LINE
  5
E43
  8
240
 10
-25.035896000000012
 20
22.499998999999999
 30
0.0
 11
-18.48438100000002
 21
22.499998999999999
 31
0.0
  0
LINE
  5
E44
  8
241
 10
-26.523456000000021
 20
18.812756999999969
 30
0.0
 11
-16.378806000000029
 21
20.601532999999979
 31
0.0
  0
LINE
  5
E45
  8
240
 10
-30.267946999999989
 20
19.633973999999991
 30
0.0
 11
-25.535896000000012
 21
22.366023999999999
 31
0.0
  0
ARC
  5
E46
  8
240
 10
-30.767946999999989
 20
20.499998999999999
 30
0.0
 40
1.0
 50
270.0
 51
299.9999999999996
  0
ARC
  5
E47
  8
241
 10
-26.436632000000031
 20
18.320353000000001
 30
0.0
 40
0.5
 50
100.0000000000001
 51
225.00000200000011
  0
ARC
  5
E48
  8
240
 10
-25.035896000000012
 20
21.499998999999988
 30
0.0
 40
1.0
 50
90.0
 51
120.0
  0
ARC
  5
E49
  8
241
 10
-16.187642000000022
 20
20.127527000000011
 30
0.0
 40
0.5
 50
45.00003399999887
 51
100.0000000000001
  0
LINE
  5
E4A
  8
240
 10
-18.130828000000012
 20
22.353553000000002
 30
0.0
 11
-16.378806000000029
 21
20.601532999999979
 31
0.0
  0
ARC
  5
E4B
  8
240
 10
-18.48438100000002
 20
21.999998999999999
 30
0.0
 40
0.5
 50
45.00003399999887
 51
90.0
  0
LINE
  5
E4C
  8
241
 10
-16.378806000000029
 20
20.601532999999979
 30
0.0
 11
-16.274466000000022
 21
20.619930999999969
 31
0.0
  0
LINE
  5
E4D
  8
241
 10
-8.8581360000000338
 20
0.673404000000005
 30
0.0
 11
-0.2003850000000114
 21
2.1999999999999869
 31
0.0
  0
ARC
  5
E4E
  8
241
 10
-0.3999980000000107
 20
4.4813220000000049
 30
0.0
 40
0.4
 50
280.00000000000023
 51
45.00003399999887
  0
LINE
  5
E51
  8
247
 10
-31.610816662568588
 20
-8.6767639612747018
 30
0.0
 11
-31.63000009776588
 21
-8.6575805260774157
 31
0.0
  0
LINE
  5
E52
  8
247
 10
-31.610816662568599
 20
-8.9353953375614878
 30
0.0
 11
-31.992606947870129
 21
-8.553605052259952
 31
0.0
  0
LINE
  5
E53
  8
247
 10
-31.625182153188721
 20
-9.179661223228166
 30
0.0
 11
-32.355213797974393
 21
-8.4496295784424902
 31
0.0
  0
LINE
  5
E54
  8
247
 10
-31.987790422240451
 20
-9.0756843304632255
 30
0.0
 11
-32.717820648078622
 21
-8.3456541046250532
 31
0.0
  0
LINE
  5
E55
  8
247
 10
-32.35039869129217
 20
-8.9717074376982922
 30
0.0
 11
-33.080427498182857
 21
-8.2416786308075931
 31
0.0
  0
LINE
  5
E56
  8
247
 10
-32.713006960343883
 20
-8.8677305449333659
 30
0.0
 11
-33.443034348287107
 21
-8.1377031569901401
 31
0.0
  0
LINE
  5
E57
  8
247
 10
-33.075615229395623
 20
-8.7637536521684165
 30
0.0
 11
-33.706041546601767
 21
-8.1333273349622743
 31
0.0
  0
LINE
  5
E58
  8
247
 10
-33.43822349844735
 20
-8.6597767594034831
 30
0.0
 11
-33.706041546601767
 21
-8.3919587112490746
 31
0.0
  0
LINE
  5
E59
  8
247
 10
-33.681984931261617
 20
-8.6746467028760108
 30
0.0
 11
-33.706041546601767
 21
-8.6505900875358517
 31
0.0
  0
LINE
  5
E5A
  8
247
 10
-31.731788795819568
 20
-7.0040035703029693
 30
0.0
 11
-31.950039676494711
 21
-6.7857526896278264
 31
0.0
  0
LINE
  5
E5B
  8
247
 10
-31.61434705084174
 20
-7.3800766915675942
 30
0.0
 11
-32.312647532175617
 21
-6.6817762102337133
 31
0.0
  0
LINE
  5
E5C
  8
247
 10
-31.982814271645498
 20
-7.2702408470506219
 30
0.0
 11
-32.675255387856517
 21
-6.5777997308396072
 31
0.0
  0
LINE
  5
E5D
  8
247
 10
-31.630103361307391
 20
-7.6229517573887389
 30
0.0
 11
-31.903419875480569
 21
-7.3496352432155572
 31
0.0
  0
LINE
  5
E5E
  8
247
 10
-32.358762209324411
 20
-7.1529242856585062
 30
0.0
 11
-32.798113812226767
 21
-6.7135726827561504
 31
0.0
  0
LINE
  5
E5F
  8
247
 10
-31.700741973322529
 20
-7.810944521660387
 30
0.0
 11
-31.904021339624681
 21
-7.6076651553582337
 31
0.0
  0
LINE
  5
E60
  8
247
 10
-32.565309124726781
 20
-7.2050087465429362
 30
0.0
 11
-32.798113812226767
 21
-6.9722040590429346
 31
0.0
  0
LINE
  5
E61
  8
247
 10
-31.807868684226321
 20
-7.9624491870433882
 30
0.0
 11
-32.054426176450328
 21
-7.7158916948193763
 31
0.0
  0
LINE
  5
E62
  8
247
 10
-33.397011493495647
 20
-6.6319377540608633
 30
0.0
 11
-33.421250092342262
 21
-6.6076991552142479
 31
0.0
  0
LINE
  5
E63
  8
247
 10
-31.946834366816638
 20
-8.0821148807398586
 30
0.0
 11
-32.370919412344577
 21
-7.6580298352119271
 31
0.0
  0
LINE
  5
E64
  8
247
 10
-33.332212891782547
 20
-6.9553677320607354
 30
0.0
 11
-33.617878027845272
 21
-6.6697025959980172
 31
0.0
  0
LINE
  5
E65
  8
247
 10
-32.119550061740163
 20
-8.1680305621031266
 30
0.0
 11
-32.733527621456247
 21
-7.5540530023870396
 31
0.0
  0
LINE
  5
E66
  8
247
 10
-33.442341639116933
 20
-7.1038703610131497
 30
0.0
 11
-33.616664202599608
 21
-6.929547797530474
 31
0.0
  0
LINE
  5
E67
  8
247
 10
-32.337037047630609
 20
-8.2091749524994722
 30
0.0
 11
-33.096135830567931
 21
-7.4500761695621511
 31
0.0
  0
LINE
  5
E68
  8
247
 10
-32.632315150713779
 20
-8.1725282257030951
 30
0.0
 11
-33.687044671176878
 21
-7.1177987052399967
 31
0.0
  0
LINE
  5
E69
  8
247
 10
-32.97681028741183
 20
-8.0866644652918396
 30
0.0
 11
-33.702330020211761
 21
-7.3611447324919084
 31
0.0
  0
LINE
  5
E6A
  8
247
 10
-31.32683735392137
 20
-5.8571667544804287
 30
0.0
 11
-32.089884845410381
 21
-5.0941192629914189
 31
0.0
  0
LINE
  5
E6B
  8
247
 10
-32.105928058389352
 20
-5.3367074262992338
 30
0.0
 11
-32.411608234074627
 21
-5.0310272506139517
 31
0.0
  0
LINE
  5
E6C
  8
247
 10
-31.263745341543899
 20
-6.1788901431446837
 30
0.0
 11
-31.569425517229181
 21
-5.8732099674594034
 31
0.0
  0
LINE
  5
E6D
  8
247
 10
-32.438533127660619
 20
-5.262733733314767
 30
0.0
 11
-32.659660612261511
 21
-5.0416062487138689
 31
0.0
  0
LINE
  5
E6E
  8
247
 10
-31.26160963731007
 20
-6.4396572236653062
 30
0.0
 11
-31.495451824244711
 21
-6.2058150367306704
 31
0.0
  0
LINE
  5
E6F
  8
247
 10
-32.678800510705429
 20
-5.2810977265567347
 30
0.0
 11
-32.868794989034143
 21
-5.0911032482280296
 31
0.0
  0
LINE
  5
E70
  8
247
 10
-31.26160963731007
 20
-6.6982885999520922
 30
0.0
 11
-31.49441431881856
 21
-6.465483918443601
 31
0.0
  0
LINE
  5
E71
  8
247
 10
-32.875853801644922
 20
-5.3426758119040487
 30
0.0
 11
-33.05038899938635
 21
-5.1681406141626161
 31
0.0
  0
LINE
  5
E72
  8
247
 10
-31.26160963731007
 20
-6.9569199762388907
 30
0.0
 11
-31.494414318818571
 21
-6.724115294730395
 31
0.0
  0
LINE
  5
E73
  8
247
 10
-33.042584467615761
 20
-5.4345765222199898
 30
0.0
 11
-33.209512010565213
 21
-5.267648979270545
 31
0.0
  0
LINE
  5
E74
  8
247
 10
-31.26160963731007
 20
-7.2155513525256847
 30
0.0
 11
-31.494414318818571
 21
-6.9827466710171811
 31
0.0
  0
LINE
  5
E75
  8
247
 10
-33.183874418081878
 20
-5.5519179480406597
 30
0.0
 11
-33.348492216417242
 21
-5.3873001497052959
 31
0.0
  0
LINE
  5
E76
  8
247
 10
-31.26160963731007
 20
-7.4741827288124716
 30
0.0
 11
-31.49441431881856
 21
-7.2413780473039733
 31
0.0
  0
LINE
  5
E77
  8
247
 10
-33.301054284061038
 20
-5.6933694583483003
 30
0.0
 11
-33.468013390616392
 21
-5.5264103517929462
 31
0.0
  0
LINE
  5
E78
  8
247
 10
-31.26160963731007
 20
-7.7328141050992638
 30
0.0
 11
-31.494414318818571
 21
-7.5000094235907691
 31
0.0
  0
LINE
  5
E79
  8
247
 10
-33.392774792184639
 20
-5.8602803265114849
 30
0.0
 11
-33.567382339750203
 21
-5.6856727789459276
 31
0.0
  0
LINE
  5
E7A
  8
247
 10
-31.26160963731007
 20
-7.9914454813860578
 30
0.0
 11
-31.494414318818571
 21
-7.7586407998775524
 31
0.0
  0
LINE
  5
E7B
  8
247
 10
-33.454122250794697
 20
-6.05756424418822
 30
0.0
 11
-33.644257600674031
 21
-5.867428894308893
 31
0.0
  0
LINE
  5
E7C
  8
247
 10
-31.26160963731007
 20
-8.2500768576728447
 30
0.0
 11
-31.494414318818571
 21
-8.0172721761643455
 31
0.0
  0
LINE
  5
E7D
  8
247
 10
-33.472115393094221
 20
-6.2982024781754946
 30
0.0
 11
-33.69354434260655
 21
-6.0767735286631597
 31
0.0
  0
LINE
  5
E7E
  8
247
 10
-31.26160963731007
 20
-8.5087082339596432
 30
0.0
 11
-31.494414318818571
 21
-8.2759035524511386
 31
0.0
  0
LINE
  5
E7F
  8
247
 10
-33.514042876251523
 20
-6.5149063713049866
 30
0.0
 11
-33.70379656286336
 21
-6.3251526846931432
 31
0.0
  0
LINE
  5
E80
  8
247
 10
-31.26160963731007
 20
-8.767339610246438
 30
0.0
 11
-31.49441431881856
 21
-8.5345349287379406
 31
0.0
  0
LINE
  5
E81
  8
247
 10
-31.26160963731007
 20
-9.0259709865332223
 30
0.0
 11
-31.49441431881856
 21
-8.7931663050247266
 31
0.0
  0
LINE
  5
E82
  8
247
 10
-31.26160963731007
 20
-9.2846023628200172
 30
0.0
 11
-31.494414318818571
 21
-9.0517976813115144
 31
0.0
  0
LINE
  5
E83
  8
247
 10
-31.26160963731007
 20
-9.5432337391068103
 30
0.0
 11
-31.494414318818571
 21
-9.3104290575983022
 31
0.0
  0
LINE
  5
E84
  8
247
 10
-31.26160963731007
 20
-9.8018651153935998
 30
0.0
 11
-31.494414318818571
 21
-9.5690604338850989
 31
0.0
  0
LINE
  5
E85
  8
247
 10
-31.26160963731007
 20
-10.060496491680389
 30
0.0
 11
-31.494414318818571
 21
-9.8276918101718902
 31
0.0
  0
LINE
  5
E86
  8
247
 10
-31.26160963731007
 20
-10.31912786796717
 30
0.0
 11
-31.49441431881856
 21
-10.086323186458671
 31
0.0
  0
LINE
  5
E87
  8
247
 10
-31.26160963731007
 20
-10.57775924425397
 30
0.0
 11
-31.494414318818571
 21
-10.344954562745469
 31
0.0
  0
LINE
  5
E88
  8
247
 10
-31.26160963731007
 20
-10.83639062054076
 30
0.0
 11
-31.494414318818571
 21
-10.603585939032261
 31
0.0
  0
LINE
  5
E89
  8
247
 10
-31.266825631993729
 20
-11.08980600214389
 30
0.0
 11
-31.494414318818571
 21
-10.86221731531904
 31
0.0
  0
LINE
  5
E8A
  8
247
 10
-31.307276531652619
 20
-11.307986478771801
 30
0.0
 11
-31.503617371987499
 21
-11.11164563843691
 31
0.0
  0
LINE
  5
E8B
  8
247
 10
-31.377469927744929
 20
-11.496424458966271
 30
0.0
 11
-31.555262028239
 21
-11.318632358472209
 31
0.0
  0
LINE
  5
E8C
  8
247
 10
-31.471165654297579
 20
-11.66136010870042
 30
0.0
 11
-31.639581164064541
 21
-11.492944598933461
 31
0.0
  0
LINE
  5
E8D
  8
247
 10
-31.585450452155431
 20
-11.80570668712936
 30
0.0
 11
-31.75023372282455
 21
-11.64092341646024
 31
0.0
  0
LINE
  5
E8E
  8
247
 10
-31.71924290282973
 20
-11.93054561274184
 30
0.0
 11
-31.88508952948013
 21
-11.764698986091441
 31
0.0
  0
LINE
  5
E8F
  8
247
 10
-31.87285680225472
 20
-12.03556308960364
 30
0.0
 11
-32.044755170479831
 21
-11.86366472137853
 31
0.0
  0
LINE
  5
E90
  8
247
 10
-33.473236859101767
 20
-10.6938144090434
 30
0.0
 11
-33.65664530391772
 21
-10.51040596422744
 31
0.0
  0
LINE
  5
E91
  8
247
 10
-32.048121745638312
 20
-12.118929522506861
 30
0.0
 11
-32.232959258586298
 21
-11.93409200955886
 31
0.0
  0
LINE
  5
E92
  8
247
 10
-33.473236859101767
 20
-10.95244578533018
 30
0.0
 11
-33.706041546601767
 21
-10.719641097830189
 31
0.0
  0
LINE
  5
E93
  8
247
 10
-32.249187925145151
 20
-12.17649471928681
 30
0.0
 11
-32.459556301910979
 21
-11.966126342520971
 31
0.0
  0
LINE
  5
E94
  8
247
 10
-33.435039765931712
 20
-11.24927425478705
 30
0.0
 11
-33.706040896903779
 21
-10.97827312381496
 31
0.0
  0
LINE
  5
E95
  8
247
 10
-32.48508594130746
 20
-12.1992280794113
 30
0.0
 11
-32.756087072279527
 21
-11.92822694843923
 31
0.0
  0
LINE
  5
E96
  8
247
 10
-32.780193103107663
 20
-12.16275229389788
 30
0.0
 11
-33.669565111390369
 21
-11.27338028561517
 31
0.0
  0
VIEWPORT
  5
22
 67
     1
  8
0
 10
261.51769911504419
 20
148.5
 30
0.0
 40
523.0353982300885
 41
297.0
 68
     1
 69
     1
1001
ACAD
1000
MVIEW
1002
{
1070
    16
1010
0.0
1020
0.0
1030
0.0
1010
0.0
1020
0.0
1030
1.0
1040
0.0
1040
297.0
1040
261.51769911504419
1040
148.5
1040
50.0
1040
0.0
1040
0.0
1070
     0
1070
   100
1070
     1
1070
     1
1070
     0
1070
     0
1070
     0
1070
     0
1040
0.0
1040
0.0
1040
0.0
1040
1.0
1040
1.0
1040
10.0
1040
10.0
1070
     0
1002
{
1002
}
1002
}
1001
GENIUS_GENOBJ-N-SDF_13
1002
{
1000
OWNER
1000
GEN
1002
}
1001
GENIUS_GENODEF_13
1002
{
1000
HIER
1070
     0
1002
}
1002
{
1000
MANEDIT
1070
     0
1002
}
1002
{
1000
NOSEL
1070
     0
1002
}
1002
{
1000
BEHIND
1070
     0
1002
}
1002
{
1000
OTHER
1070
     0
1002
}
1002
{
1000
REACTOR
1002
}
1001
GENIUS_GENSCREG_15
1000
PF
1040
1.0
1000
DF
1040
1.0
1000
MIN
1011
0.0
1021
0.0
1031
0.0
1021
0.0
1031
0.0
1000
MAX
1011
523.0353982300885
1021
0.0
1031
0.0
1021
297.0
1031
0.0
1000
FLAGS
1070
     4
  0
ENDSEC
  0
EOF
