  0
SECTION
  2
HEADER
  9
$ACADVER
  1
AC1009
  9
$INSBASE
 10
0.0
 20
0.0
 30
0.0
  9
$EXTMIN
 10
-5.0192470000000071
 20
-23.5
 30
0.0
  9
$EXTMAX
 10
172.0912431256867876
 20
47.0
 30
0.0
  9
$LIMMIN
 10
0.0
 20
0.0
  9
$LIMMAX
 10
297.0
 20
210.0
  9
$ORTHOMODE
 70
     1
  9
$REGENMODE
 70
     1
  9
$FILLMODE
 70
     1
  9
$QTEXTMODE
 70
     0
  9
$MIRRTEXT
 70
     1
  9
$DRAGMODE
 70
     2
  9
$LTSCALE
 40
10.0
  9
$OSMODE
 70
   807
  9
$ATTMODE
 70
     1
  9
$TEXTSIZE
 40
3.0
  9
$TRACEWID
 40
1.0
  9
$TEXTSTYLE
  7
YOKO
  9
$CLAYER
  8
240
  9
$CELTYPE
  6
BYLAYER
  9
$CECOLOR
 62
   256
  9
$DIMSCALE
 40
1.0
  9
$DIMASZ
 40
2.2299999999999991
  9
$DIMEXO
 40
0.5
  9
$DIMDLI
 40
2.5
  9
$DIMRND
 40
0.0
  9
$DIMDLE
 40
0.0
  9
$DIMEXE
 40
1.0
  9
$DIMTP
 40
0.0
  9
$DIMTM
 40
0.0
  9
$DIMTXT
 40
3.0
  9
$DIMCEN
 40
0.0
  9
$DIMTSZ
 40
0.0
  9
$DIMTOL
 70
     0
  9
$DIMLIM
 70
     0
  9
$DIMTIH
 70
     0
  9
$DIMTOH
 70
     0
  9
$DIMSE1
 70
     0
  9
$DIMSE2
 70
     0
  9
$DIMTAD
 70
     3
  9
$DIMZIN
 70
     8
  9
$DIMBLK
  1
OPEN
  9
$DIMASO
 70
     1
  9
$DIMSHO
 70
     1
  9
$DIMPOST
  1

  9
$DIMAPOST
  1

  9
$DIMALT
 70
     0
  9
$DIMALTD
 70
     2
  9
$DIMALTF
 40
25.3999999999999986
  9
$DIMLFAC
 40
1.0
  9
$DIMTOFL
 70
     1
  9
$DIMTVP
 40
0.0
  9
$DIMTIX
 70
     0
  9
$DIMSOXD
 70
     0
  9
$DIMSAH
 70
     1
  9
$DIMBLK1
  1

  9
$DIMBLK2
  1

  9
$DIMSTYLE
  2
BIGT
  9
$DIMCLRD
 70
   256
  9
$DIMCLRE
 70
   256
  9
$DIMCLRT
 70
    40
  9
$DIMTFAC
 40
1.0
  9
$DIMGAP
 40
1.0
  9
$LUNITS
 70
     2
  9
$LUPREC
 70
     2
  9
$SKETCHINC
 40
1.0
  9
$FILLETRAD
 40
0.0
  9
$AUNITS
 70
     0
  9
$AUPREC
 70
     3
  9
$MENU
  1
.
  9
$ELEVATION
 40
0.0
  9
$PELEVATION
 40
0.0
  9
$THICKNESS
 40
0.0
  9
$LIMCHECK
 70
     0
  9
$BLIPMODE
 70
     0
  9
$CHAMFERA
 40
10.0
  9
$CHAMFERB
 40
10.0
  9
$SKPOLY
 70
     0
  9
$TDCREATE
 40
2452226.6841898150742054
  9
$TDUPDATE
 40
2458292.663541667163372
  9
$TDINDWG
 40
0.102091088
  9
$TDUSRTIMER
 40
0.1020908912
  9
$USRTIMER
 70
     1
  9
$ANGBASE
 50
0.0
  9
$ANGDIR
 70
     0
  9
$PDMODE
 70
    35
  9
$PDSIZE
 40
-5.0
  9
$PLINEWID
 40
0.0
  9
$COORDS
 70
     1
  9
$SPLFRAME
 70
     0
  9
$SPLINETYPE
 70
     6
  9
$SPLINESEGS
 70
     8
  9
$ATTDIA
 70
     1
  9
$ATTREQ
 70
     1
  9
$HANDLING
 70
     1
  9
$HANDSEED
  5
2774
  9
$SURFTAB1
 70
     6
  9
$SURFTAB2
 70
     6
  9
$SURFTYPE
 70
     6
  9
$SURFU
 70
     6
  9
$SURFV
 70
     6
  9
$UCSNAME
  2

  9
$UCSORG
 10
0.0
 20
0.0
 30
0.0
  9
$UCSXDIR
 10
1.0
 20
0.0
 30
0.0
  9
$UCSYDIR
 10
0.0
 20
1.0
 30
0.0
  9
$PUCSNAME
  2

  9
$PUCSORG
 10
0.0
 20
0.0
 30
0.0
  9
$PUCSXDIR
 10
1.0
 20
0.0
 30
0.0
  9
$PUCSYDIR
 10
0.0
 20
1.0
 30
0.0
  9
$USERI1
 70
     1
  9
$USERI2
 70
     0
  9
$USERI3
 70
     0
  9
$USERI4
 70
     0
  9
$USERI5
 70
     0
  9
$USERR1
 40
0.0
  9
$USERR2
 40
0.0
  9
$USERR3
 40
0.0
  9
$USERR4
 40
0.0
  9
$USERR5
 40
0.0
  9
$WORLDVIEW
 70
     1
  9
$SHADEDGE
 70
     3
  9
$SHADEDIF
 70
    70
  9
$TILEMODE
 70
     1
  9
$MAXACTVP
 70
    16
  9
$PLIMCHECK
 70
     0
  9
$PEXTMIN
 10
1.0000000000000000E+20
 20
1.0000000000000000E+20
 30
1.0000000000000000E+20
  9
$PEXTMAX
 10
-1.0000000000000000E+20
 20
-1.0000000000000000E+20
 30
-1.0000000000000000E+20
  9
$PLIMMIN
 10
0.0
 20
0.0
  9
$PLIMMAX
 10
420.0
 20
297.0
  9
$UNITMODE
 70
     0
  9
$VISRETAIN
 70
     0
  9
$PLINEGEN
 70
     0
  9
$PSLTSCALE
 70
     1
  0
ENDSEC
  0
SECTION
  2
TABLES
  0
TABLE
  2
VPORT
 70
     1
  0
VPORT
  2
*ACTIVE
 70
     0
 10
0.0
 20
0.0
 11
1.0
 21
1.0
 12
117.7900670970391985
 22
13.2572311473581106
 13
0.0
 23
0.0
 14
7.0
 24
7.0
 15
7.0
 25
7.0
 16
0.0
 26
0.0
 36
1.0
 17
0.0
 27
0.0
 37
0.0
 40
147.3757085356446908
 41
1.887387387387387
 42
50.0
 43
0.0
 44
0.0
 50
0.0
 51
0.0
 71
     0
 72
  2000
 73
     1
 74
     0
 75
     1
 76
     1
 77
     0
 78
     0
  0
ENDTAB
  0
TABLE
  2
LTYPE
 70
    19
  0
LTYPE
  2
CONTINUOUS
 70
     0
  3
Solid line
 72
    65
 73
     0
 40
0.0
  0
LTYPE
  2
CENTER2
 70
     0
  3
___ _ ___ _ ___ _ ___ _ ___ _ ___ _ ___ _ ___ _
 72
    65
 73
     4
 40
1.125
 49
0.75
 49
-0.125
 49
0.125
 49
-0.125
  0
LTYPE
  2
HIDDEN2
 70
     0
  3
_ _ _ _ _ _ _ _ _ _ _ _ _ _ _ _ _ _ _ _ _ _ _ _
 72
    65
 73
     2
 40
0.1875
 49
0.125
 49
-0.0625
  0
LTYPE
  2
HIDDEN
 70
     0
  3
Hidden __ __ __ __ __ __ __ __ __ __ __ __ __ _
 72
    65
 73
     2
 40
9.5249999999999986
 49
6.349999999999997
 49
-3.174999999999998
  0
LTYPE
  2
PHANTOM2
 70
     0
  3
Phantom (.5x) ___ _ _ ___ _ _ ___ _ _ ___ _ _
 72
    65
 73
     6
 40
31.75
 49
15.875
 49
-3.174999999999998
 49
3.174999999999998
 49
-3.174999999999998
 49
3.174999999999998
 49
-3.174999999999998
  0
LTYPE
  2
CENTER
 70
     0
  3
Center ____ _ ____ _ ____ _ ____ _ ____ _ ____
 72
    65
 73
     4
 40
50.7999999999999972
 49
31.75
 49
-6.349999999999997
 49
6.349999999999997
 49
-6.349999999999997
  0
LTYPE
  2
AMCONSTR
 70
     0
  3
_______________________
 72
    65
 73
     2
 40
9999.0
 49
9999.0
 49
0.0
  0
LTYPE
  2
AMZIGZAG2
 70
     0
  3
/\/-/\/-/\/-/\/-/\/-/\/
 72
    65
 73
     2
 40
0.4401
 49
0.0001
 49
-0.4400000000000003
  0
LTYPE
  2
ACANSTGB
 70
     0
  3
__ . . __ . .
 72
    65
 73
     6
 40
0.35433070866
 49
0.15748031496
 49
-0.03937007874
 49
0.03937007874
 49
-0.03937007874
 49
0.03937007874
 49
-0.03937007874
  0
LTYPE
  2
ACANSTGL
 70
     0
  3
_ _ _ _ _
 72
    65
 73
     2
 40
0.11811023622
 49
0.07874015748
 49
-0.03937007874
  0
ENDTAB
  0
TABLE
  2
LAYER
 70
     9
  0
LAYER
  2
0
 70
     0
 62
     7
  6
CONTINUOUS
  0
LAYER
  2
240
 70
     0
 62
     4
  6
CONTINUOUS
  0
LAYER
  2
241
 70
     0
 62
   211
  6
CONTINUOUS
  0
LAYER
  2
242
 70
     0
 62
     3
  6
CONTINUOUS
  0
LAYER
  2
243
 70
     0
 62
   211
  6
HIDDEN2
  0
LAYER
  2
245
 70
     0
 62
     2
  6
CENTER2
  0
LAYER
  2
247
 70
     0
 62
    60
  6
CONTINUOUS
  0
LAYER
  2
250
 70
     0
 62
     3
  6
CONTINUOUS
  0
LAYER
  2
DEFPOINTS
 70
     0
 62
     7
  6
CONTINUOUS
  0
ENDTAB
  0
TABLE
  2
STYLE
 70
     8
  0
STYLE
  2
STANDARD
 70
     0
 40
0.0
 41
1.0
 50
0.0
 71
     0
 42
3.0
  3
romans.shx
  4
BIGFONT.SHX
  0
STYLE
  2
YOKO
 70
     0
 40
0.0
 41
1.0
 50
0.0
 71
     0
 42
3.0
  3
romans.shx
  4
extfont.shx
  0
STYLE
  2
ACANSGDT
 70
     0
 40
0.0
 41
1.0
 50
0.0
 71
     0
 42
3.0
  3
amgdt.shx
  4

  0
STYLE
  2
ACJISTS
 70
     0
 40
1.0
 41
1.0
 50
0.0
 71
     0
 42
3.0
  3
amgdt.shx
  4
extfont.shx
  0
ENDTAB
  0
TABLE
  2
VIEW
 70
     0
  0
ENDTAB
  0
TABLE
  2
UCS
 70
     0
  0
ENDTAB
  0
TABLE
  2
APPID
 70
    27
  0
APPID
  2
ACAD
 70
     0
  0
APPID
  2
ACADANNOTATIVE
 70
     0
  0
APPID
  2
GLOBAL
 70
     0
  0
APPID
  2
DETAIL
 70
     0
  0
APPID
  2
GRPNAME
 70
     0
  0
APPID
  2
GPARA
 70
     0
  0
APPID
  2
HATCH_TYPE
 70
     0
  0
APPID
  2
HATCH_DISPLAY
 70
     0
  0
APPID
  2
HATCH_DISTANCE
 70
     0
  0
APPID
  2
ITEMNAME
 70
     0
  0
APPID
  2
MCAD_NO_VIS
 70
     0
  0
APPID
  2
ACAD_TEMP_GRAPHIC
 70
     0
  0
APPID
  2
AD_DRAW
 70
     0
  0
APPID
  2
ACATTRIBSERVICES
 70
     0
  0
APPID
  2
DESIGNERASSEMBLIES
 70
     0
  0
APPID
  2
ACADM_DIM_EDIT
 70
     0
  0
APPID
  2
AMDT_DM_ADJ
 70
     0
  0
APPID
  2
GENIUS_GENSCREG_15
 70
     0
  0
APPID
  2
GENIUS_GENOBJ-N-SDF_13
 70
     0
  0
APPID
  2
GENIUS_GENODEF_13
 70
     0
  0
APPID
  2
ACAD_DSTYLE_DIMBREAK
 70
     0
  0
APPID
  2
ACAD_DSTYLE_DIMJAG
 70
     0
  0
APPID
  2
ACAD_NAV_VCDISPLAY
 70
     0
  0
APPID
  2
ACAECLAYERSTANDARD
 70
     0
  0
APPID
  2
GENIUS_GENOBJ-N-FIL_13
 70
     0
  0
APPID
  2
ACAD_MLEADERVER
 70
     0
  0
APPID
  2
ACAD_EXEMPT_FROM_CAD_STANDARDS
 70
     0
  0
ENDTAB
  0
TABLE
  2
DIMSTYLE
 70
    17
  0
DIMSTYLE
  2
STANDARD
 70
     0
  3

  4

  5

  6

  7

 40
1.0
 41
0.18
 42
0.0625
 43
0.38
 44
0.18
 45
0.0
 46
0.0
 47
0.0
 48
0.0
140
0.18
141
0.09
142
0.0
143
25.3999999999999986
144
1.0
145
0.0
146
1.0
147
0.09
 71
     0
 72
     0
 73
     1
 74
     1
 75
     0
 76
     0
 77
     0
 78
     0
170
     0
171
     2
172
     0
173
     0
174
     0
175
     0
176
     0
177
     0
178
     0
  0
DIMSTYLE
  2
BIGT
 70
     0
  3

  4

  5

  6

  7

 40
1.0
 41
2.2299999999999991
 42
0.5
 43
2.5
 44
1.0
 45
0.0
 46
0.0
 47
0.0
 48
0.0
140
3.5
141
0.0
142
0.0
143
25.3999999999999986
144
1.0
145
0.0
146
1.0
147
1.0
 71
     0
 72
     0
 73
     0
 74
     0
 75
     0
 76
     0
 77
     3
 78
     9
170
     0
171
     2
172
     1
173
     0
174
     0
175
     0
176
   256
177
   256
178
    40
  0
DIMSTYLE
  2
AM_ANSI
 70
     0
  3

  4
mm
  5

  6

  7

 40
1.0
 41
0.1
 42
0.05
 43
0.5
 44
0.1
 45
0.0
 46
0.0
 47
0.1
 48
0.1
140
0.12
141
0.0
142
0.0
143
25.3999999999999986
144
1.0
145
0.0
146
0.71
147
0.06
 71
     0
 72
     0
 73
     1
 74
     1
 75
     0
 76
     0
 77
     0
 78
     7
170
     0
171
     2
172
     0
173
     0
174
     0
175
     0
176
   256
177
   256
178
     2
  0
DIMSTYLE
  2
AM_ANSI$3
 70
     0
  3

  4
mm
  5

  6

  7

 40
1.0
 41
0.1
 42
0.05
 43
0.5
 44
0.1
 45
0.0
 46
0.0
 47
0.1
 48
0.1
140
0.12
141
0.0
142
0.0
143
25.3999999999999986
144
1.0
145
0.0
146
0.71
147
0.06
 71
     0
 72
     0
 73
     1
 74
     1
 75
     0
 76
     0
 77
     0
 78
     7
170
     0
171
     2
172
     0
173
     0
174
     0
175
     0
176
   256
177
   256
178
     2
  0
DIMSTYLE
  2
AM_ANSI$4
 70
     0
  3

  4
mm
  5

  6

  7

 40
1.0
 41
0.1
 42
0.05
 43
0.5
 44
0.1
 45
0.0
 46
0.0
 47
0.1
 48
0.1
140
0.12
141
0.0
142
0.0
143
25.3999999999999986
144
1.0
145
0.0
146
0.71
147
0.06
 71
     0
 72
     0
 73
     1
 74
     1
 75
     0
 76
     0
 77
     0
 78
     7
170
     0
171
     2
172
     0
173
     0
174
     0
175
     0
176
   256
177
   256
178
     2
  0
DIMSTYLE
  2
AM_ANSI$7
 70
     0
  3

  4
mm
  5

  6

  7

 40
1.0
 41
0.1
 42
0.05
 43
0.5
 44
0.1
 45
0.0
 46
0.0
 47
0.1
 48
0.1
140
0.24
141
0.0
142
0.0
143
25.3999999999999986
144
1.0
145
0.0
146
0.71
147
0.06
 71
     0
 72
     0
 73
     1
 74
     1
 75
     0
 76
     0
 77
     0
 78
     7
170
     0
171
     2
172
     0
173
     0
174
     0
175
     0
176
   256
177
   256
178
     2
  0
DIMSTYLE
  2
AM_ANSI$SF
 70
     0
  3

  4
mm
  5

  6

  7

 40
1.0
 41
0.1
 42
0.05
 43
0.5
 44
0.1
 45
0.0
 46
0.0
 47
0.1
 48
0.1
140
0.12
141
0.0
142
0.0
143
25.3999999999999986
144
1.0
145
0.0
146
0.71
147
0.06
 71
     0
 72
     0
 73
     1
 74
     1
 75
     1
 76
     1
 77
     0
 78
     7
170
     0
171
     2
172
     0
173
     0
174
     0
175
     0
176
   256
177
   256
178
     2
  0
DIMSTYLE
  2
AM_ANSI$SH
 70
     0
  3

  4
mm
  5

  6

  7

 40
1.0
 41
0.1
 42
0.05
 43
0.5
 44
0.1
 45
0.0
 46
0.0
 47
0.1
 48
0.1
140
0.12
141
0.0
142
0.0
143
25.3999999999999986
144
1.0
145
0.0
146
0.71
147
0.06
 71
     0
 72
     0
 73
     1
 74
     1
 75
     1
 76
     1
 77
     0
 78
     7
170
     0
171
     2
172
     0
173
     1
174
     0
175
     0
176
   256
177
   256
178
     2
  0
ENDTAB
  0
ENDSEC
  0
SECTION
  2
BLOCKS
  0
BLOCK
  8
0
  2
$MODEL_SPACE
 70
     0
 10
0.0
 20
0.0
 30
0.0
  3
$MODEL_SPACE
  1

  0
ENDBLK
  5
2658
  8
0
  0
BLOCK
 67
     1
  8
0
  2
$PAPER_SPACE
 70
     0
 10
0.0
 20
0.0
 30
0.0
  3
$PAPER_SPACE
  1

  0
ENDBLK
  5
2654
 67
     1
  8
0
  0
BLOCK
  8
0
  2
_OPEN
 70
     0
 10
0.0
 20
0.0
 30
0.0
  3
_OPEN
  1

  0
LINE
  5
595
  8
0
  6
BYBLOCK
 62
     0
 10
-1.0
 20
0.1666666666666666
 30
0.0
 11
0.0
 21
0.0
 31
0.0
  0
LINE
  5
596
  8
0
  6
BYBLOCK
 62
     0
 10
-1.0
 20
-0.1666666666666666
 30
0.0
 11
0.0
 21
0.0
 31
0.0
  0
LINE
  5
597
  8
0
  6
BYBLOCK
 62
     0
 10
0.0
 20
0.0
 30
0.0
 11
-1.0
 21
0.0
 31
0.0
  0
ENDBLK
  5
599
  8
0
  0
BLOCK
  8
0
  2
_ACMFILLEDHALF
 70
     0
 10
0.0
 20
0.0
 30
0.0
  3
_ACMFILLEDHALF
  1

  0
TRACE
  5
24D7
  8
240
 62
     0
 10
-0.8
 20
0.0
 30
0.0
 11
-1.0
 21
0.166666666
 31
0.0
 12
0.0
 22
0.0
 32
0.0
 13
0.0
 23
0.0
 33
0.0
  0
LINE
  5
24D8
  8
240
 62
     0
 10
-1.0
 20
0.0
 30
0.0
 11
-0.8
 21
0.0
 31
0.0
  0
ENDBLK
  5
24D6
  8
0
  0
ENDSEC
  0
SECTION
  2
ENTITIES
  0
TEXT
  5
2000
  8
241
  6
CONTINUOUS
 10
0.0
 20
42.0
 30
0.0
 40
5.0
  1
ST24W-CKB2-160
  7
YOKO
 11
0.0
 21
42.0
 31
0.0
 73
     1
  0
LINE
  5
21AF
  8
250
  6
CONTINUOUS
 10
0.0
 20
12.3678734408688893
 30
0.0
 11
0.0
 21
29.0
 31
0.0
  0
LINE
  5
21B0
  8
250
  6
CONTINUOUS
 10
160.0
 20
12.3678734408688893
 30
0.0
 11
160.0
 21
29.0
 31
0.0
  0
LINE
  5
21B1
  8
250
  6
CONTINUOUS
 10
2.229999999999988
 20
28.0
 30
0.0
 11
157.7700000000000102
 21
28.0
 31
0.0
  0
TEXT
  5
21B5
  8
250
  6
CONTINUOUS
 10
75.4999999999999858
 20
29.0
 30
0.0
 40
3.0
  1
160
1001
ACAD
1000
MTEXTBEGIN
1070
    73
1070
     1
1070
    44
1040
1.0
1070
    74
1070
     0
1000
MTEXTEND
  0
LINE
  5
21B6
  8
250
  6
CONTINUOUS
 10
157.7700000000000102
 20
28.371666666666659
 30
0.0
 11
160.0
 21
28.0
 31
0.0
  0
LINE
  5
21B7
  8
250
  6
CONTINUOUS
 10
157.7700000000000102
 20
27.6283333333333303
 30
0.0
 11
160.0
 21
28.0
 31
0.0
  0
LINE
  5
21B8
  8
250
  6
CONTINUOUS
 10
160.0
 20
28.0
 30
0.0
 11
157.7700000000000102
 21
28.0
 31
0.0
  0
LINE
  5
21B9
  8
250
  6
CONTINUOUS
 10
2.229999999999988
 20
27.6283333333333303
 30
0.0
 11
0.0
 21
28.0
 31
0.0
  0
LINE
  5
21BA
  8
250
  6
CONTINUOUS
 10
2.229999999999988
 20
28.371666666666659
 30
0.0
 11
0.0
 21
28.0
 31
0.0
  0
LINE
  5
21BB
  8
250
  6
CONTINUOUS
 10
0.0
 20
28.0
 30
0.0
 11
2.229999999999988
 21
28.0
 31
0.0
  0
LINE
  5
233E
  8
240
  6
CONTINUOUS
 10
0.0
 20
-12.0
 30
0.0
 11
160.0
 21
-12.0
 31
0.0
  0
LINE
  5
233F
  8
245
  6
CENTER2
 10
-5.0192470000000071
 20
0.0
 30
0.0
 11
165.8578671418503063
 21
0.0
 31
0.0
  0
LINE
  5
2340
  8
240
  6
CONTINUOUS
 10
0.0
 20
12.0
 30
0.0
 11
160.0
 21
12.0
 31
0.0
  0
LINE
  5
2342
  8
240
  6
CONTINUOUS
 10
0.0
 20
-12.0
 30
0.0
 11
0.0
 21
12.0
 31
0.0
  0
CIRCLE
  5
23AA
  8
241
  6
CONTINUOUS
 10
153.5
 20
0.0
 30
0.0
 40
2.5
  0
CIRCLE
  5
23AB
  8
242
  6
CONTINUOUS
 10
153.5
 20
0.0
 30
0.0
 40
2.25
  0
LINE
  5
23AC
  8
245
  6
CENTER2
 10
153.5
 20
-2.8345600000000082
 30
0.0
 11
153.5
 21
2.913297
 31
0.0
  0
LINE
  5
23AD
  8
240
  6
CONTINUOUS
 10
160.0
 20
-12.0
 30
0.0
 11
160.0
 21
12.0
 31
0.0
  0
LINE
  5
23B1
  8
241
  6
CONTINUOUS
 10
154.75
 20
0.7216869999999747
 30
0.0
 11
153.5
 21
1.443375000000003
 31
0.0
  0
LINE
  5
23B2
  8
241
  6
CONTINUOUS
 10
153.5
 20
-1.4433759999999991
 30
0.0
 11
154.75
 21
-0.7216880000000288
 31
0.0
  0
LINE
  5
23B3
  8
243
  6
HIDDEN2
 10
146.25
 20
-7.0
 30
0.0
 11
160.0
 21
-7.0
 31
0.0
  0
LINE
  5
23B4
  8
241
  6
CONTINUOUS
 10
152.25
 20
0.7216869999999747
 30
0.0
 11
153.5
 21
1.443375000000003
 31
0.0
  0
LINE
  5
23B5
  8
241
  6
CONTINUOUS
 10
153.5
 20
-1.4433759999999991
 30
0.0
 11
152.25
 21
-0.7216880000000288
 31
0.0
  0
LINE
  5
23B6
  8
241
  6
CONTINUOUS
 10
152.25
 20
0.7216869999999747
 30
0.0
 11
152.25
 21
-0.7216880000000288
 31
0.0
  0
LINE
  5
23B7
  8
241
  6
CONTINUOUS
 10
154.75
 20
0.7216869999999747
 30
0.0
 11
154.75
 21
-0.7216880000000288
 31
0.0
  0
LINE
  5
23B9
  8
243
  6
HIDDEN2
 10
146.25
 20
7.0
 30
0.0
 11
160.0
 21
7.0
 31
0.0
  0
LINE
  5
2566
  8
250
  6
CONTINUOUS
 10
21.6826512064317001
 20
-23.5
 30
0.0
 11
2.111222635003088
 21
-23.5
 31
0.0
1001
ITEMNAME
1000
LNSP2
  0
TEXT
  5
2567
  8
250
  6
CONTINUOUS
 10
4.682651206431812
 20
-22.5
 30
0.0
 40
3.0
  1
ST24W
  7
YOKO
1001
ITEMNAME
1000
LNSP3
1001
ACAD
1000
MTEXTBEGIN
1070
    73
1070
     1
1070
    44
1040
1.0
1070
    74
1070
     0
1000
MTEXTEND
  0
LINE
  5
2568
  8
250
  6
CONTINUOUS
 10
27.2071793021124009
 20
-13.9312366504393008
 30
0.0
 11
21.6826512064317001
 21
-23.5
 31
0.0
1001
ACAD
1000
DSTYLE
1002
{
1070
     6
1000
OPEN
1070
    78
1070
     8
1070
   140
1040
3.0
1070
   173
1070
     1
1002
}
  0
LINE
  5
2569
  8
250
  6
CONTINUOUS
 10
26.8853065270392086
 20
-13.7454033171059695
 30
0.0
 11
28.3221793021123993
 21
-12.0
 31
0.0
  0
LINE
  5
256A
  8
250
  6
CONTINUOUS
 10
27.5290520771855789
 20
-14.1170699837726392
 30
0.0
 11
28.3221793021123993
 21
-12.0
 31
0.0
  0
LINE
  5
256B
  8
250
  6
CONTINUOUS
 10
28.3221793021123993
 20
-12.0
 30
0.0
 11
27.2071793021124009
 21
-13.9312366504393008
 31
0.0
  0
LINE
  5
256C
  8
250
  6
CONTINUOUS
 10
172.0912431256867876
 20
22.8700352557293591
 30
0.0
 11
161.8245764590201077
 21
22.8700352557293591
 31
0.0
  0
LINE
  5
256D
  8
250
  6
CONTINUOUS
 10
161.8245764590201077
 20
22.8700352557293591
 30
0.0
 11
153.0739906115942119
 21
13.6199780769107992
 31
0.0
  0
LINE
  5
256E
  8
250
  6
CONTINUOUS
 10
153.0739906115942119
 20
13.6199780769107992
 30
0.0
 11
151.5414857893088083
 21
12.0
 31
0.0
  0
LINE
  5
256F
  8
250
  6
CONTINUOUS
 10
152.8607164526837039
 20
13.8217361634292502
 30
0.0
 11
151.5414857893088083
 21
12.0
 31
0.0
  0
LINE
  5
2570
  8
250
  6
CONTINUOUS
 10
151.5414857893088083
 20
12.0
 30
0.0
 11
153.2872647705048053
 21
13.4182199903923998
 31
0.0
  0
TEXT
  5
2571
  8
250
  6
CONTINUOUS
 10
164.2245764590201134
 20
24.27003525572934
 30
0.0
 40
2.799999999999998
  1
CK2
  7
ACJISTS
  0
LINE
  5
2572
  8
247
  6
CONTINUOUS
 10
6.7499999999299964
 20
-8.0
 30
0.0
 11
13.4423076919700009
 21
-8.0
 31
0.0
  0
ARC
  5
2573
  8
247
  6
CONTINUOUS
 10
6.7499999999299964
 20
-6.2500000000700311
 30
0.0
 40
1.7499999999299991
 50
90.0
 51
270.0
  0
ARC
  5
2574
  8
247
  6
CONTINUOUS
 10
13.4423076919700009
 20
-6.2500000000700311
 30
0.0
 40
1.7499999999299991
 50
270.0
 51
90.0
  0
LINE
  5
2575
  8
247
  6
CONTINUOUS
 10
7.6153846152799911
 20
-4.5000000001400622
 30
0.0
 11
6.7551484580380059
 21
-7.5000000000200071
 31
0.0
  0
LINE
  5
2576
  8
247
  6
CONTINUOUS
 10
8.5150161816641798
 20
-5.9230769231598961
 30
0.0
 11
7.2073238740241816
 21
-5.9230769231598961
 31
0.0
  0
ARC
  5
2577
  8
247
  6
CONTINUOUS
 10
8.8548561839102131
 20
-5.049598667702865
 30
0.0
 40
0.5538165441895349
 50
342.9978896752951982
 51
82.9241662185135766
  0
ARC
  5
2578
  8
247
  6
CONTINUOUS
 10
8.4331216769712114
 20
-4.9360330444658302
 30
0.0
 40
0.9904354236226808
 50
274.7429368522006143
 51
343.8492262732660834
1001
GENIUS_GENOBJ-N-FIL_13
1002
{
1000
OWNER
1000
GEN
1002
}
1001
GENIUS_GENODEF_13
1002
{
1000
HIER
1070
     0
1002
}
1002
{
1000
MANEDIT
1070
     0
1002
}
1002
{
1000
NOSEL
1070
     0
1002
}
1002
{
1000
BEHIND
1070
     0
1002
}
1002
{
1000
OTHER
1070
     0
1002
}
1002
{
1000
REACTOR
1002
}
  0
LINE
  5
2579
  8
247
  6
CONTINUOUS
 10
8.0628407656780023
 20
-7.5000000000200071
 30
0.0
 11
6.7551484580380059
 21
-7.5000000000200071
 31
0.0
  0
LINE
  5
257A
  8
247
  6
CONTINUOUS
 10
7.6153846152799911
 20
-4.5000000001400622
 30
0.0
 11
8.9230769229200195
 21
-4.5000000001400622
 31
0.0
  0
ARC
  5
257B
  8
247
  6
CONTINUOUS
 10
8.43908036345303
 20
-6.4820242326654789
 30
0.0
 40
0.5640818586791229
 50
335.9909416525217125
 51
82.263443459069066
  0
ARC
  5
257C
  8
247
  6
CONTINUOUS
 10
7.9617373146529342
 20
-6.487429039186507
 30
0.0
 40
1.0176059446230981
 50
275.7019851642580761
 51
347.2773384368223901
1001
GENIUS_GENOBJ-N-FIL_13
1002
{
1000
OWNER
1000
GEN
1002
}
1001
GENIUS_GENODEF_13
1002
{
1000
HIER
1070
     0
1002
}
1002
{
1000
MANEDIT
1070
     0
1002
}
1002
{
1000
NOSEL
1070
     0
1002
}
1002
{
1000
BEHIND
1070
     0
1002
}
1002
{
1000
OTHER
1070
     0
1002
}
1002
{
1000
REACTOR
1002
}
  0
LINE
  5
257D
  8
247
  6
CONTINUOUS
 10
9.7166869194580006
 20
-7.5000000000200071
 30
0.0
 11
10.5769230767000106
 21
-4.5000000001400622
 31
0.0
  0
LINE
  5
257E
  8
247
  6
CONTINUOUS
 10
12.99999999968
 20
-4.5000000001400622
 30
0.0
 11
12.4342633805434009
 21
-4.5000000001400622
 31
0.0
  0
LINE
  5
257F
  8
247
  6
CONTINUOUS
 10
11.5384615382000106
 20
-7.5000000000200071
 30
0.0
 11
12.1538461535599804
 21
-7.5000000000200071
 31
0.0
  0
ARC
  5
2580
  8
247
  6
CONTINUOUS
 10
13.2912087908771301
 20
-6.5832851359733677
 30
0.0
 40
2.2526500823422122
 50
112.3594881415292974
 51
164.9932485428460041
  0
ARC
  5
2581
  8
247
  6
CONTINUOUS
 10
12.6259305207867705
 20
-5.3083126551946389
 30
0.0
 40
0.8906723995727782
 50
4.9945893190752493
 51
65.1663289573022553
1001
GENIUS_GENOBJ-N-FIL_13
1002
{
1000
OWNER
1000
GEN
1002
}
1001
GENIUS_GENODEF_13
1002
{
1000
HIER
1070
     0
1002
}
1002
{
1000
MANEDIT
1070
     0
1002
}
1002
{
1000
NOSEL
1070
     0
1002
}
1002
{
1000
BEHIND
1070
     0
1002
}
1002
{
1000
OTHER
1070
     0
1002
}
1002
{
1000
REACTOR
1002
}
  0
ARC
  5
2582
  8
247
  6
CONTINUOUS
 10
11.7735411137874202
 20
-6.1601458886677829
 30
0.0
 40
1.392781735586712
 50
285.8460965557807754
 51
352.3251370041626274
  0
ARC
  5
2583
  8
247
  6
CONTINUOUS
 10
12.3577872741596497
 20
-6.4592434315272831
 30
0.0
 40
1.324563662670287
 50
159.7136016704905046
 51
231.788745656413198
1001
GENIUS_GENOBJ-N-FIL_13
1002
{
1000
OWNER
1000
GEN
1002
}
1001
GENIUS_GENODEF_13
1002
{
1000
HIER
1070
     0
1002
}
1002
{
1000
MANEDIT
1070
     0
1002
}
1002
{
1000
NOSEL
1070
     0
1002
}
1002
{
1000
BEHIND
1070
     0
1002
}
1002
{
1000
OTHER
1070
     0
1002
}
1002
{
1000
REACTOR
1002
}
  0
LINE
  5
2584
  8
247
  6
CONTINUOUS
 10
12.46153846124
 20
-6.346153846219976
 30
0.0
 11
13.1538461535199893
 21
-6.346153846219976
 31
0.0
  0
LINE
  5
2585
  8
247
  6
CONTINUOUS
 10
6.749999999929968
 20
-4.5000000001400622
 30
0.0
 11
7.4230769229799289
 21
-4.5000000001400622
 31
0.0
  0
VIEWPORT
  5
22
 67
     1
  8
0
 10
261.517699115044195
 20
148.5
 30
0.0
 40
523.0353982300885036
 41
297.0
 68
     1
 69
     1
1001
ACAD
1000
MVIEW
1002
{
1070
    16
1010
0.0
1020
0.0
1030
0.0
1010
0.0
1020
0.0
1030
1.0
1040
0.0
1040
297.0
1040
261.517699115044195
1040
148.5
1040
50.0
1040
0.0
1040
0.0
1070
     0
1070
   100
1070
     1
1070
     1
1070
     0
1070
     0
1070
     0
1070
     0
1040
0.0
1040
0.0
1040
0.0
1040
1.0
1040
1.0
1040
10.0
1040
10.0
1070
     0
1002
{
1002
}
1002
}
1001
GENIUS_GENOBJ-N-SDF_13
1002
{
1000
OWNER
1000
GEN
1002
}
1001
GENIUS_GENODEF_13
1002
{
1000
HIER
1070
     0
1002
}
1002
{
1000
MANEDIT
1070
     0
1002
}
1002
{
1000
NOSEL
1070
     0
1002
}
1002
{
1000
BEHIND
1070
     0
1002
}
1002
{
1000
OTHER
1070
     0
1002
}
1002
{
1000
REACTOR
1002
}
1001
GENIUS_GENSCREG_15
1000
PF
1040
1.0
1000
DF
1040
1.0
1000
MIN
1011
0.0
1021
0.0
1031
0.0
1021
0.0
1031
0.0
1000
MAX
1011
523.0353982300885036
1021
0.0
1031
0.0
1021
297.0
1031
0.0
1000
FLAGS
1070
     4
  0
ENDSEC
  0
EOF
