  0
SECTION
  2
HEADER
  9
$ACADVER
  1
AC1009
  9
$INSBASE
 10
0.0
 20
0.0
 30
0.0
  9
$EXTMIN
 10
-1.784167289999999
 20
-22.1597101600001203
 30
0.0
  9
$EXTMAX
 10
225.0913075416181073
 20
47.9523809523808708
 30
0.0
  9
$LIMMIN
 10
0.0
 20
0.0
  9
$LIMMAX
 10
420.0
 20
297.0
  9
$ORTHOMODE
 70
     1
  9
$REGENMODE
 70
     1
  9
$FILLMODE
 70
     1
  9
$QTEXTMODE
 70
     0
  9
$MIRRTEXT
 70
     1
  9
$DRAGMODE
 70
     2
  9
$LTSCALE
 40
10.0
  9
$OSMODE
 70
   807
  9
$ATTMODE
 70
     1
  9
$TEXTSIZE
 40
3.0
  9
$TRACEWID
 40
1.0
  9
$TEXTSTYLE
  7
YOKO
  9
$CLAYER
  8
240
  9
$CELTYPE
  6
CONTINUOUS
  9
$CECOLOR
 62
   256
  9
$DIMSCALE
 40
1.0
  9
$DIMASZ
 40
2.2299999999999991
  9
$DIMEXO
 40
0.5
  9
$DIMDLI
 40
2.5
  9
$DIMRND
 40
0.0
  9
$DIMDLE
 40
0.0
  9
$DIMEXE
 40
1.0
  9
$DIMTP
 40
0.0
  9
$DIMTM
 40
0.0
  9
$DIMTXT
 40
2.799999999999998
  9
$DIMCEN
 40
0.0
  9
$DIMTSZ
 40
0.0
  9
$DIMTOL
 70
     0
  9
$DIMLIM
 70
     0
  9
$DIMTIH
 70
     0
  9
$DIMTOH
 70
     0
  9
$DIMSE1
 70
     0
  9
$DIMSE2
 70
     0
  9
$DIMTAD
 70
     3
  9
$DIMZIN
 70
     8
  9
$DIMBLK
  1

  9
$DIMASO
 70
     1
  9
$DIMSHO
 70
     1
  9
$DIMPOST
  1

  9
$DIMAPOST
  1

  9
$DIMALT
 70
     0
  9
$DIMALTD
 70
     2
  9
$DIMALTF
 40
25.3999999999999986
  9
$DIMLFAC
 40
1.0
  9
$DIMTOFL
 70
     1
  9
$DIMTVP
 40
0.0
  9
$DIMTIX
 70
     1
  9
$DIMSOXD
 70
     0
  9
$DIMSAH
 70
     1
  9
$DIMBLK1
  1
OPEN
  9
$DIMBLK2
  1
OPEN
  9
$DIMSTYLE
  2
BIGT
  9
$DIMCLRD
 70
     3
  9
$DIMCLRE
 70
     3
  9
$DIMCLRT
 70
    40
  9
$DIMTFAC
 40
1.0
  9
$DIMGAP
 40
1.0
  9
$LUNITS
 70
     2
  9
$LUPREC
 70
     3
  9
$SKETCHINC
 40
1.0
  9
$FILLETRAD
 40
0.5
  9
$AUNITS
 70
     0
  9
$AUPREC
 70
     3
  9
$MENU
  1
.
  9
$ELEVATION
 40
0.0
  9
$PELEVATION
 40
0.0
  9
$THICKNESS
 40
0.0
  9
$LIMCHECK
 70
     0
  9
$BLIPMODE
 70
     0
  9
$CHAMFERA
 40
1.0
  9
$CHAMFERB
 40
1.0
  9
$SKPOLY
 70
     0
  9
$TDCREATE
 40
2455911.3886689809150994
  9
$TDUPDATE
 40
2458292.6626620371825993
  9
$TDINDWG
 40
0.410623125
  9
$TDUSRTIMER
 40
0.4106231134
  9
$USRTIMER
 70
     1
  9
$ANGBASE
 50
0.0
  9
$ANGDIR
 70
     0
  9
$PDMODE
 70
    35
  9
$PDSIZE
 40
-5.0
  9
$PLINEWID
 40
0.0
  9
$COORDS
 70
     1
  9
$SPLFRAME
 70
     0
  9
$SPLINETYPE
 70
     6
  9
$SPLINESEGS
 70
     8
  9
$ATTDIA
 70
     1
  9
$ATTREQ
 70
     1
  9
$HANDLING
 70
     1
  9
$HANDSEED
  5
1D19
  9
$SURFTAB1
 70
     6
  9
$SURFTAB2
 70
     6
  9
$SURFTYPE
 70
     6
  9
$SURFU
 70
     6
  9
$SURFV
 70
     6
  9
$UCSNAME
  2

  9
$UCSORG
 10
0.0
 20
0.0
 30
0.0
  9
$UCSXDIR
 10
1.0
 20
0.0
 30
0.0
  9
$UCSYDIR
 10
0.0
 20
1.0
 30
0.0
  9
$PUCSNAME
  2

  9
$PUCSORG
 10
0.0
 20
0.0
 30
0.0
  9
$PUCSXDIR
 10
1.0
 20
0.0
 30
0.0
  9
$PUCSYDIR
 10
0.0
 20
1.0
 30
0.0
  9
$USERI1
 70
     1
  9
$USERI2
 70
     0
  9
$USERI3
 70
     0
  9
$USERI4
 70
     0
  9
$USERI5
 70
     0
  9
$USERR1
 40
0.0
  9
$USERR2
 40
0.0
  9
$USERR3
 40
0.0
  9
$USERR4
 40
0.0
  9
$USERR5
 40
0.0
  9
$WORLDVIEW
 70
     1
  9
$SHADEDGE
 70
     3
  9
$SHADEDIF
 70
    70
  9
$TILEMODE
 70
     1
  9
$MAXACTVP
 70
    16
  9
$PLIMCHECK
 70
     0
  9
$PEXTMIN
 10
1.0000000000000000E+20
 20
1.0000000000000000E+20
 30
1.0000000000000000E+20
  9
$PEXTMAX
 10
-1.0000000000000000E+20
 20
-1.0000000000000000E+20
 30
-1.0000000000000000E+20
  9
$PLIMMIN
 10
0.0
 20
0.0
  9
$PLIMMAX
 10
420.0
 20
297.0
  9
$UNITMODE
 70
     0
  9
$VISRETAIN
 70
     0
  9
$PLINEGEN
 70
     0
  9
$PSLTSCALE
 70
     1
  0
ENDSEC
  0
SECTION
  2
TABLES
  0
TABLE
  2
VPORT
 70
     1
  0
VPORT
  2
*ACTIVE
 70
     0
 10
0.0
 20
0.0
 11
1.0
 21
1.0
 12
194.6310681249119057
 22
-4.0584653771822872
 13
0.0
 23
0.0
 14
7.0
 24
7.0
 15
7.0
 25
7.0
 16
0.0
 26
0.0
 36
1.0
 17
0.0
 27
0.0
 37
0.0
 40
255.5503364422214077
 41
1.887387387387387
 42
50.0
 43
0.0
 44
0.0
 50
0.0
 51
0.0
 71
     0
 72
 20000
 73
     1
 74
     0
 75
     0
 76
     1
 77
     0
 78
     0
  0
ENDTAB
  0
TABLE
  2
LTYPE
 70
    22
  0
LTYPE
  2
CONTINUOUS
 70
     0
  3
Solid line
 72
    65
 73
     0
 40
0.0
  0
LTYPE
  2
CENTER2
 70
     0
  3
___ _ ___ _ ___ _ ___ _ ___ _ ___ _ ___ _ ___ _
 72
    65
 73
     4
 40
1.125
 49
0.75
 49
-0.125
 49
0.125
 49
-0.125
  0
LTYPE
  2
HIDDEN2
 70
     0
  3
_ _ _ _ _ _ _ _ _ _ _ _ _ _ _ _ _ _ _ _ _ _ _ _
 72
    65
 73
     2
 40
0.1875
 49
0.125
 49
-0.0625
  0
LTYPE
  2
PHANTOM2
 70
     0
  3
___ _ _ ___ _ _ ___ _ _ ___ _ _ ___ _ _ ___ _ _
 72
    65
 73
     6
 40
1.25
 49
0.625
 49
-0.125
 49
0.125
 49
-0.125
 49
0.125
 49
-0.125
  0
LTYPE
  2
AMCONSTR
 70
     0
  3
_______________________
 72
    65
 73
     2
 40
9999.0
 49
9999.0
 49
0.0
  0
LTYPE
  2
HIDDEN
 70
     0
  3
Hidden __ __ __ __ __ __ __ __ __ __ __ __ __ _
 72
    65
 73
     2
 40
0.375
 49
0.25
 49
-0.125
  0
LTYPE
  2
CENTER
 70
     0
  3
Center ____ _ ____ _ ____ _ ____ _ ____ _ ____
 72
    65
 73
     4
 40
2.0
 49
1.25
 49
-0.25
 49
0.25
 49
-0.25
  0
LTYPE
  2
AMZIGZAG2
 70
     0
  3
/\/-/\/-/\/-/\/-/\/-/\/
 72
    65
 73
     2
 40
0.4401
 49
0.0001
 49
-0.4400000000000001
  0
LTYPE
  2
ACANSTGB
 70
     0
  3
__ . . __ . .
 72
    65
 73
     6
 40
0.35433070866
 49
0.15748031496
 49
-0.03937007874
 49
0.03937007874
 49
-0.03937007874
 49
0.03937007874
 49
-0.03937007874
  0
LTYPE
  2
ACANSTGL
 70
     0
  3
_ _ _ _ _
 72
    65
 73
     2
 40
0.11811023622
 49
0.07874015748
 49
-0.03937007874
  0
ENDTAB
  0
TABLE
  2
LAYER
 70
     9
  0
LAYER
  2
0
 70
     0
 62
     7
  6
CONTINUOUS
  0
LAYER
  2
240
 70
     0
 62
     4
  6
CONTINUOUS
  0
LAYER
  2
241
 70
     0
 62
   211
  6
CONTINUOUS
  0
LAYER
  2
242
 70
     0
 62
     3
  6
CONTINUOUS
  0
LAYER
  2
245
 70
     0
 62
     2
  6
CENTER2
  0
LAYER
  2
250
 70
     0
 62
     3
  6
CONTINUOUS
  0
LAYER
  2
DEFPOINTS
 70
     0
 62
     7
  6
CONTINUOUS
  0
LAYER
  2
247
 70
     0
 62
    60
  6
CONTINUOUS
  0
LAYER
  2
243
 70
     0
 62
   211
  6
HIDDEN2
  0
ENDTAB
  0
TABLE
  2
STYLE
 70
    10
  0
STYLE
  2
STANDARD
 70
     0
 40
0.0
 41
1.0
 50
0.0
 71
     0
 42
2.799999999999998
  3
romans.shx
  4
BIGFONT.SHX
  0
STYLE
  2
YOKO
 70
     0
 40
0.0
 41
1.0
 50
0.0
 71
     0
 42
3.0
  3
romans.shx
  4
extfont.shx
  0
STYLE
  2

 70
     1
 40
0.0
 41
1.0
 50
0.0
 71
     0
 42
3.0
  3
genltshp.shx
  4

  0
STYLE
  2
ACANSGDT
 70
     0
 40
0.0
 41
1.0
 50
0.0
 71
     0
 42
3.0
  3
amgdt.shx
  4

  0
ENDTAB
  0
TABLE
  2
VIEW
 70
     0
  0
ENDTAB
  0
TABLE
  2
UCS
 70
     0
  0
ENDTAB
  0
TABLE
  2
APPID
 70
    52
  0
APPID
  2
ACAD
 70
     0
  0
APPID
  2
ACADANNOTATIVE
 70
     0
  0
APPID
  2
GLOBAL
 70
     0
  0
APPID
  2
DETAIL
 70
     0
  0
APPID
  2
GRPNAME
 70
     0
  0
APPID
  2
GPARA
 70
     0
  0
APPID
  2
DCO15
 70
     0
  0
APPID
  2
ITEMNAME
 70
     0
  0
APPID
  2
GRADE_0
 70
     0
  0
APPID
  2
DRAWING
 70
     0
  0
APPID
  2
HATCH_TYPE
 70
     0
  0
APPID
  2
HATCH_DISPLAY
 70
     0
  0
APPID
  2
HATCH_DISTANCE
 70
     0
  0
APPID
  2
INSERT_PATH
 70
     0
  0
APPID
  2
GMODEL
 70
     0
  0
APPID
  2
DRADDATA
 70
     0
  0
APPID
  2
SAVE_PARAM1
 70
     0
  0
APPID
  2
SAVE_PARAM2
 70
     0
  0
APPID
  2
SAVE_PARAM3
 70
     0
  0
APPID
  2
GRADE_-10000
 70
     0
  0
APPID
  2
ACAD_MLEADERVER
 70
     0
  0
APPID
  2
ACAD_PSEXT
 70
     0
  0
APPID
  2
ACAD_NAV_VCDISPLAY
 70
     0
  0
APPID
  2
ACAD_DSTYLE_DIMJAG
 70
     0
  0
APPID
  2
ACAD_DSTYLE_DIMTALN
 70
     0
  0
APPID
  2
ACAD_EXEMPT_FROM_CAD_STANDARDS
 70
     0
  0
APPID
  2
MCAD_NO_VIS
 70
     0
  0
APPID
  2
ACAD_TEMP_GRAPHIC
 70
     0
  0
APPID
  2
ACATTRIBSERVICES
 70
     0
  0
APPID
  2
GENIUS_GENSCREG_15
 70
     0
  0
APPID
  2
GENIUS_GENODEF_13
 70
     0
  0
APPID
  2
GENIUS_GENOBJ-N-SDF_13
 70
     0
  0
APPID
  2
GENIUS_GENREC_14
 70
     0
  0
APPID
  2
GENIUS_GENOBJ-N-REC_13
 70
     0
  0
APPID
  2
GENIUS_GENDIMSH_14
 70
     0
  0
APPID
  2
GENIUS_GENOBJ-N-DIM_13
 70
     0
  0
APPID
  2
GENIUS_GENDIM_13
 70
     0
  0
APPID
  2
GENIUS_GENDTOL_13
 70
     0
  0
APPID
  2
GENIUS_GENOLIS_13
 70
     0
  0
APPID
  2
GENIUS_GENOENT_13
 70
     0
  0
APPID
  2
GENIUS_GENOBJ-F-FEM_13
 70
     0
  0
APPID
  2
GENIUS_GENOREF_13
 70
     0
  0
APPID
  2
GENIUS_GEFFEM_13
 70
     0
  0
APPID
  2
GENIUS_GEFFEMP_13
 70
     0
  0
APPID
  2
AD_DRAW
 70
     0
  0
APPID
  2
DESIGNERASSEMBLIES
 70
     0
  0
APPID
  2
ACADM_DIM_EDIT
 70
     0
  0
APPID
  2
AMDT_DM_ADJ
 70
     0
  0
APPID
  2
GENIUS_GENOBJ-N-FIL_13
 70
     0
  0
APPID
  2
GENIUS_GENFIL_13
 70
     0
  0
APPID
  2
GENIUS_GENOBJ-N-CHA_13
 70
     0
  0
APPID
  2
ACAD_DSTYLE_DIMBREAK
 70
     0
  0
ENDTAB
  0
TABLE
  2
DIMSTYLE
 70
    31
  0
DIMSTYLE
  2
STANDARD
 70
     0
  3

  4

  5

  6

  7

 40
1.0
 41
0.18
 42
0.0625
 43
0.38
 44
0.18
 45
0.0
 46
0.0
 47
0.0
 48
0.0
140
0.18
141
0.09
142
0.0
143
25.3999999999999986
144
1.0
145
0.0
146
1.0
147
0.09
 71
     0
 72
     0
 73
     1
 74
     1
 75
     0
 76
     0
 77
     0
 78
     0
170
     0
171
     2
172
     0
173
     0
174
     0
175
     0
176
     0
177
     0
178
     0
  0
DIMSTYLE
  2
BIGT
 70
     0
  3

  4

  5

  6

  7

 40
1.0
 41
2.2299999999999991
 42
0.5
 43
7.0
 44
1.0
 45
0.0
 46
0.0
 47
0.0
 48
0.01
140
2.799999999999998
141
0.0
142
0.0
143
25.3999999999999986
144
1.0
145
0.0
146
1.0
147
1.0
 71
     0
 72
     0
 73
     0
 74
     0
 75
     0
 76
     0
 77
     3
 78
     9
170
     0
171
     2
172
     1
173
     0
174
     1
175
     0
176
   256
177
   256
178
    40
  0
DIMSTYLE
  2
AM_ANSI
 70
     0
  3

  4
mm
  5

  6

  7

 40
1.0
 41
0.12
 42
0.05
 43
0.5
 44
0.1
 45
0.0
 46
0.0
 47
0.1
 48
0.1
140
0.12
141
0.0
142
0.0
143
25.3999999999999986
144
1.0
145
0.0
146
0.71
147
0.06
 71
     0
 72
     0
 73
     1
 74
     1
 75
     0
 76
     0
 77
     0
 78
     7
170
     0
171
     2
172
     0
173
     0
174
     0
175
     0
176
   256
177
   256
178
     2
  0
DIMSTYLE
  2
AM_ANSI$3
 70
     0
  3

  4
mm
  5

  6

  7

 40
1.0
 41
0.12
 42
0.05
 43
0.5
 44
0.1
 45
0.0
 46
0.0
 47
0.1
 48
0.1
140
0.12
141
0.0
142
0.0
143
25.3999999999999986
144
1.0
145
0.0
146
0.71
147
0.06
 71
     0
 72
     0
 73
     1
 74
     1
 75
     0
 76
     0
 77
     0
 78
     7
170
     0
171
     2
172
     0
173
     0
174
     0
175
     0
176
   256
177
   256
178
     2
  0
DIMSTYLE
  2
AM_ANSI$4
 70
     0
  3

  4
mm
  5

  6

  7

 40
1.0
 41
0.12
 42
0.05
 43
0.5
 44
0.1
 45
0.0
 46
0.0
 47
0.1
 48
0.1
140
0.12
141
0.0
142
0.0
143
25.3999999999999986
144
1.0
145
0.0
146
0.71
147
0.06
 71
     0
 72
     0
 73
     1
 74
     1
 75
     0
 76
     0
 77
     0
 78
     7
170
     0
171
     2
172
     0
173
     0
174
     0
175
     0
176
   256
177
   256
178
     2
  0
DIMSTYLE
  2
AM_ANSI$7
 70
     0
  3

  4
mm
  5

  6

  7

 40
1.0
 41
0.12
 42
0.05
 43
0.5
 44
0.1
 45
0.0
 46
0.0
 47
0.1
 48
0.1
140
0.12
141
0.0
142
0.0
143
25.3999999999999986
144
1.0
145
0.0
146
0.71
147
0.06
 71
     0
 72
     0
 73
     1
 74
     1
 75
     0
 76
     0
 77
     0
 78
     7
170
     0
171
     2
172
     0
173
     0
174
     0
175
     0
176
   256
177
   256
178
     2
  0
DIMSTYLE
  2
AM_ANSI$SF
 70
     0
  3

  4
mm
  5

  6

  7

 40
1.0
 41
0.12
 42
0.05
 43
0.5
 44
0.1
 45
0.0
 46
0.0
 47
0.1
 48
0.1
140
0.12
141
0.0
142
0.0
143
25.3999999999999986
144
1.0
145
0.0
146
0.71
147
0.06
 71
     0
 72
     0
 73
     1
 74
     1
 75
     1
 76
     1
 77
     0
 78
     7
170
     0
171
     2
172
     0
173
     0
174
     0
175
     0
176
   256
177
   256
178
     2
  0
DIMSTYLE
  2
AM_ANSI$SH
 70
     0
  3

  4
mm
  5

  6
GENAXEH
  7

 40
1.0
 41
0.12
 42
0.05
 43
0.5
 44
0.1
 45
0.0
 46
0.0
 47
0.1
 48
0.1
140
0.12
141
0.0
142
0.0
143
25.3999999999999986
144
1.0
145
0.0
146
0.71
147
0.06
 71
     0
 72
     0
 73
     1
 74
     1
 75
     1
 76
     1
 77
     0
 78
     7
170
     0
171
     2
172
     0
173
     1
174
     0
175
     0
176
   256
177
   256
178
     2
  0
ENDTAB
  0
ENDSEC
  0
SECTION
  2
BLOCKS
  0
BLOCK
  8
0
  2
$MODEL_SPACE
 70
     0
 10
0.0
 20
0.0
 30
0.0
  3
$MODEL_SPACE
  1

  0
ENDBLK
  5
1BC8
  8
0
  0
BLOCK
 67
     1
  8
0
  2
$PAPER_SPACE
 70
     0
 10
0.0
 20
0.0
 30
0.0
  3
$PAPER_SPACE
  1

  0
ENDBLK
  5
1BC4
 67
     1
  8
0
  0
BLOCK
  8
0
  2
_OPEN
 70
     0
 10
0.0
 20
0.0
 30
0.0
  3
_OPEN
  1

  0
LINE
  5
19A0
  8
0
  6
BYBLOCK
 62
     0
 10
-1.0
 20
0.1666666666666666
 30
0.0
 11
0.0
 21
0.0
 31
0.0
  0
LINE
  5
19A1
  8
0
  6
BYBLOCK
 62
     0
 10
-1.0
 20
-0.1666666666666666
 30
0.0
 11
0.0
 21
0.0
 31
0.0
  0
LINE
  5
19A2
  8
0
  6
BYBLOCK
 62
     0
 10
0.0
 20
0.0
 30
0.0
 11
-1.0
 21
0.0
 31
0.0
  0
ENDBLK
  5
19A3
  8
0
  0
BLOCK
  8
0
  2
矢印なし
 70
     0
 10
0.0
 20
0.0
 30
0.0
  3
矢印なし
  1

  0
ENDBLK
  5
6E5
  8
0
  0
BLOCK
  8
0
  2
GENAXEH
 70
     0
 10
0.0
 20
0.0
 30
0.0
  3
GENAXEH
  1

  0
LINE
  5
19DB
  8
0
 10
-1.0
 20
0.0
 30
0.0
 11
1.0
 21
0.0
 31
0.0
  0
ENDBLK
  5
19DC
  8
0
  0
BLOCK
  8
0
  2
_ACMFILLEDHALF
 70
     0
 10
0.0
 20
0.0
 30
0.0
  3
_ACMFILLEDHALF
  1

  0
TRACE
  5
1C9A
  8
240
  6
CONTINUOUS
 62
     0
 10
-0.8
 20
0.0
 30
0.0
 11
-1.0
 21
0.166666666
 31
0.0
 12
0.0
 22
0.0
 32
0.0
 13
0.0
 23
0.0
 33
0.0
  0
LINE
  5
1C9B
  8
240
  6
CONTINUOUS
 62
     0
 10
-1.0
 20
0.0
 30
0.0
 11
-0.8
 21
0.0
 31
0.0
  0
ENDBLK
  5
1C99
  8
0
  0
ENDSEC
  0
SECTION
  2
ENTITIES
  0
INSERT
  5
6E6
  8
245
  2
矢印なし
 10
175.6238269664376901
 20
90.5512357169059499
 30
0.0
  0
TEXT
  5
1726
  8
241
  6
CONTINUOUS
 10
-0.0000000000000142
 20
41.9999999999999289
 30
0.0
 40
5.0
  1
ST22W-CKB1-210
  7
YOKO
 11
-0.0000000000000142
 21
41.9999999999999289
 31
0.0
 73
     1
  0
LINE
  5
180A
  8
250
  6
CONTINUOUS
 10
212.8246408749515126
 20
21.2855658322883983
 30
0.0
 11
225.0913075416181073
 21
21.2855658322883983
 31
0.0
1001
ITEMNAME
1000
LNSP2
  0
LINE
  5
1A4B
  8
241
  6
CONTINUOUS
 10
192.4999999999998863
 20
-0.0000000000001137
 30
0.0
 11
192.5
 21
10.9999999999998597
 31
0.0
  0
LINE
  5
1A4C
  8
240
  6
CONTINUOUS
 10
0.0000000000001095
 20
10.9999999999998792
 30
0.0
 11
197.000000000008896
 21
10.9999999999998792
 31
0.0
  0
LINE
  5
1A4D
  8
240
  6
CONTINUOUS
 10
-0.0000000000001095
 20
-11.0000000000001101
 30
0.0
 11
197.0000000000094076
 21
-11.0000000000000302
 31
0.0
  0
LINE
  5
1A4E
  8
245
  6
CENTER2
 10
-0.9999999999999715
 20
-0.0000000000000284
 30
0.0
 11
211.0000000000015916
 21
-0.0000000000000853
 31
0.0
  0
LINE
  5
1A4F
  8
240
  6
CONTINUOUS
 10
210.0000000000015916
 20
-9.5000000000002274
 30
0.0
 11
210.0000000000013927
 21
9.5000000000000568
 31
0.0
  0
LINE
  5
1A50
  8
240
  6
CONTINUOUS
 10
210.0000000000015916
 20
9.4999999999996021
 30
0.0
 11
197.0000000000028137
 21
9.4999999999999876
 31
0.0
  0
LINE
  5
1A51
  8
240
  6
CONTINUOUS
 10
210.0000000000015916
 20
-9.5000000000002274
 30
0.0
 11
197.000000000002899
 21
-9.5000000000000355
 31
0.0
  0
LINE
  5
1A53
  8
243
  6
HIDDEN2
 10
196.0000000000011937
 20
5.4999999999997433
 30
0.0
 11
210.0000000000015064
 21
5.4999999999997691
 31
0.0
  0
LINE
  5
1A57
  8
240
  6
CONTINUOUS
 10
197.000000000008896
 20
10.9999999999998792
 30
0.0
 11
197.0000000000028137
 21
9.4999999999999876
 31
0.0
  0
LINE
  5
1A58
  8
240
  6
CONTINUOUS
 10
197.0000000000094076
 20
-11.0000000000000302
 30
0.0
 11
197.000000000002899
 21
-9.5000000000000355
 31
0.0
  0
LINE
  5
1A5C
  8
240
  6
CONTINUOUS
 10
0.0000000000001095
 20
10.9999999999998792
 30
0.0
 11
-0.0000000000001095
 21
-11.0000000000001101
 31
0.0
  0
LINE
  5
1A5F
  8
241
  6
CONTINUOUS
 10
192.4999999999998863
 20
-0.0000000000000284
 30
0.0
 11
192.5
 21
-11.0
 31
0.0
  0
LINE
  5
1A60
  8
241
  6
CONTINUOUS
 10
197.0000000000019895
 20
-9.2999999999929042
 30
0.0
 11
197.0000000000019895
 21
-0.0000000000001137
 31
0.0
  0
LINE
  5
1A65
  8
241
  6
CONTINUOUS
 10
197.0000000000019895
 20
9.2999999999927656
 30
0.0
 11
197.0000000000019895
 21
-0.0000000000000284
 31
0.0
  0
LINE
  5
1A67
  8
243
  6
HIDDEN2
 10
196.0000000000011937
 20
-5.4999999999998863
 30
0.0
 11
210.0000000000015064
 21
-5.4999999999999432
 31
0.0
  0
CIRCLE
  5
1A6B
  8
242
 10
204.9500000000020066
 20
-0.0000000000000853
 30
0.0
 40
1.75
  0
CIRCLE
  5
1A6C
  8
241
  6
CONTINUOUS
 10
204.9500000000020066
 20
-0.0000000000000853
 30
0.0
 40
2.1000000000000001
  0
LINE
  5
1A6D
  8
245
  6
CENTER2
 10
204.9500000000020066
 20
3.0999999999999082
 30
0.0
 11
204.9500000000020066
 21
-3.1000000000000769
 31
0.0
  0
POLYLINE
  5
1A6E
  8
241
  6
CONTINUOUS
 66
     1
 10
0.0
 20
0.0
 30
0.0
 70
     1
  0
VERTEX
  5
1B4F
  8
241
  6
CONTINUOUS
 10
203.9500000000020066
 20
-0.5773502700000961
 30
0.0
  0
VERTEX
  5
1B50
  8
241
  6
CONTINUOUS
 10
204.9500000000020066
 20
-1.154700540000076
 30
0.0
  0
VERTEX
  5
1B51
  8
241
  6
CONTINUOUS
 10
205.9500000000020066
 20
-0.5773502700000961
 30
0.0
  0
VERTEX
  5
1B52
  8
241
  6
CONTINUOUS
 10
205.9500000000020066
 20
0.5773502699999256
 30
0.0
  0
VERTEX
  5
1B53
  8
241
  6
CONTINUOUS
 10
204.9500000000020066
 20
1.1547005399999071
 30
0.0
  0
VERTEX
  5
1B54
  8
241
  6
CONTINUOUS
 10
203.9500000000020066
 20
0.5773502699999256
 30
0.0
  0
SEQEND
  5
1B55
  8
241
  6
CONTINUOUS
  0
LINE
  5
1AA8
  8
250
  6
CONTINUOUS
 10
18.3035525759263891
 20
-12.5653841413313803
 30
0.0
 11
19.5922277099999995
 21
-11.0000000000001101
 31
0.0
  0
LINE
  5
1AA9
  8
250
  6
CONTINUOUS
 10
18.8809028452269985
 20
-12.8987174744724999
 30
0.0
 11
19.5922277099999995
 21
-11.0000000000001101
 31
0.0
  0
LINE
  5
1AAA
  8
250
  6
CONTINUOUS
 10
19.5922277099999995
 20
-11.0000000000001101
 30
0.0
 11
18.5922277105766902
 21
-12.7320508079019401
 31
0.0
  0
LINE
  5
1AAB
  8
250
  6
CONTINUOUS
 10
18.5922277105766902
 20
-12.7320508079019401
 30
0.0
 11
13.1491660499999998
 21
-22.1597101600001203
 31
0.0
1001
ACAD
1000
DSTYLE
1002
{
1070
     6
1000
OPEN
1070
    41
1040
2.0
1070
    42
1040
2.0
1070
    44
1040
2.0
1070
   140
1040
4.0
1070
   343
1005
594
1002
}
  0
TEXT
  5
1AAC
  8
250
  6
CONTINUOUS
 10
-1.014148987172752
 20
-21.1597101600001203
 30
0.0
 40
2.799999999999998
  1
ST22W
  7
YOKO
1001
ITEMNAME
1000
LNSP3
  0
LINE
  5
1AAD
  8
250
  6
CONTINUOUS
 10
13.1491660499999998
 20
-22.1597101600001203
 30
0.0
 11
-1.784167289999999
 21
-22.1597101600001203
 31
0.0
1001
ITEMNAME
1000
LNSP2
  0
LINE
  5
1AAE
  8
247
  6
CONTINUOUS
 10
6.7499999999299964
 20
-7.0000000000001137
 30
0.0
 11
13.4423076919700009
 21
-7.0000000000001137
 31
0.0
  0
ARC
  5
1AAF
  8
247
  6
CONTINUOUS
 10
6.7499999999299964
 20
-5.2500000000701448
 30
0.0
 40
1.7499999999299991
 50
90.0
 51
270.0
  0
ARC
  5
1AB0
  8
247
  6
CONTINUOUS
 10
13.4423076919700009
 20
-5.2500000000701448
 30
0.0
 40
1.7499999999299991
 50
270.0
 51
90.0
  0
LINE
  5
1AB1
  8
247
  6
CONTINUOUS
 10
7.6153846152799911
 20
-3.5000000001401759
 30
0.0
 11
6.7551484580379917
 21
-6.5000000000201243
 31
0.0
  0
LINE
  5
1AB2
  8
247
  6
CONTINUOUS
 10
8.5150161816641798
 20
-4.9230769231600124
 30
0.0
 11
7.2073238740241816
 21
-4.9230769231600124
 31
0.0
  0
ARC
  5
1AB3
  8
247
  6
CONTINUOUS
 10
8.8548561839102131
 20
-4.0495986677029823
 30
0.0
 40
0.5538165441895349
 50
342.9978896752954256
 51
82.924166218512795
  0
ARC
  5
1AB4
  8
247
  6
CONTINUOUS
 10
8.4331216769712114
 20
-3.9360330444659439
 30
0.0
 40
0.9904354236226808
 50
274.7429368522014101
 51
343.8492262732664244
1001
GENIUS_GENOBJ-N-FIL_13
1002
{
1000
OWNER
1000
GEN
1002
}
1001
GENIUS_GENODEF_13
1002
{
1000
HIER
1070
     0
1002
}
1002
{
1000
MANEDIT
1070
     0
1002
}
1002
{
1000
NOSEL
1070
     0
1002
}
1002
{
1000
BEHIND
1070
     0
1002
}
1002
{
1000
OTHER
1070
     0
1002
}
1002
{
1000
REACTOR
1002
}
  0
LINE
  5
1AB5
  8
247
  6
CONTINUOUS
 10
8.0628407656779864
 20
-6.5000000000201243
 30
0.0
 11
6.7551484580379917
 21
-6.5000000000201243
 31
0.0
  0
LINE
  5
1AB6
  8
247
  6
CONTINUOUS
 10
7.6153846152799911
 20
-3.5000000001401759
 30
0.0
 11
8.9230769229200035
 21
-3.5000000001401759
 31
0.0
  0
ARC
  5
1AB7
  8
247
  6
CONTINUOUS
 10
8.43908036345303
 20
-5.4820242326655961
 30
0.0
 40
0.5640818586791229
 50
335.9909416525217125
 51
82.2634434590691228
  0
ARC
  5
1AB8
  8
247
  6
CONTINUOUS
 10
7.9617373146529342
 20
-5.4874290391866243
 30
0.0
 40
1.0176059446230981
 50
275.7019851642580761
 51
347.2773384368222764
1001
GENIUS_GENOBJ-N-FIL_13
1002
{
1000
OWNER
1000
GEN
1002
}
1001
GENIUS_GENODEF_13
1002
{
1000
HIER
1070
     0
1002
}
1002
{
1000
MANEDIT
1070
     0
1002
}
1002
{
1000
NOSEL
1070
     0
1002
}
1002
{
1000
BEHIND
1070
     0
1002
}
1002
{
1000
OTHER
1070
     0
1002
}
1002
{
1000
REACTOR
1002
}
  0
LINE
  5
1AB9
  8
247
  6
CONTINUOUS
 10
9.7166869194580006
 20
-6.5000000000201243
 30
0.0
 11
10.5769230766999893
 21
-3.5000000001401759
 31
0.0
  0
LINE
  5
1ABA
  8
247
  6
CONTINUOUS
 10
12.99999999968
 20
-3.5000000001401759
 30
0.0
 11
12.4342633805434009
 21
-3.5000000001401759
 31
0.0
  0
LINE
  5
1ABB
  8
247
  6
CONTINUOUS
 10
11.5384615382000106
 20
-6.5000000000201243
 30
0.0
 11
12.1538461535599893
 21
-6.5000000000201243
 31
0.0
  0
ARC
  5
1ABC
  8
247
  6
CONTINUOUS
 10
13.2912087908771301
 20
-5.5832851359734841
 30
0.0
 40
2.2526500823422122
 50
112.3594881415299938
 51
164.9932485428460893
  0
ARC
  5
1ABD
  8
247
  6
CONTINUOUS
 10
12.6259305207867705
 20
-4.3083126551947561
 30
0.0
 40
0.8906723995727782
 50
4.994589319075363
 51
65.1663289573005073
1001
GENIUS_GENOBJ-N-FIL_13
1002
{
1000
OWNER
1000
GEN
1002
}
1001
GENIUS_GENODEF_13
1002
{
1000
HIER
1070
     0
1002
}
1002
{
1000
MANEDIT
1070
     0
1002
}
1002
{
1000
NOSEL
1070
     0
1002
}
1002
{
1000
BEHIND
1070
     0
1002
}
1002
{
1000
OTHER
1070
     0
1002
}
1002
{
1000
REACTOR
1002
}
  0
ARC
  5
1ABE
  8
247
  6
CONTINUOUS
 10
11.7735411137874202
 20
-5.1601458886679001
 30
0.0
 40
1.392781735586712
 50
285.8460965557807754
 51
352.3251370041625137
  0
ARC
  5
1ABF
  8
247
  6
CONTINUOUS
 10
12.3577872741596302
 20
-5.4592434315274003
 30
0.0
 40
1.324563662670287
 50
159.7136016704901067
 51
231.7887456564122886
1001
GENIUS_GENOBJ-N-FIL_13
1002
{
1000
OWNER
1000
GEN
1002
}
1001
GENIUS_GENODEF_13
1002
{
1000
HIER
1070
     0
1002
}
1002
{
1000
MANEDIT
1070
     0
1002
}
1002
{
1000
NOSEL
1070
     0
1002
}
1002
{
1000
BEHIND
1070
     0
1002
}
1002
{
1000
OTHER
1070
     0
1002
}
1002
{
1000
REACTOR
1002
}
  0
LINE
  5
1AC0
  8
247
  6
CONTINUOUS
 10
12.46153846124
 20
-5.3461538462200924
 30
0.0
 11
13.1538461535199893
 21
-5.3461538462200924
 31
0.0
  0
LINE
  5
1AC1
  8
247
  6
CONTINUOUS
 10
6.749999999929968
 20
-3.5000000001401759
 30
0.0
 11
7.4230769229799289
 21
-3.5000000001401759
 31
0.0
  0
LINE
  5
1AD6
  8
250
  6
CONTINUOUS
 10
0.0000000000001095
 20
11.4999999999998792
 30
0.0
 11
0.0000000000001106
 21
28.9999999999999503
 31
0.0
  0
LINE
  5
1AD7
  8
250
  6
CONTINUOUS
 10
210.0000000000015916
 20
10.0000000000000497
 30
0.0
 11
210.0000000000015916
 21
28.9999999999999503
 31
0.0
  0
LINE
  5
1AD8
  8
250
  6
CONTINUOUS
 10
2.2300000000001101
 20
27.9999999999999396
 30
0.0
 11
207.7700000000016018
 21
27.9999999999999396
 31
0.0
  0
LINE
  5
1ADC
  8
250
  6
CONTINUOUS
 10
210.5000000000015916
 20
-9.5000000000002274
 30
0.0
 11
225.0
 21
-9.5000000000002327
 31
0.0
  0
LINE
  5
1ADD
  8
250
  6
CONTINUOUS
 10
210.5000000000015916
 20
9.4999999999996021
 30
0.0
 11
225.0
 21
9.4999999999995968
 31
0.0
  0
LINE
  5
1ADE
  8
250
  6
CONTINUOUS
 10
224.0
 20
-7.2700000000002278
 30
0.0
 11
224.0
 21
7.2699999999995972
 31
0.0
  0
TEXT
  5
1AE2
  8
250
  6
CONTINUOUS
 10
215.2246408749514899
 20
22.2855658322883983
 30
0.0
 40
2.799999999999998
  1
CK1
  7
YOKO
1001
ITEMNAME
1000
LNSP3
1001
ACAD
1000
MTEXTBEGIN
1070
    73
1070
     1
1070
    44
1040
1.0
1070
    74
1070
     0
1000
MTEXTEND
  0
TEXT
  5
1AE5
  8
250
  6
CONTINUOUS
 10
223.0
 20
-3.8666666666669438
 30
0.0
 40
2.799999999999998
  1
\U+2205
 50
90.0
1001
ACAD
1000
MTEXTBEGIN
1070
    73
1070
     1
1070
    44
1040
1.0
1070
    74
1070
     0
1000
MTEXTEND
  0
TEXT
  5
1AE6
  8
250
  6
CONTINUOUS
 10
223.0
 20
-1.333333333333611
 30
0.0
 40
2.799999999999998
  1
19
 50
90.0
1001
ACAD
1000
MTEXTBEGIN
1070
    73
1070
     1
1070
    44
1040
1.0
1070
    74
1070
     0
1000
MTEXTEND
  0
LINE
  5
1AE7
  8
250
  6
CONTINUOUS
 10
223.6283333333333019
 20
7.2699999999995981
 30
0.0
 11
224.0
 21
9.4999999999995968
 31
0.0
  0
LINE
  5
1AE8
  8
250
  6
CONTINUOUS
 10
224.3716666666666981
 20
7.2699999999995981
 30
0.0
 11
224.0
 21
9.4999999999995968
 31
0.0
  0
LINE
  5
1AE9
  8
250
  6
CONTINUOUS
 10
224.0
 20
9.4999999999995968
 30
0.0
 11
224.0
 21
7.2699999999995981
 31
0.0
  0
LINE
  5
1AEA
  8
250
  6
CONTINUOUS
 10
224.3716666666666981
 20
-7.2700000000002323
 30
0.0
 11
224.0
 21
-9.5000000000002274
 31
0.0
  0
LINE
  5
1AEB
  8
250
  6
CONTINUOUS
 10
223.6283333333333019
 20
-7.2700000000002323
 30
0.0
 11
224.0
 21
-9.5000000000002274
 31
0.0
  0
LINE
  5
1AEC
  8
250
  6
CONTINUOUS
 10
224.0
 20
-9.5000000000002274
 30
0.0
 11
224.0
 21
-7.2700000000002323
 31
0.0
  0
LINE
  5
1AED
  8
250
  6
CONTINUOUS
 10
207.4571140442006083
 20
11.2454033171056693
 30
0.0
 11
206.0202412691274105
 21
9.4999999999997247
 31
0.0
  0
LINE
  5
1AEE
  8
250
  6
CONTINUOUS
 10
206.8133684940542025
 20
11.6170699837723408
 30
0.0
 11
206.0202412691274105
 21
9.4999999999997247
 31
0.0
  0
LINE
  5
1AEF
  8
250
  6
CONTINUOUS
 10
206.0202412691274105
 20
9.4999999999997247
 30
0.0
 11
207.1352412691273912
 21
11.4312366504390006
 31
0.0
  0
LINE
  5
1AF0
  8
250
  6
CONTINUOUS
 10
207.1352412691273912
 20
11.4312366504390006
 30
0.0
 11
212.8246408749515126
 21
21.2855658322883983
 31
0.0
  0
TEXT
  5
1AF1
  8
250
  6
CONTINUOUS
 10
101.0000000000007958
 20
28.9999999999999503
 30
0.0
 40
2.799999999999998
  1
210
  0
LINE
  5
1AF2
  8
250
  6
CONTINUOUS
 10
207.7700000000016018
 20
28.3716666666666093
 30
0.0
 11
210.0000000000015916
 21
27.9999999999999396
 31
0.0
  0
LINE
  5
1AF3
  8
250
  6
CONTINUOUS
 10
207.7700000000016018
 20
27.6283333333332912
 30
0.0
 11
210.0000000000015916
 21
27.9999999999999396
 31
0.0
  0
LINE
  5
1AF4
  8
250
  6
CONTINUOUS
 10
210.0000000000015916
 20
27.9999999999999396
 30
0.0
 11
207.7700000000016018
 21
27.9999999999999396
 31
0.0
  0
LINE
  5
1AF5
  8
250
  6
CONTINUOUS
 10
2.2300000000001101
 20
27.6283333333332912
 30
0.0
 11
0.0000000000001105
 21
27.9999999999999396
 31
0.0
  0
LINE
  5
1AF6
  8
250
  6
CONTINUOUS
 10
2.2300000000001101
 20
28.3716666666666093
 30
0.0
 11
0.0000000000001105
 21
27.9999999999999396
 31
0.0
  0
LINE
  5
1AF7
  8
250
  6
CONTINUOUS
 10
0.0000000000001105
 20
27.9999999999999396
 30
0.0
 11
2.2300000000001101
 21
27.9999999999999396
 31
0.0
  0
VIEWPORT
  5
22
 67
     1
  8
0
 10
261.517699115044195
 20
148.5
 30
0.0
 40
523.0353982300885036
 41
297.0
 68
     1
 69
     1
1001
ACAD
1000
MVIEW
1002
{
1070
    16
1010
0.0
1020
0.0
1030
0.0
1010
0.0
1020
0.0
1030
1.0
1040
0.0
1040
297.0
1040
261.517699115044195
1040
148.5
1040
50.0
1040
0.0
1040
0.0
1070
     0
1070
   100
1070
     1
1070
     1
1070
     0
1070
     0
1070
     0
1070
     0
1040
0.0
1040
0.0
1040
0.0
1040
1.0
1040
1.0
1040
10.0
1040
10.0
1070
     0
1002
{
1002
}
1002
}
1001
GENIUS_GENODEF_13
1002
{
1000
HIER
1070
     0
1002
}
1002
{
1000
MANEDIT
1070
     0
1002
}
1002
{
1000
NOSEL
1070
     0
1002
}
1002
{
1000
BEHIND
1070
     0
1002
}
1002
{
1000
OTHER
1070
     0
1002
}
1002
{
1000
REACTOR
1002
}
1001
GENIUS_GENOBJ-N-SDF_13
1002
{
1000
OWNER
1000
GEN
1002
}
1001
GENIUS_GENSCREG_15
1000
PF
1040
1.0
1000
DF
1040
1.0
1000
MIN
1011
0.0
1021
0.0
1031
0.0
1021
0.0
1031
0.0
1000
MAX
1011
523.0353982300885036
1021
0.0
1031
0.0
1021
297.0
1031
0.0
1000
FLAGS
1070
     4
  0
ENDSEC
  0
EOF
