  0
SECTION
  2
HEADER
  9
$ACADVER
  1
AC1009
  9
$INSBASE
 10
0.0
 20
0.0
 30
0.0
  9
$EXTMIN
 10
-18.0
 20
-21.159710159999999
 30
0.0
  9
$EXTMAX
 10
140.99987308999999
 20
40.0
 30
0.0
  9
$LIMMIN
 10
0.0
 20
0.0
  9
$LIMMAX
 10
420.0
 20
297.0
  9
$ORTHOMODE
 70
     1
  9
$REGENMODE
 70
     1
  9
$FILLMODE
 70
     1
  9
$QTEXTMODE
 70
     0
  9
$MIRRTEXT
 70
     1
  9
$DRAGMODE
 70
     2
  9
$LTSCALE
 40
10.0
  9
$OSMODE
 70
    39
  9
$ATTMODE
 70
     1
  9
$TEXTSIZE
 40
3.0
  9
$TRACEWID
 40
1.0
  9
$TEXTSTYLE
  7
YOKO
  9
$CLAYER
  8
245
  9
$CELTYPE
  6
BYLAYER
  9
$CECOLOR
 62
   256
  9
$DIMSCALE
 40
1.0
  9
$DIMASZ
 40
2.2299999999999991
  9
$DIMEXO
 40
0.5
  9
$DIMDLI
 40
2.5
  9
$DIMRND
 40
0.0
  9
$DIMDLE
 40
0.0
  9
$DIMEXE
 40
1.0
  9
$DIMTP
 40
0.0
  9
$DIMTM
 40
0.0
  9
$DIMTXT
 40
2.7999999999999989
  9
$DIMCEN
 40
0.0
  9
$DIMTSZ
 40
0.0
  9
$DIMTOL
 70
     0
  9
$DIMLIM
 70
     0
  9
$DIMTIH
 70
     0
  9
$DIMTOH
 70
     0
  9
$DIMSE1
 70
     0
  9
$DIMSE2
 70
     0
  9
$DIMTAD
 70
     3
  9
$DIMZIN
 70
     8
  9
$DIMBLK
  1

  9
$DIMASO
 70
     1
  9
$DIMSHO
 70
     1
  9
$DIMPOST
  1

  9
$DIMAPOST
  1

  9
$DIMALT
 70
     0
  9
$DIMALTD
 70
     2
  9
$DIMALTF
 40
25.399999999999999
  9
$DIMLFAC
 40
1.0
  9
$DIMTOFL
 70
     1
  9
$DIMTVP
 40
0.0
  9
$DIMTIX
 70
     1
  9
$DIMSOXD
 70
     0
  9
$DIMSAH
 70
     1
  9
$DIMBLK1
  1
OPEN
  9
$DIMBLK2
  1
OPEN
  9
$DIMSTYLE
  2
BIGT
  9
$DIMCLRD
 70
   256
  9
$DIMCLRE
 70
   256
  9
$DIMCLRT
 70
    40
  9
$DIMTFAC
 40
1.0
  9
$DIMGAP
 40
1.0
  9
$LUNITS
 70
     2
  9
$LUPREC
 70
     3
  9
$SKETCHINC
 40
1.0
  9
$FILLETRAD
 40
1.1999999999999991
  9
$AUNITS
 70
     0
  9
$AUPREC
 70
     3
  9
$MENU
  1
.
  9
$ELEVATION
 40
0.0
  9
$PELEVATION
 40
0.0
  9
$THICKNESS
 40
0.0
  9
$LIMCHECK
 70
     0
  9
$BLIPMODE
 70
     0
  9
$CHAMFERA
 40
10.0
  9
$CHAMFERB
 40
10.0
  9
$SKPOLY
 70
     0
  9
$TDCREATE
 40
2455251.6088764011
  9
$TDUPDATE
 40
2456314.3758528358
  9
$TDINDWG
 40
0.0523073611
  9
$TDUSRTIMER
 40
0.0523068171
  9
$USRTIMER
 70
     1
  9
$ANGBASE
 50
0.0
  9
$ANGDIR
 70
     0
  9
$PDMODE
 70
     1
  9
$PDSIZE
 40
-5.0
  9
$PLINEWID
 40
0.0
  9
$COORDS
 70
     0
  9
$SPLFRAME
 70
     0
  9
$SPLINETYPE
 70
     6
  9
$SPLINESEGS
 70
     8
  9
$ATTDIA
 70
     1
  9
$ATTREQ
 70
     1
  9
$HANDLING
 70
     1
  9
$HANDSEED
  5
12FC
  9
$SURFTAB1
 70
     6
  9
$SURFTAB2
 70
     6
  9
$SURFTYPE
 70
     6
  9
$SURFU
 70
     6
  9
$SURFV
 70
     6
  9
$UCSNAME
  2

  9
$UCSORG
 10
0.0
 20
0.0
 30
0.0
  9
$UCSXDIR
 10
1.0
 20
0.0
 30
0.0
  9
$UCSYDIR
 10
0.0
 20
1.0
 30
0.0
  9
$PUCSNAME
  2

  9
$PUCSORG
 10
0.0
 20
0.0
 30
0.0
  9
$PUCSXDIR
 10
1.0
 20
0.0
 30
0.0
  9
$PUCSYDIR
 10
0.0
 20
1.0
 30
0.0
  9
$USERI1
 70
     1
  9
$USERI2
 70
     0
  9
$USERI3
 70
     0
  9
$USERI4
 70
     0
  9
$USERI5
 70
     0
  9
$USERR1
 40
0.0
  9
$USERR2
 40
0.0
  9
$USERR3
 40
0.0
  9
$USERR4
 40
0.0
  9
$USERR5
 40
0.0
  9
$WORLDVIEW
 70
     1
  9
$SHADEDGE
 70
     3
  9
$SHADEDIF
 70
    70
  9
$TILEMODE
 70
     1
  9
$MAXACTVP
 70
    16
  9
$PLIMCHECK
 70
     0
  9
$PEXTMIN
 10
1.0000000000000000E+020
 20
1.0000000000000000E+020
 30
1.0000000000000000E+020
  9
$PEXTMAX
 10
-1.0000000000000000E+020
 20
-1.0000000000000000E+020
 30
-1.0000000000000000E+020
  9
$PLIMMIN
 10
0.0
 20
0.0
  9
$PLIMMAX
 10
420.0
 20
297.0
  9
$UNITMODE
 70
     0
  9
$VISRETAIN
 70
     0
  9
$PLINEGEN
 70
     0
  9
$PSLTSCALE
 70
     1
  0
ENDSEC
  0
SECTION
  2
TABLES
  0
TABLE
  2
VPORT
 70
     7
  0
VPORT
  2
*ACTIVE
 70
     0
 10
0.0
 20
0.0
 11
1.0
 21
1.0
 12
64.753566467768422
 22
9.4153919700000017
 13
0.0
 23
0.0
 14
7.0
 24
7.0
 15
7.0
 25
7.0
 16
0.0
 26
0.0
 36
1.0
 17
0.0
 27
0.0
 37
0.0
 40
109.8142964281856
 41
1.5151843817787409
 42
50.0
 43
0.0
 44
0.0
 50
0.0
 51
0.0
 71
     0
 72
  2000
 73
     1
 74
     0
 75
     0
 76
     0
 77
     0
 78
     0
  0
ENDTAB
  0
TABLE
  2
LTYPE
 70
    13
  0
LTYPE
  2
CONTINUOUS
 70
     0
  3
Solid line
 72
    65
 73
     0
 40
0.0
  0
LTYPE
  2
CENTER2
 70
     0
  3
___ _ ___ _ ___ _ ___ _ ___ _ ___ _ ___ _ ___ _
 72
    65
 73
     4
 40
1.125
 49
0.75
 49
-0.125
 49
0.125
 49
-0.125
  0
LTYPE
  2
HIDDEN2
 70
     0
  3
_ _ _ _ _ _ _ _ _ _ _ _ _ _ _ _ _ _ _ _ _ _ _ _
 72
    65
 73
     2
 40
0.1875
 49
0.125
 49
-0.0625
  0
LTYPE
  2
PHANTOM2
 70
     0
  3
___ _ _ ___ _ _ ___ _ _ ___ _ _ ___ _ _ ___ _ _
 72
    65
 73
     6
 40
1.25
 49
0.625
 49
-0.125
 49
0.125
 49
-0.125
 49
0.125
 49
-0.125
  0
LTYPE
  2
AMCONSTR
 70
     0
  3
_______________________
 72
    65
 73
     2
 40
9999.0
 49
9999.0
 49
0.0
  0
LTYPE
  2
AM_ISO02W050
 70
     0
  3
__ __ __ __ __ __ __ __ __ __ __ __ __ __ __
 72
    65
 73
     2
 40
7.5
 49
6.0
 49
-1.5
  0
LTYPE
  2
HIDDEN
 70
     0
  3
Hidden __ __ __ __ __ __ __ __ __ __ __ __ __ _
 72
    65
 73
     2
 40
9.5249999999999986
 49
6.3499999999999988
 49
-3.1749999999999989
  0
LTYPE
  2
CENTER
 70
     0
  3
____ _ ____ _ ____ _ ____ _ ____ _ ____ _ ____ 
 72
    65
 73
     4
 40
2.0
 49
1.25
 49
-0.25
 49
0.25
 49
-0.25
  0
LTYPE
  2
ACJISTGB
 70
     0
  3
__ . . __ . .
 72
    65
 73
     6
 40
9.0
 49
4.0
 49
-1.0
 49
1.0
 49
-1.0
 49
1.0
 49
-1.0
  0
LTYPE
  2
ACJISTGL
 70
     0
  3
_ _ _ _ _
 72
    65
 73
     2
 40
3.0
 49
2.0
 49
-1.0
  0
LTYPE
  2
ACISOWELD
 70
     0
  3
_ _ _ _ _
 72
    65
 73
     2
 40
2.0
 49
2.0
 49
-1.0
  0
LTYPE
  2
ACISOTGB
 70
     0
  3
__ . . __ . .
 72
    65
 73
     6
 40
9.0
 49
4.0
 49
-1.0
 49
1.0
 49
-1.0
 49
1.0
 49
-1.0
  0
LTYPE
  2
ACISOTGL
 70
     0
  3
_ _ _ _ _
 72
    65
 73
     2
 40
3.0
 49
2.0
 49
-1.0
  0
ENDTAB
  0
TABLE
  2
LAYER
 70
     9
  0
LAYER
  2
0
 70
     0
 62
     7
  6
CONTINUOUS
  0
LAYER
  2
240
 70
     0
 62
     4
  6
CONTINUOUS
  0
LAYER
  2
241
 70
     0
 62
   211
  6
CONTINUOUS
  0
LAYER
  2
242
 70
     0
 62
     3
  6
CONTINUOUS
  0
LAYER
  2
245
 70
     0
 62
     2
  6
CENTER2
  0
LAYER
  2
250
 70
     0
 62
     3
  6
CONTINUOUS
  0
LAYER
  2
DEFPOINTS
 70
     0
 62
     7
  6
CONTINUOUS
  0
ENDTAB
  0
TABLE
  2
STYLE
 70
     6
  0
STYLE
  2
STANDARD
 70
     0
 40
0.0
 41
1.0
 50
0.0
 71
     0
 42
3.0
  3
romans.shx
  4
BIGFONT.SHX
  0
STYLE
  2
YOKO
 70
     0
 40
0.0
 41
1.0
 50
0.0
 71
     0
 42
3.0
  3
romans.shx
  4
extfont.shx
  0
STYLE
  2
ACJISGDT
 70
     0
 40
0.0
 41
1.0
 50
0.0
 71
     0
 42
3.0
  3
amgdt.shx
  4
extfont.shx
  0
STYLE
  2
ACJISTS
 70
     0
 40
1.0
 41
1.0
 50
0.0
 71
     0
 42
3.0
  3
amgdt.shx
  4
extfont.shx
  0
STYLE
  2
ACISOTS
 70
     0
 40
1.0
 41
1.0
 50
0.0
 71
     0
 42
3.0
  3
amgdt.shx
  4
extfont.shx
  0
STYLE
  2
ACISOGDT
 70
     0
 40
0.0
 41
1.0
 50
0.0
 71
     0
 42
3.0
  3
amgdt.shx
  4
extfont.shx
  0
ENDTAB
  0
TABLE
  2
VIEW
 70
     3
  0
VIEW
  2
OLE1
 70
     0
 40
111.66386138
 10
61.501786350000003
 20
9.4153919699999982
 41
159.88557986000001
 11
0.0
 21
0.0
 31
1.0
 12
0.0
 22
0.0
 32
0.0
 42
50.0
 43
0.0
 44
0.0
 50
0.0
 71
     0
  0
VIEW
  2
OLE2
 70
     0
 40
111.65866525
 10
61.50178614
 20
9.4153919699999982
 41
159.87813980000001
 11
0.0
 21
0.0
 31
1.0
 12
0.0
 22
0.0
 32
0.0
 42
50.0
 43
0.0
 44
0.0
 50
0.0
 71
     0
  0
VIEW
  2
OLE3
 70
     0
 40
109.80952838
 10
61.50178614
 20
9.4153919699999982
 41
159.87812163000001
 11
0.0
 21
0.0
 31
1.0
 12
0.0
 22
0.0
 32
0.0
 42
50.0
 43
0.0
 44
0.0
 50
0.0
 71
     0
  0
ENDTAB
  0
TABLE
  2
UCS
 70
     0
  0
ENDTAB
  0
TABLE
  2
APPID
 70
    31
  0
APPID
  2
ACAD
 70
     0
  0
APPID
  2
GLOBAL
 70
     0
  0
APPID
  2
DETAIL
 70
     0
  0
APPID
  2
GRPNAME
 70
     0
  0
APPID
  2
GPARA
 70
     0
  0
APPID
  2
DCO15
 70
     0
  0
APPID
  2
ITEMNAME
 70
     0
  0
APPID
  2
GRADE_0
 70
     0
  0
APPID
  2
CONTENTBLOCKICON
 70
     0
  0
APPID
  2
MCAD_NO_VIS
 70
     0
  0
APPID
  2
ACAD_TEMP_GRAPHIC
 70
     0
  0
APPID
  2
ACATTRIBSERVICES
 70
     0
  0
APPID
  2
GENIUS_GENSCREG_15
 70
     0
  0
APPID
  2
GENIUS_GENODEF_13
 70
     0
  0
APPID
  2
GENIUS_GENOBJ-N-SDF_13
 70
     0
  0
APPID
  2
GENIUS_GENREC_14
 70
     0
  0
APPID
  2
GENIUS_GENOBJ-N-REC_13
 70
     0
  0
APPID
  2
GENIUS_GENDIMSH_14
 70
     0
  0
APPID
  2
GENIUS_GENOBJ-N-DIM_13
 70
     0
  0
APPID
  2
GENIUS_GENDIM_13
 70
     0
  0
APPID
  2
GENIUS_GENDTOL_13
 70
     0
  0
APPID
  2
GENIUS_GENOLIS_13
 70
     0
  0
APPID
  2
GENIUS_GENOENT_13
 70
     0
  0
APPID
  2
GENIUS_GENOBJ-F-FEM_13
 70
     0
  0
APPID
  2
GENIUS_GENOREF_13
 70
     0
  0
APPID
  2
GENIUS_GEFFEM_13
 70
     0
  0
APPID
  2
GENIUS_GEFFEMP_13
 70
     0
  0
APPID
  2
AD_DRAW
 70
     0
  0
APPID
  2
DESIGNERASSEMBLIES
 70
     0
  0
APPID
  2
ACADM_DIM_EDIT
 70
     0
  0
APPID
  2
AMDT_DM_ADJ
 70
     0
  0
ENDTAB
  0
TABLE
  2
DIMSTYLE
 70
    23
  0
DIMSTYLE
  2
BIGT
 70
     0
  3

  4

  5
OPEN
  6

  7

 40
1.0
 41
2.2299999999999991
 42
0.5
 43
7.0
 44
1.0
 45
0.0
 46
0.0
 47
0.0
 48
0.01
140
2.7999999999999989
141
0.0
142
0.0
143
25.399999999999999
144
1.0
145
0.0
146
1.0
147
1.0
 71
     0
 72
     0
 73
     0
 74
     0
 75
     0
 76
     0
 77
     3
 78
     9
170
     0
171
     2
172
     1
173
     0
174
     1
175
     0
176
   256
177
   256
178
    40
  0
DIMSTYLE
  2
BIGT$0
 70
     0
  3

  4

  5
OPEN
  6

  7

 40
1.0
 41
2.2299999999999991
 42
0.5
 43
7.0
 44
1.0
 45
0.0
 46
0.0
 47
0.0
 48
0.01
140
2.7999999999999989
141
0.0
142
0.0
143
25.399999999999999
144
1.0
145
0.0
146
1.0
147
1.0
 71
     0
 72
     0
 73
     0
 74
     0
 75
     0
 76
     0
 77
     3
 78
     9
170
     0
171
     2
172
     1
173
     0
174
     0
175
     0
176
   256
177
   256
178
    40
  0
DIMSTYLE
  2
BIGT$2
 70
     0
  3

  4

  5
OPEN
  6

  7

 40
1.0
 41
2.2299999999999991
 42
0.5
 43
7.0
 44
1.0
 45
0.0
 46
0.0
 47
0.0
 48
0.01
140
2.7999999999999989
141
0.0
142
0.0
143
25.399999999999999
144
1.0
145
0.0
146
1.0
147
1.0
 71
     0
 72
     0
 73
     0
 74
     0
 75
     0
 76
     0
 77
     3
 78
     9
170
     0
171
     2
172
     1
173
     0
174
     0
175
     0
176
   256
177
   256
178
    40
  0
DIMSTYLE
  2
BIGT$3
 70
     0
  3

  4

  5
OPEN
  6

  7

 40
1.0
 41
2.2299999999999991
 42
0.5
 43
2.5
 44
1.0
 45
0.0
 46
0.0
 47
0.0
 48
0.01
140
2.7999999999999989
141
0.0
142
0.0
143
25.399999999999999
144
1.0
145
0.0
146
1.0
147
1.0
 71
     0
 72
     0
 73
     0
 74
     0
 75
     0
 76
     0
 77
     3
 78
     9
170
     0
171
     2
172
     1
173
     0
174
     0
175
     0
176
   256
177
   256
178
    40
  0
DIMSTYLE
  2
BIGT$4
 70
     0
  3

  4

  5
OPEN
  6

  7

 40
1.0
 41
2.2299999999999991
 42
0.5
 43
2.5
 44
1.0
 45
0.0
 46
0.0
 47
0.0
 48
0.01
140
2.7999999999999989
141
0.0
142
0.0
143
25.399999999999999
144
1.0
145
0.0
146
1.0
147
1.0
 71
     0
 72
     0
 73
     0
 74
     0
 75
     0
 76
     0
 77
     3
 78
     9
170
     0
171
     2
172
     1
173
     0
174
     0
175
     0
176
   256
177
   256
178
    40
  0
DIMSTYLE
  2
BIGT$6
 70
     0
  3

  4

  5
OPEN
  6

  7

 40
1.0
 41
2.2299999999999991
 42
0.5
 43
2.5
 44
1.0
 45
0.0
 46
0.0
 47
0.0
 48
0.01
140
2.7999999999999989
141
0.0
142
0.0
143
25.399999999999999
144
1.0
145
0.0
146
1.0
147
1.0
 71
     0
 72
     0
 73
     0
 74
     0
 75
     0
 76
     0
 77
     3
 78
     9
170
     0
171
     2
172
     1
173
     0
174
     0
175
     0
176
   256
177
   256
178
    40
  0
DIMSTYLE
  2
BIGT$7
 70
     0
  3

  4

  5
OPEN
  6

  7

 40
0.0
 41
2.2299999999999991
 42
0.5
 43
7.0
 44
1.0
 45
0.0
 46
0.0
 47
0.0
 48
0.01
140
2.7999999999999989
141
0.0
142
0.0
143
25.399999999999999
144
1.0
145
0.0
146
1.0
147
1.0
 71
     0
 72
     0
 73
     0
 74
     0
 75
     0
 76
     0
 77
     3
 78
     9
170
     0
171
     2
172
     0
173
     0
174
     0
175
     0
176
   256
177
   256
178
    40
  0
DIMSTYLE
  2
BIGT$SF
 70
     0
  3

  4

  5
OPEN
  6

  7

 40
1.0
 41
2.2299999999999991
 42
0.5
 43
7.0
 44
1.0
 45
0.0
 46
0.0
 47
0.0
 48
0.0
140
2.7999999999999989
141
0.0
142
0.0
143
25.399999999999999
144
1.0
145
0.0
146
1.0
147
1.0
 71
     0
 72
     0
 73
     0
 74
     0
 75
     0
 76
     0
 77
     3
 78
     9
170
     0
171
     2
172
     1
173
     0
174
     0
175
     0
176
   256
177
   256
178
    40
  0
DIMSTYLE
  2
BIGT$SH
 70
     0
  3

  4

  5
OPEN
  6

  7

 40
1.0
 41
2.2299999999999991
 42
0.5
 43
7.0
 44
1.0
 45
0.0
 46
0.0
 47
0.0
 48
0.0
140
2.7999999999999989
141
0.0
142
0.0
143
25.399999999999999
144
1.0
145
0.0
146
1.0
147
1.0
 71
     0
 72
     0
 73
     0
 74
     0
 75
     0
 76
     0
 77
     3
 78
     9
170
     0
171
     2
172
     1
173
     0
174
     0
175
     0
176
   256
177
   256
178
    40
  0
DIMSTYLE
  2
AM_ISO
 70
     0
  3

  4
"
  5

  6

  7

 40
1.0
 41
2.5
 42
1.0
 43
10.0
 44
1.0
 45
0.0
 46
0.0
 47
0.1
 48
0.1
140
3.5
141
0.0
142
0.0
143
0.0393701
144
1.0
145
0.0
146
0.71
147
1.5
 71
     0
 72
     0
 73
     0
 74
     0
 75
     0
 76
     0
 77
     1
 78
     8
170
     0
171
     2
172
     1
173
     0
174
     0
175
     0
176
   256
177
   256
178
     2
  0
DIMSTYLE
  2
AM_ISO$3
 70
     0
  3

  4
"
  5

  6

  7

 40
1.0
 41
2.5
 42
1.0
 43
10.0
 44
1.0
 45
0.0
 46
0.0
 47
0.1
 48
0.1
140
3.5
141
0.0
142
0.0
143
0.0393701
144
1.0
145
0.0
146
0.71
147
1.5
 71
     0
 72
     0
 73
     0
 74
     1
 75
     0
 76
     0
 77
     1
 78
     8
170
     0
171
     2
172
     0
173
     0
174
     0
175
     0
176
   256
177
   256
178
     2
  0
DIMSTYLE
  2
AM_ISO$4
 70
     0
  3

  4
"
  5

  6

  7

 40
1.0
 41
2.5
 42
1.0
 43
10.0
 44
1.0
 45
0.0
 46
0.0
 47
0.1
 48
0.1
140
3.5
141
0.0
142
0.0
143
0.0393701
144
1.0
145
0.0
146
0.71
147
1.5
 71
     0
 72
     0
 73
     0
 74
     1
 75
     0
 76
     0
 77
     1
 78
     8
170
     0
171
     2
172
     0
173
     0
174
     0
175
     0
176
   256
177
   256
178
     2
  0
DIMSTYLE
  2
AM_ISO$6
 70
     0
  3

  4
"
  5

  6

  7

 40
1.0
 41
2.5
 42
1.0
 43
10.0
 44
1.0
 45
0.0
 46
0.0
 47
0.1
 48
0.1
140
3.5
141
0.0
142
0.0
143
0.0393701
144
1.0
145
0.0
146
0.71
147
1.5
 71
     0
 72
     0
 73
     0
 74
     0
 75
     0
 76
     0
 77
     0
 78
     8
170
     0
171
     2
172
     1
173
     0
174
     0
175
     0
176
   256
177
   256
178
     2
  0
DIMSTYLE
  2
AM_ISO$7
 70
     0
  3

  4
"
  5

  6

  7

 40
1.0
 41
2.5
 42
1.0
 43
10.0
 44
1.0
 45
0.0
 46
0.0
 47
0.1
 48
0.1
140
5.0
141
0.0
142
0.0
143
0.0393701
144
1.0
145
0.0
146
0.71
147
1.5
 71
     0
 72
     0
 73
     0
 74
     0
 75
     0
 76
     0
 77
     1
 78
     8
170
     0
171
     2
172
     1
173
     0
174
     0
175
     0
176
   256
177
   256
178
     2
  0
DIMSTYLE
  2
AM_ISO$SF
 70
     0
  3

  4
"
  5

  6

  7

 40
1.0
 41
2.5
 42
1.0
 43
10.0
 44
1.0
 45
0.0
 46
0.0
 47
0.1
 48
0.1
140
3.5
141
0.0
142
0.0
143
0.0393701
144
1.0
145
0.0
146
0.71
147
1.5
 71
     0
 72
     0
 73
     0
 74
     0
 75
     1
 76
     1
 77
     1
 78
     8
170
     0
171
     2
172
     1
173
     0
174
     0
175
     0
176
   256
177
   256
178
     2
  0
DIMSTYLE
  2
AM_ISO$SH
 70
     0
  3

  4
"
  5

  6
GENAXEH
  7

 40
1.0
 41
2.5
 42
1.0
 43
10.0
 44
1.0
 45
0.0
 46
0.0
 47
0.1
 48
0.1
140
3.5
141
0.0
142
0.0
143
0.0393701
144
2.0
145
0.0
146
0.71
147
1.5
 71
     0
 72
     0
 73
     0
 74
     0
 75
     1
 76
     1
 77
     1
 78
     8
170
     0
171
     2
172
     1
173
     1
174
     0
175
     0
176
   256
177
   256
178
     2
  0
DIMSTYLE
  2
TECHNICAL_OSAKA
 70
     0
  3

  4
"
  5
OPEN30
  6

  7

 40
1.0
 41
2.5
 42
1.0
 43
10.0
 44
1.0
 45
0.0
 46
0.0
 47
0.1
 48
0.1
140
2.7999999999999989
141
0.0
142
0.0
143
0.0393701
144
1.0
145
0.0
146
0.71
147
1.5
 71
     0
 72
     0
 73
     0
 74
     0
 75
     0
 76
     0
 77
     3
 78
     8
170
     0
171
     2
172
     1
173
     0
174
     0
175
     0
176
   256
177
   256
178
    40
  0
DIMSTYLE
  2
TECHNICAL_OSAKA$3
 70
     0
  3

  4
"
  5
OPEN30
  6

  7

 40
1.0
 41
2.5
 42
1.0
 43
10.0
 44
1.0
 45
0.0
 46
0.0
 47
0.1
 48
0.1
140
2.7999999999999989
141
0.0
142
0.0
143
0.0393701
144
1.0
145
0.0
146
0.71
147
1.5
 71
     0
 72
     0
 73
     0
 74
     1
 75
     0
 76
     0
 77
     3
 78
     8
170
     0
171
     2
172
     0
173
     0
174
     0
175
     0
176
   256
177
   256
178
    40
  0
DIMSTYLE
  2
TECHNICAL_OSAKA$4
 70
     0
  3

  4
"
  5
OPEN30
  6

  7

 40
1.0
 41
2.5
 42
1.0
 43
10.0
 44
1.0
 45
0.0
 46
0.0
 47
0.1
 48
0.1
140
2.7999999999999989
141
0.0
142
0.0
143
0.0393701
144
1.0
145
0.0
146
0.71
147
1.5
 71
     0
 72
     0
 73
     0
 74
     1
 75
     0
 76
     0
 77
     3
 78
     8
170
     0
171
     2
172
     0
173
     0
174
     0
175
     0
176
   256
177
   256
178
    40
  0
DIMSTYLE
  2
TECHNICAL_OSAKA$6
 70
     0
  3

  4
"
  5
OPEN30
  6

  7

 40
1.0
 41
2.5
 42
1.0
 43
10.0
 44
1.0
 45
0.0
 46
0.0
 47
0.1
 48
0.1
140
2.7999999999999989
141
0.0
142
0.0
143
0.0393701
144
1.0
145
0.0
146
0.71
147
1.5
 71
     0
 72
     0
 73
     0
 74
     0
 75
     0
 76
     0
 77
     0
 78
     8
170
     0
171
     2
172
     1
173
     0
174
     0
175
     0
176
   256
177
   256
178
    40
  0
DIMSTYLE
  2
TECHNICAL_OSAKA$7
 70
     0
  3

  4
"
  5
OPEN30
  6

  7

 40
1.0
 41
2.5
 42
1.0
 43
10.0
 44
1.0
 45
0.0
 46
0.0
 47
0.1
 48
0.1
140
2.7999999999999989
141
0.0
142
0.0
143
0.0393701
144
1.0
145
0.0
146
0.71
147
1.5
 71
     0
 72
     0
 73
     0
 74
     0
 75
     0
 76
     0
 77
     3
 78
     8
170
     0
171
     2
172
     1
173
     0
174
     0
175
     0
176
   256
177
   256
178
    40
  0
DIMSTYLE
  2
TECHNICAL_OSAKA$SF
 70
     0
  3

  4
"
  5
OPEN30
  6
OPEN30
  7
OPEN30
 40
1.0
 41
2.5
 42
1.0
 43
10.0
 44
1.0
 45
0.0
 46
0.0
 47
0.1
 48
0.1
140
3.5
141
0.0
142
0.0
143
0.0393701
144
1.0
145
0.0
146
0.71
147
1.5
 71
     0
 72
     0
 73
     0
 74
     0
 75
     1
 76
     1
 77
     3
 78
     8
170
     0
171
     2
172
     1
173
     0
174
     0
175
     0
176
   256
177
   256
178
    40
  0
DIMSTYLE
  2
TECHNICAL_OSAKA$SH
 70
     0
  3

  4
"
  5
OPEN30
  6
GENAXEH
  7
OPEN30
 40
1.0
 41
2.5
 42
1.0
 43
10.0
 44
1.0
 45
0.0
 46
0.0
 47
0.1
 48
0.1
140
3.5
141
0.0
142
0.0
143
0.0393701
144
2.0
145
0.0
146
0.71
147
1.5
 71
     0
 72
     0
 73
     0
 74
     0
 75
     1
 76
     1
 77
     3
 78
     8
170
     0
171
     2
172
     1
173
     1
174
     0
175
     0
176
   256
177
   256
178
    40
  0
ENDTAB
  0
ENDSEC
  0
SECTION
  2
BLOCKS
  0
BLOCK
  8
0
  2
$MODEL_SPACE
 70
     0
 10
0.0
 20
0.0
 30
0.0
  3
$MODEL_SPACE
  1

  0
ENDBLK
  5
1C
  8
0
  0
BLOCK
 67
     1
  8
0
  2
$PAPER_SPACE
 70
     0
 10
0.0
 20
0.0
 30
0.0
  3
$PAPER_SPACE
  1

  0
ENDBLK
  5
19
 67
     1
  8
0
  0
BLOCK
  8
0
  2
_OPEN
 70
     0
 10
0.0
 20
0.0
 30
0.0
  3
_OPEN
  1

  0
LINE
  5
11D2
  8
0
  6
BYBLOCK
 62
     0
 10
-1.0
 20
0.1666666666666666
 30
0.0
 11
0.0
 21
0.0
 31
0.0
  0
LINE
  5
11D3
  8
0
  6
BYBLOCK
 62
     0
 10
-1.0
 20
-0.1666666666666666
 30
0.0
 11
0.0
 21
0.0
 31
0.0
  0
LINE
  5
11D4
  8
0
  6
BYBLOCK
 62
     0
 10
0.0
 20
0.0
 30
0.0
 11
-1.0
 21
0.0
 31
0.0
  0
ENDBLK
  5
11D5
  8
0
  0
BLOCK
  8
0
  2
矢印なし
 70
     0
 10
0.0
 20
0.0
 30
0.0
  3
矢印なし
  1

  0
ENDBLK
  5
6E5
  8
0
  0
BLOCK
  8
0
  2
GENAXEH
 70
     0
 10
0.0
 20
0.0
 30
0.0
  3
GENAXEH
  1

  0
LINE
  5
11FD
  8
0
 10
-1.0
 20
0.0
 30
0.0
 11
1.0
 21
0.0
 31
0.0
  0
ENDBLK
  5
11FE
  8
0
  0
BLOCK
  8
0
  2
_OPEN30
 70
     0
 10
0.0
 20
0.0
 30
0.0
  3
_OPEN30
  1

  0
LINE
  5
1222
  8
0
  6
BYBLOCK
 62
     0
 10
-1.0
 20
0.26794919
 30
0.0
 11
0.0
 21
0.0
 31
0.0
  0
LINE
  5
1223
  8
0
  6
BYBLOCK
 62
     0
 10
0.0
 20
0.0
 30
0.0
 11
-1.0
 21
-0.26794919
 31
0.0
  0
LINE
  5
1224
  8
0
  6
BYBLOCK
 62
     0
 10
0.0
 20
0.0
 30
0.0
 11
-1.0
 21
0.0
 31
0.0
  0
ENDBLK
  5
1225
  8
0
  0
BLOCK
  8
0
  2
*U11
 70
     1
 10
0.0
 20
0.0
 30
0.0
  3
*U11
  1

  0
TEXT
  5
12E3
  8
250
 62
    40
 10
-15.0
 20
-4.0714285714285712
 30
0.0
 40
3.0
  1
\U+2205
 50
90.0
  0
TEXT
  5
12E4
  8
250
 62
    40
 10
-15.0
 20
-1.357142857142857
 30
0.0
 40
3.0
  1
20
 50
90.0
  0
ENDBLK
  5
12E6
  8
0
  0
BLOCK
  8
0
  2
*U12
 70
     1
 10
0.0
 20
0.0
 30
0.0
  3
*U12
  1

  0
TEXT
  5
12E8
  8
250
 62
    40
 10
46.351192500000003
 20
22.0
 30
0.0
 40
3.0
  1
100
  0
ENDBLK
  5
12EA
  8
0
  0
BLOCK
  8
0
  2
*U13
 70
     1
 10
0.0
 20
0.0
 30
0.0
  3
*U13
  1

  0
TEXT
  5
12EC
  8
250
 62
    40
 10
138.99987308999999
 20
-3.8952380952380938
 30
0.0
 40
3.0
  1
\U+2205
 50
90.0
  0
TEXT
  5
12ED
  8
250
 62
    40
 10
138.89987309
 20
-1.1809523809523801
 30
0.0
 40
2.7999999999999989
  1
20
 50
90.0
  0
ENDBLK
  5
12EF
  8
0
  0
BLOCK
  8
0
  2
*U14
 70
     1
 10
0.0
 20
0.0
 30
0.0
  3
*U14
  1

  0
TEXT
  5
12F1
  8
250
 62
    40
 10
131.99987308999999
 20
-8.1466666666666665
 30
0.0
 40
2.7999999999999989
  1
max.φ6
 50
90.0
  0
ENDBLK
  5
12F3
  8
0
  0
BLOCK
  8
0
  2
*U15
 70
     1
 10
0.0
 20
0.0
 30
0.0
  3
*U15
  1

  0
TEXT
  5
12F5
  8
250
 62
    40
 10
109.07130166142851
 20
22.0
 30
0.0
 40
3.0
  1
24
  0
ENDBLK
  5
12F7
  8
0
  0
ENDSEC
  0
SECTION
  2
ENTITIES
  0
INSERT
  5
6E6
  8
245
  2
矢印なし
 10
175.62382697000001
 20
90.551235719999994
 30
0.0
  0
LINE
  5
812
  8
250
 10
13.14916605
 20
-21.159710159999999
 30
0.0
 11
-1.7841672900000001
 21
-21.159710159999999
 31
0.0
1001
ITEMNAME
1000
LNSP2
  0
TEXT
  5
816
  8
241
 10
0.0
 20
35.0
 30
0.0
 40
5.0
  1
ST20-NBS6-100
  7
YOKO
 11
0.0
 21
35.0
 31
0.0
 73
     1
  0
POINT
  5
864
  8
245
 62
     2
 10
334.00021194999999
 20
133.45765904000001
 30
0.0
  0
LINE
  5
1238
  8
240
  6
CONTINUOUS
 10
1.1999999999999991
 20
10.0
 30
0.0
 11
97.949873089999997
 21
10.0
 31
0.0
  0
LINE
  5
1239
  8
240
  6
CONTINUOUS
 10
1.1999999999999991
 20
-10.0
 30
0.0
 11
97.949873089999997
 21
-10.0
 31
0.0
  0
LINE
  5
123A
  8
245
  6
CENTER2
 10
-1.0
 20
0.0
 30
0.0
 11
124.99987308999999
 21
0.0
 31
0.0
  0
LINE
  5
123B
  8
240
  6
CONTINUOUS
 10
0.0
 20
8.8000000000000007
 30
0.0
 11
0.0
 21
0.0
 31
0.0
  0
LINE
  5
123C
  8
240
  6
CONTINUOUS
 10
0.0
 20
-8.8000000000000007
 30
0.0
 11
0.0
 21
0.0
 31
0.0
  0
ARC
  5
123D
  8
240
  6
CONTINUOUS
 10
1.1999999999999991
 20
-8.8000000000000007
 30
0.0
 40
1.1999999999999991
 50
180.0
 51
270.0
  0
ARC
  5
123E
  8
240
  6
CONTINUOUS
 10
1.1999999999999991
 20
8.8000000000000007
 30
0.0
 40
1.1999999999999991
 50
90.0
 51
180.0
  0
LINE
  5
123F
  8
240
  6
CONTINUOUS
 10
108.99987308999999
 20
-9.75
 30
0.0
 11
97.949873089999997
 21
-9.75
 31
0.0
1001
GRPNAME
1000
PASTMD0X
  0
LINE
  5
1240
  8
240
  6
CONTINUOUS
 10
108.99987308999999
 20
9.75
 30
0.0
 11
97.949873089999997
 21
9.75
 31
0.0
1001
GRPNAME
1000
PASTMD0X
  0
LINE
  5
1241
  8
242
  6
HIDDEN2
 10
104.69753423
 20
3.5
 30
0.0
 11
74.52432915
 21
3.5
 31
0.0
  0
LINE
  5
1242
  8
241
  6
HIDDEN2
 10
74.697534230000002
 20
3.2000000000000002
 30
0.0
 11
104.69753423
 21
3.2000000000000002
 31
0.0
  0
LINE
  5
1243
  8
241
  6
CONTINUOUS
 10
97.949873089999997
 20
0.0
 30
0.0
 11
97.949873089999997
 21
9.75
 31
0.0
  0
LINE
  5
1244
  8
241
  6
CONTINUOUS
 10
97.949873089999997
 20
0.0
 30
0.0
 11
97.949873089999997
 21
-9.75
 31
0.0
  0
LINE
  5
1245
  8
240
  6
CONTINUOUS
 10
97.949873089999997
 20
-10.0
 30
0.0
 11
97.949873089999997
 21
-9.75
 31
0.0
  0
LINE
  5
1246
  8
240
  6
CONTINUOUS
 10
97.949873089999997
 20
10.0
 30
0.0
 11
97.949873089999997
 21
9.75
 31
0.0
  0
LINE
  5
1247
  8
241
  6
HIDDEN2
 10
118.49987308999999
 20
6.0
 30
0.0
 11
113.80221195
 21
6.0
 31
0.0
1001
GRPNAME
1000
PASTMD0X
  0
LINE
  5
1248
  8
240
  6
CONTINUOUS
 10
114.49987308999999
 20
10.0
 30
0.0
 11
122.99987308999999
 21
10.0
 31
0.0
1001
GRPNAME
1000
PASTMD0X
  0
LINE
  5
1249
  8
241
  6
CONTINUOUS
 10
120.49987308999999
 20
6.0433154599999988
 30
0.0
 11
114.49987308999999
 21
6.0433154599999988
 31
0.0
1001
GRPNAME
1000
PASTMD0X
  0
LINE
  5
124A
  8
241
  6
CONTINUOUS
 10
120.49987308999999
 20
5.3325317500000002
 30
0.0
 11
114.49987308999999
 21
5.3325317500000002
 31
0.0
1001
GRPNAME
1000
PASTMD0X
  0
LINE
  5
124B
  8
241
  6
CONTINUOUS
 10
120.49987308999999
 20
3.8782519500000001
 30
0.0
 11
114.49987308999999
 21
3.8782519500000001
 31
0.0
1001
GRPNAME
1000
PASTMD0X
  0
LINE
  5
124C
  8
240
  6
CONTINUOUS
 10
114.49987308999999
 20
-10.0
 30
0.0
 11
122.99987308999999
 21
-10.0
 31
0.0
1001
GRPNAME
1000
PASTMD0X
  0
LINE
  5
124D
  8
241
  6
CONTINUOUS
 10
120.49987308999999
 20
-6.0433154599999988
 30
0.0
 11
114.49987308999999
 21
-6.0433154599999988
 31
0.0
1001
GRPNAME
1000
PASTMD0X
  0
LINE
  5
124E
  8
241
  6
CONTINUOUS
 10
120.49987308999999
 20
-3.8782519500000001
 30
0.0
 11
114.49987308999999
 21
-3.8782519500000001
 31
0.0
1001
GRPNAME
1000
PASTMD0X
  0
LINE
  5
124F
  8
241
  6
CONTINUOUS
 10
120.49987308999999
 20
-5.3325317500000002
 30
0.0
 11
114.49987308999999
 21
-5.3325317500000002
 31
0.0
1001
GRPNAME
1000
PASTMD0X
  0
LINE
  5
1250
  8
241
  6
HIDDEN2
 10
109.69753423
 20
3.5489576500000002
 30
0.0
 11
121.14609778000001
 21
4.75225016
 31
0.0
1001
GRPNAME
1000
PASTMD0X
  0
LINE
  5
1251
  8
241
  6
HIDDEN2
 10
109.74609778
 20
3.0
 30
0.0
 11
123.99987308999999
 21
3.0
 31
0.0
1001
GRPNAME
1000
PASTMD0X
  0
LINE
  5
1252
  8
241
  6
CONTINUOUS
 10
99.999873089999994
 20
0.0
 30
0.0
 11
99.999873089999994
 21
9.75
 31
0.0
  0
LINE
  5
1253
  8
241
 10
109.99987308999999
 20
7.0
 30
0.0
 11
109.99987308999999
 21
0.0
 31
0.0
  0
LINE
  5
1254
  8
241
 10
114.49987308999999
 20
6.0
 30
0.0
 11
114.49987308999999
 21
0.0
 31
0.0
  0
LINE
  5
1255
  8
242
  6
CONTINUOUS
 10
112.69753423
 20
6.0
 30
0.0
 11
112.69753423
 21
0.0
 31
0.0
1001
GRPNAME
1000
PASTMD0X
  0
LINE
  5
1256
  8
241
  6
HIDDEN2
 10
104.69753423
 20
3.75
 30
0.0
 11
104.69753423
 21
0.0
 31
0.0
1001
GRPNAME
1000
PASTMD0X
  0
LINE
  5
1257
  8
241
  6
HIDDEN2
 10
109.69753423
 20
3.75
 30
0.0
 11
109.69753423
 21
0.0
 31
0.0
1001
GRPNAME
1000
PASTMD0X
  0
LINE
  5
1258
  8
241
  6
HIDDEN2
 10
101.49987308999999
 20
-8.25
 30
0.0
 11
109.99987308999999
 21
-8.25
 31
0.0
  0
LINE
  5
1259
  8
241
  6
CONTINUOUS
 10
99.999873089999994
 20
0.0
 30
0.0
 11
99.999873089999994
 21
-9.75
 31
0.0
  0
LINE
  5
125A
  8
241
  6
HIDDEN2
 10
101.49987308999999
 20
-9.75
 30
0.0
 11
101.49987308999999
 21
-8.25
 31
0.0
  0
LINE
  5
125B
  8
241
 10
109.99987308999999
 20
-7.0
 30
0.0
 11
109.99987308999999
 21
0.0
 31
0.0
  0
LINE
  5
125C
  8
241
 10
114.49987308999999
 20
-6.0
 30
0.0
 11
114.49987308999999
 21
0.0
 31
0.0
  0
LINE
  5
125D
  8
242
  6
CONTINUOUS
 10
112.69753423
 20
-6.0
 30
0.0
 11
112.69753423
 21
0.0
 31
0.0
1001
GRPNAME
1000
PASTMD0X
  0
LINE
  5
125E
  8
240
  6
CONTINUOUS
 10
114.49987308999999
 20
-6.0
 30
0.0
 11
110.99987308999999
 21
-6.0
 31
0.0
1001
GRPNAME
1000
PASTMD0X
  0
ARC
  5
125F
  8
240
  6
CONTINUOUS
 10
110.99987308999999
 20
-7.0
 30
0.0
 40
1.0
 50
89.999999990000006
 51
179.99999998999999
1001
GRPNAME
1000
PASTMD0X
  0
LINE
  5
1260
  8
240
  6
CONTINUOUS
 10
109.99987308999999
 20
-8.75
 30
0.0
 11
109.99987308999999
 21
-7.0
 31
0.0
1001
GRPNAME
1000
PASTMD0X
  0
ARC
  5
1261
  8
240
  6
CONTINUOUS
 10
108.99987308999999
 20
-8.75
 30
0.0
 40
1.0
 50
270.0
 51
0.0
1001
GRPNAME
1000
PASTMD0X
  0
LINE
  5
1262
  8
242
  6
CONTINUOUS
 10
114.49987308999999
 20
-5.5
 30
0.0
 11
112.69753423
 21
-5.5
 31
0.0
1001
GRPNAME
1000
PASTMD0X
  0
LINE
  5
1263
  8
240
  6
CONTINUOUS
 10
114.49987308999999
 20
-10.0
 30
0.0
 11
114.49987308999999
 21
-6.0
 31
0.0
1001
GRPNAME
1000
PASTMD0X
  0
LINE
  5
1264
  8
241
  6
HIDDEN2
 10
101.49987308999999
 20
8.25
 30
0.0
 11
109.99987308999999
 21
8.25
 31
0.0
  0
LINE
  5
1265
  8
241
  6
HIDDEN2
 10
104.69753423
 20
3.75
 30
0.0
 11
109.69753423
 21
3.75
 31
0.0
1001
GRPNAME
1000
PASTMD0X
  0
LINE
  5
1266
  8
241
  6
HIDDEN2
 10
101.49987308999999
 20
9.75
 30
0.0
 11
101.49987308999999
 21
8.25
 31
0.0
  0
LINE
  5
1267
  8
240
  6
CONTINUOUS
 10
109.99987308999999
 20
8.75
 30
0.0
 11
109.99987308999999
 21
7.0
 31
0.0
1001
GRPNAME
1000
PASTMD0X
  0
LINE
  5
1268
  8
240
  6
CONTINUOUS
 10
114.49987308999999
 20
10.0
 30
0.0
 11
114.49987308999999
 21
6.0
 31
0.0
1001
GRPNAME
1000
PASTMD0X
  0
LINE
  5
1269
  8
240
  6
CONTINUOUS
 10
114.49987308999999
 20
6.0
 30
0.0
 11
110.99987308999999
 21
6.0
 31
0.0
1001
GRPNAME
1000
PASTMD0X
  0
ARC
  5
126A
  8
240
  6
CONTINUOUS
 10
110.99987308999999
 20
7.0
 30
0.0
 40
1.0
 50
179.99999998000001
 51
269.99999997999998
1001
GRPNAME
1000
PASTMD0X
  0
LINE
  5
126B
  8
242
  6
CONTINUOUS
 10
112.69753423
 20
5.5
 30
0.0
 11
114.49987308999999
 21
5.5
 31
0.0
1001
GRPNAME
1000
PASTMD0X
  0
ARC
  5
126C
  8
240
  6
CONTINUOUS
 10
108.99987308999999
 20
8.75
 30
0.0
 40
1.0
 50
0.0
 51
90.0
1001
GRPNAME
1000
PASTMD0X
  0
LINE
  5
126D
  8
240
  6
CONTINUOUS
 10
123.99987308999999
 20
9.0
 30
0.0
 11
123.99987308999999
 21
0.0
 31
0.0
1001
GRPNAME
1000
PASTMD0X
  0
ARC
  5
126E
  8
240
  6
CONTINUOUS
 10
122.99987308999999
 20
-9.0
 30
0.0
 40
1.0
 50
270.0
 51
0.0
1001
GRPNAME
1000
PASTMD0X
  0
LINE
  5
126F
  8
241
  6
CONTINUOUS
 10
120.49987308999999
 20
-6.0433154599999988
 30
0.0
 11
120.49987308999999
 21
-3.8782519500000001
 31
0.0
1001
GRPNAME
1000
PASTMD0X
  0
LINE
  5
1270
  8
240
  6
CONTINUOUS
 10
123.99987308999999
 20
-9.0
 30
0.0
 11
123.99987308999999
 21
0.0
 31
0.0
1001
GRPNAME
1000
PASTMD0X
  0
ARC
  5
1271
  8
240
  6
CONTINUOUS
 10
122.99987308999999
 20
9.0
 30
0.0
 40
1.0
 50
0.0
 51
90.0
1001
GRPNAME
1000
PASTMD0X
  0
LINE
  5
1272
  8
241
  6
HIDDEN2
 10
118.49987308999999
 20
6.0
 30
0.0
 11
118.99987308999999
 21
5.5
 31
0.0
1001
GRPNAME
1000
PASTMD0X
  0
LINE
  5
1273
  8
241
  6
HIDDEN2
 10
118.99987308999999
 20
5.5
 30
0.0
 11
118.99987308999999
 21
4.5266728599999988
 31
0.0
1001
GRPNAME
1000
PASTMD0X
  0
LINE
  5
1274
  8
241
  6
CONTINUOUS
 10
120.49987308999999
 20
6.0433154599999988
 30
0.0
 11
120.49987308999999
 21
3.8782519500000001
 31
0.0
1001
GRPNAME
1000
PASTMD0X
  0
LINE
  5
1275
  8
241
  6
HIDDEN2
 10
123.99987308999999
 20
3.9106624299999999
 30
0.0
 11
122.54609778
 21
4.75
 31
0.0
1001
GRPNAME
1000
PASTMD0X
  0
LINE
  5
1276
  8
241
  6
HIDDEN2
 10
121.14609778000001
 20
4.0999999999999988
 30
0.0
 11
122.44609778
 21
4.0999999999999988
 31
0.0
1001
GRPNAME
1000
PASTMD0X
  0
LINE
  5
1277
  8
241
  6
HIDDEN2
 10
121.14609778000001
 20
4.0999999999999988
 30
0.0
 11
121.14609778000001
 21
4.75225016
 31
0.0
1001
GRPNAME
1000
PASTMD0X
  0
LINE
  5
1278
  8
241
  6
CONTINUOUS
 10
122.44609778
 20
4.75
 30
0.0
 11
122.54609778
 21
4.75
 31
0.0
1001
GRPNAME
1000
PASTMD0X
  0
LINE
  5
1279
  8
241
  6
HIDDEN2
 10
122.44609778
 20
4.0999999999999988
 30
0.0
 11
122.44609778
 21
4.75
 31
0.0
1001
GRPNAME
1000
PASTMD0X
  0
LINE
  5
127B
  8
250
 10
99.999873089999994
 20
10.25
 30
0.0
 11
99.999873089999994
 21
22.0
 31
0.0
  0
LINE
  5
127C
  8
250
 10
123.99987308999999
 20
9.5
 30
0.0
 11
123.99987308999999
 21
22.0
 31
0.0
  0
LINE
  5
127D
  8
250
 10
102.22987309
 20
21.0
 30
0.0
 11
121.76987309
 21
21.0
 31
0.0
  0
LINE
  5
1281
  8
250
 10
123.55134495
 20
-10.0
 30
0.0
 11
140.99987308999999
 21
-10.0
 31
0.0
  0
LINE
  5
1282
  8
250
 10
123.55134495
 20
10.0
 30
0.0
 11
140.99987308999999
 21
10.0
 31
0.0
  0
LINE
  5
1283
  8
250
 10
139.99987308999999
 20
-7.7699999999999987
 30
0.0
 11
139.99987308999999
 21
7.7699999999999987
 31
0.0
  0
LINE
  5
1287
  8
250
 10
124.49987308999999
 20
3.0
 30
0.0
 11
133.99987308999999
 21
3.0
 31
0.0
  0
LINE
  5
1288
  8
250
 10
132.99987308999999
 20
-1.0
 30
0.0
 11
132.99987308999999
 21
1.0
 31
0.0
  0
INSERT
  5
1289
  8
250
  6
CONTINUOUS
  2
矢印なし
 10
132.99987308999999
 20
-3.0
 30
0.0
 41
2.0
 42
2.0
 43
2.0
 50
270.0
  0
LINE
  5
128C
  8
250
 10
0.0
 20
9.3000000000000007
 30
0.0
 11
0.0
 21
22.0
 31
0.0
  0
LINE
  5
128D
  8
250
 10
99.999873089999994
 20
10.25
 30
0.0
 11
99.999873089999994
 21
22.0
 31
0.0
  0
LINE
  5
128E
  8
250
 10
2.2299999999999991
 20
21.0
 30
0.0
 11
97.769873090000004
 21
21.0
 31
0.0
  0
LINE
  5
1292
  8
250
 10
0.7
 20
-10.0
 30
0.0
 11
-15.0
 21
-10.0
 31
0.0
  0
LINE
  5
1293
  8
250
 10
0.7
 20
10.0
 30
0.0
 11
-15.0
 21
10.0
 31
0.0
  0
LINE
  5
1294
  8
250
 10
-14.0
 20
-7.7699999999999987
 30
0.0
 11
-14.0
 21
7.7699999999999987
 31
0.0
  0
TEXT
  5
1298
  8
250
 10
0.6158327100000001
 20
-20.159710159999999
 30
0.0
 40
2.7999999999999989
  1
ST20
  7
YOKO
1001
ITEMNAME
1000
LNSP3
1001
ACAD
1000
MTEXTBEGIN
1070
    73
1070
     1
1070
    44
1040
1.0
1070
    74
1070
     0
1000
MTEXTEND
1000
MTEXTBEGIN
1070
    73
1070
     1
1070
    44
1040
1.0
1070
    74
1070
     0
1000
MTEXTEND
1000
MTEXTBEGIN
1070
    73
1070
     1
1070
    44
1040
1.0
1070
    74
1070
     0
1000
MTEXTEND
1000
MTEXTBEGIN
1070
    73
1070
     1
1070
    44
1040
1.0
1070
    74
1070
     0
1000
MTEXTEND
1000
MTEXTBEGIN
1070
    73
1070
     1
1070
    44
1040
1.0
1070
    74
1070
     0
1000
MTEXTEND
1000
MTEXTBEGIN
1070
    73
1070
     1
1070
    44
1040
1.0
1070
    74
1070
     0
1000
MTEXTEND
1000
MTEXTBEGIN
1070
    73
1070
     1
1070
    44
1040
1.0
1070
    74
1070
     0
1000
MTEXTEND
1000
MTEXTBEGIN
1070
    73
1070
     1
1070
    44
1040
1.0
1070
    74
1070
     0
1000
MTEXTEND
1000
MTEXTBEGIN
1070
    73
1070
     1
1070
    44
1040
1.0
1070
    74
1070
     0
1000
MTEXTEND
1000
MTEXTBEGIN
1070
    73
1070
     1
1070
    44
1040
1.0
1070
    74
1070
     0
1000
MTEXTEND
1000
MTEXTBEGIN
1070
    73
1070
     1
1070
    44
1040
1.0
1070
    74
1070
     0
1000
MTEXTEND
1000
MTEXTBEGIN
1070
    73
1070
     1
1070
    44
1040
1.0
1070
    74
1070
     0
1000
MTEXTEND
1000
MTEXTBEGIN
1070
    73
1070
     1
1070
    44
1040
1.0
1070
    74
1070
     0
1000
MTEXTEND
1000
MTEXTBEGIN
1070
    73
1070
     1
1070
    44
1040
1.0
1070
    74
1070
     0
1000
MTEXTEND
1000
MTEXTBEGIN
1070
    73
1070
     1
1070
    44
1040
1.0
1070
    74
1070
     0
1000
MTEXTEND
1000
MTEXTBEGIN
1070
    73
1070
     1
1070
    44
1040
1.0
1070
    74
1070
     0
1000
MTEXTEND
  0
TEXT
  5
129B
  8
250
 10
109.07130166142851
 20
22.0
 30
0.0
 40
3.0
  1
24
1001
ACAD
1000
MTEXTBEGIN
1070
    73
1070
     1
1070
    44
1040
1.0
1070
    74
1070
     0
1000
MTEXTEND
1000
MTEXTBEGIN
1070
    73
1070
     1
1070
    44
1040
1.0
1070
    74
1070
     0
1000
MTEXTEND
1000
MTEXTBEGIN
1070
    73
1070
     1
1070
    44
1040
1.0
1070
    74
1070
     0
1000
MTEXTEND
  0
LINE
  5
129C
  8
250
 10
121.76987309
 20
21.37166666666667
 30
0.0
 11
123.99987308999999
 21
21.0
 31
0.0
  0
LINE
  5
129D
  8
250
 10
121.76987309
 20
20.62833333333333
 30
0.0
 11
123.99987308999999
 21
21.0
 31
0.0
  0
LINE
  5
129E
  8
250
 10
123.99987308999999
 20
21.0
 30
0.0
 11
121.76987309
 21
21.0
 31
0.0
  0
LINE
  5
129F
  8
250
 10
102.22987309
 20
20.62833333333333
 30
0.0
 11
99.999873089999994
 21
21.0
 31
0.0
  0
LINE
  5
12A0
  8
250
 10
102.22987309
 20
21.37166666666667
 30
0.0
 11
99.999873089999994
 21
21.0
 31
0.0
  0
LINE
  5
12A1
  8
250
 10
99.999873089999994
 20
21.0
 30
0.0
 11
102.22987309
 21
21.0
 31
0.0
  0
TEXT
  5
12A2
  8
250
 10
138.99987308999999
 20
-3.8952380952380938
 30
0.0
 40
3.0
  1
\U+2205
 50
90.0
1001
ACAD
1000
MTEXTBEGIN
1070
    73
1070
     1
1070
    44
1040
1.0
1070
    74
1070
     0
1000
MTEXTEND
1000
MTEXTBEGIN
1070
    73
1070
     1
1070
    44
1040
1.0
1070
    74
1070
     0
1000
MTEXTEND
1000
MTEXTBEGIN
1070
    73
1070
     1
1070
    44
1040
1.0
1070
    74
1070
     0
1000
MTEXTEND
  0
TEXT
  5
12A3
  8
250
 10
138.89987309
 20
-1.1809523809523801
 30
0.0
 40
2.7999999999999989
  1
20
 50
90.0
1001
ACAD
1000
MTEXTBEGIN
1070
    73
1070
     1
1070
    44
1040
1.0
1070
    74
1070
     0
1000
MTEXTEND
1000
MTEXTBEGIN
1070
    73
1070
     1
1070
    44
1040
1.0
1070
    74
1070
     0
1000
MTEXTEND
1000
MTEXTBEGIN
1070
    73
1070
     1
1070
    44
1040
1.0
1070
    74
1070
     0
1000
MTEXTEND
  0
LINE
  5
12A4
  8
250
 10
139.6282064233333
 20
7.7699999999999987
 30
0.0
 11
139.99987308999999
 21
10.0
 31
0.0
  0
LINE
  5
12A5
  8
250
 10
140.37153975666661
 20
7.7699999999999987
 30
0.0
 11
139.99987308999999
 21
10.0
 31
0.0
  0
LINE
  5
12A6
  8
250
 10
139.99987308999999
 20
10.0
 30
0.0
 11
139.99987308999999
 21
7.7699999999999987
 31
0.0
  0
LINE
  5
12A7
  8
250
 10
140.37153975666661
 20
-7.7699999999999987
 30
0.0
 11
139.99987308999999
 21
-10.0
 31
0.0
  0
LINE
  5
12A8
  8
250
 10
139.6282064233333
 20
-7.7699999999999987
 30
0.0
 11
139.99987308999999
 21
-10.0
 31
0.0
  0
LINE
  5
12A9
  8
250
 10
139.99987308999999
 20
-10.0
 30
0.0
 11
139.99987308999999
 21
-7.7699999999999987
 31
0.0
  0
TEXT
  5
12AA
  8
250
 10
131.99987308999999
 20
-8.1466666666666665
 30
0.0
 40
2.7999999999999989
  1
max.φ6
 50
90.0
1001
ACAD
1000
MTEXTBEGIN
1070
    73
1070
     1
1070
    44
1040
1.0
1070
    74
1070
     0
1000
MTEXTEND
1000
MTEXTBEGIN
1070
    73
1070
     1
1070
    44
1040
1.0
1070
    74
1070
     0
1000
MTEXTEND
1000
MTEXTBEGIN
1070
    73
1070
     1
1070
    44
1040
1.0
1070
    74
1070
     0
1000
MTEXTEND
  0
LINE
  5
12AB
  8
250
 10
132.66653975666659
 20
1.0
 30
0.0
 11
132.99987308999999
 21
3.0
 31
0.0
  0
LINE
  5
12AC
  8
250
 10
133.33320642333331
 20
1.0
 30
0.0
 11
132.99987308999999
 21
3.0
 31
0.0
  0
LINE
  5
12AD
  8
250
 10
132.99987308999999
 20
3.0
 30
0.0
 11
132.99987308999999
 21
1.0
 31
0.0
  0
TEXT
  5
12AE
  8
250
 10
46.351192500000003
 20
22.0
 30
0.0
 40
3.0
  1
100
1001
ACAD
1000
MTEXTBEGIN
1070
    73
1070
     1
1070
    44
1040
1.0
1070
    74
1070
     0
1000
MTEXTEND
1000
MTEXTBEGIN
1070
    73
1070
     1
1070
    44
1040
1.0
1070
    74
1070
     0
1000
MTEXTEND
1000
MTEXTBEGIN
1070
    73
1070
     1
1070
    44
1040
1.0
1070
    74
1070
     0
1000
MTEXTEND
  0
LINE
  5
12AF
  8
250
 10
97.76987308999999
 20
21.37166666666667
 30
0.0
 11
99.999873089999994
 21
21.0
 31
0.0
  0
LINE
  5
12B0
  8
250
 10
97.76987308999999
 20
20.62833333333333
 30
0.0
 11
99.999873089999994
 21
21.0
 31
0.0
  0
LINE
  5
12B1
  8
250
 10
99.999873089999994
 20
21.0
 30
0.0
 11
97.76987308999999
 21
21.0
 31
0.0
  0
LINE
  5
12B2
  8
250
 10
2.2299999999999991
 20
20.62833333333333
 30
0.0
 11
0.0
 21
21.0
 31
0.0
  0
LINE
  5
12B3
  8
250
 10
2.2299999999999991
 20
21.37166666666667
 30
0.0
 11
0.0
 21
21.0
 31
0.0
  0
LINE
  5
12B4
  8
250
 10
0.0
 20
21.0
 30
0.0
 11
2.2299999999999991
 21
21.0
 31
0.0
  0
TEXT
  5
12B5
  8
250
 10
-15.0
 20
-4.0714285714285712
 30
0.0
 40
3.0
  1
\U+2205
 50
90.0
1001
ACAD
1000
MTEXTBEGIN
1070
    73
1070
     1
1070
    44
1040
1.0
1070
    74
1070
     0
1000
MTEXTEND
1000
MTEXTBEGIN
1070
    73
1070
     1
1070
    44
1040
1.0
1070
    74
1070
     0
1000
MTEXTEND
1000
MTEXTBEGIN
1070
    73
1070
     1
1070
    44
1040
1.0
1070
    74
1070
     0
1000
MTEXTEND
1000
MTEXTBEGIN
1070
    73
1070
     1
1070
    44
1040
1.0
1070
    74
1070
     0
1000
MTEXTEND
1000
MTEXTBEGIN
1070
    73
1070
     1
1070
    44
1040
1.0
1070
    74
1070
     0
1000
MTEXTEND
1000
MTEXTBEGIN
1070
    73
1070
     1
1070
    44
1040
1.0
1070
    74
1070
     0
1000
MTEXTEND
1000
MTEXTBEGIN
1070
    73
1070
     1
1070
    44
1040
1.0
1070
    74
1070
     0
1000
MTEXTEND
1000
MTEXTBEGIN
1070
    73
1070
     1
1070
    44
1040
1.0
1070
    74
1070
     0
1000
MTEXTEND
1000
MTEXTBEGIN
1070
    73
1070
     1
1070
    44
1040
1.0
1070
    74
1070
     0
1000
MTEXTEND
1000
MTEXTBEGIN
1070
    73
1070
     1
1070
    44
1040
1.0
1070
    74
1070
     0
1000
MTEXTEND
  0
TEXT
  5
12B6
  8
250
 10
-15.0
 20
-1.357142857142857
 30
0.0
 40
3.0
  1
20
 50
90.0
1001
ACAD
1000
MTEXTBEGIN
1070
    73
1070
     1
1070
    44
1040
1.0
1070
    74
1070
     0
1000
MTEXTEND
1000
MTEXTBEGIN
1070
    73
1070
     1
1070
    44
1040
1.0
1070
    74
1070
     0
1000
MTEXTEND
1000
MTEXTBEGIN
1070
    73
1070
     1
1070
    44
1040
1.0
1070
    74
1070
     0
1000
MTEXTEND
1000
MTEXTBEGIN
1070
    73
1070
     1
1070
    44
1040
1.0
1070
    74
1070
     0
1000
MTEXTEND
1000
MTEXTBEGIN
1070
    73
1070
     1
1070
    44
1040
1.0
1070
    74
1070
     0
1000
MTEXTEND
1000
MTEXTBEGIN
1070
    73
1070
     1
1070
    44
1040
1.0
1070
    74
1070
     0
1000
MTEXTEND
1000
MTEXTBEGIN
1070
    73
1070
     1
1070
    44
1040
1.0
1070
    74
1070
     0
1000
MTEXTEND
1000
MTEXTBEGIN
1070
    73
1070
     1
1070
    44
1040
1.0
1070
    74
1070
     0
1000
MTEXTEND
1000
MTEXTBEGIN
1070
    73
1070
     1
1070
    44
1040
1.0
1070
    74
1070
     0
1000
MTEXTEND
1000
MTEXTBEGIN
1070
    73
1070
     1
1070
    44
1040
1.0
1070
    74
1070
     0
1000
MTEXTEND
  0
LINE
  5
12B7
  8
250
 10
-14.371666666666661
 20
7.7699999999999987
 30
0.0
 11
-14.0
 21
10.0
 31
0.0
  0
LINE
  5
12B8
  8
250
 10
-13.62833333333333
 20
7.7699999999999987
 30
0.0
 11
-14.0
 21
10.0
 31
0.0
  0
LINE
  5
12B9
  8
250
 10
-14.0
 20
10.0
 30
0.0
 11
-14.0
 21
7.7699999999999987
 31
0.0
  0
LINE
  5
12BA
  8
250
 10
-13.62833333333333
 20
-7.7699999999999987
 30
0.0
 11
-14.0
 21
-10.0
 31
0.0
  0
LINE
  5
12BB
  8
250
 10
-14.371666666666661
 20
-7.7699999999999987
 30
0.0
 11
-14.0
 21
-10.0
 31
0.0
  0
LINE
  5
12BC
  8
250
 10
-14.0
 20
-10.0
 30
0.0
 11
-14.0
 21
-7.7699999999999987
 31
0.0
  0
LINE
  5
12BD
  8
250
 10
18.59222771057669
 20
-11.73205080790183
 30
0.0
 11
13.14916605
 21
-21.159710159999999
 31
0.0
1001
ACAD
1000
DSTYLE
1002
{
1070
     6
1000
OPEN
1070
    41
1040
2.0
1070
    42
1040
2.0
1070
    44
1040
2.0
1070
   140
1040
4.0
1070
   343
1005
594
1002
}
  0
LINE
  5
12BE
  8
250
 10
18.303552575926378
 20
-11.565384141331281
 30
0.0
 11
19.59222771
 21
-10.0
 31
0.0
  0
LINE
  5
12BF
  8
250
 10
18.880902845226991
 20
-11.898717474472379
 30
0.0
 11
19.59222771
 21
-10.0
 31
0.0
  0
LINE
  5
12C0
  8
250
 10
19.59222771
 20
-10.0
 30
0.0
 11
18.59222771057669
 21
-11.73205080790183
 31
0.0
  0
VIEWPORT
  5
22
 67
     1
  8
0
 10
261.51769911999997
 20
148.5
 30
0.0
 40
523.03539823000006
 41
297.0
 68
     1
 69
     1
1001
ACAD
1000
MVIEW
1002
{
1070
    16
1010
0.0
1020
0.0
1030
0.0
1010
0.0
1020
0.0
1030
1.0
1040
0.0
1040
297.0
1040
261.51769911999997
1040
148.5
1040
50.0
1040
0.0
1040
0.0
1070
     0
1070
   100
1070
     1
1070
     1
1070
     0
1070
     0
1070
     0
1070
     0
1040
0.0
1040
0.0
1040
0.0
1040
1.0
1040
1.0
1040
10.0
1040
10.0
1070
     0
1002
{
1002
}
1002
}
1001
GENIUS_GENOBJ-N-SDF_13
1002
{
1000
OWNER
1000
GEN
1002
}
1001
GENIUS_GENODEF_13
1002
{
1000
HIER
1070
     0
1002
}
1002
{
1000
MANEDIT
1070
     0
1002
}
1002
{
1000
NOSEL
1070
     0
1002
}
1002
{
1000
BEHIND
1070
     0
1002
}
1002
{
1000
OTHER
1070
     0
1002
}
1002
{
1000
REACTOR
1002
}
1001
GENIUS_GENSCREG_15
1000
PF
1040
1.0
1000
DF
1040
1.0
1000
MIN
1011
0.0000000049999471
1021
-2684993.5099024922
1031
0.0
1021
0.0
1031
0.0
1000
MAX
1011
523.035398235
1021
-2684993.5099024922
1031
0.0
1021
297.0
1031
0.0
1000
FLAGS
1070
     2
  0
ENDSEC
  0
EOF
