  0
SECTION
  2
HEADER
  9
$ACADVER
  1
AC1009
  9
$INSBASE
 10
0.0
 20
0.0
 30
0.0
  9
$EXTMIN
 10
-1.7932847635173621
 20
-21.166764056311649
 30
-0.0015258207003583
  9
$EXTMAX
 10
141.0200396453514
 20
47.014345333314218
 30
0.0000000349246037
  9
$LIMMIN
 10
0.0
 20
0.0
  9
$LIMMAX
 10
297.0
 20
210.0
  9
$ORTHOMODE
 70
     1
  9
$REGENMODE
 70
     1
  9
$FILLMODE
 70
     1
  9
$QTEXTMODE
 70
     0
  9
$MIRRTEXT
 70
     1
  9
$DRAGMODE
 70
     2
  9
$LTSCALE
 40
10.0
  9
$OSMODE
 70
  3071
  9
$ATTMODE
 70
     1
  9
$TEXTSIZE
 40
3.0
  9
$TRACEWID
 40
1.0
  9
$TEXTSTYLE
  7
YOKO
  9
$CLAYER
  8
240
  9
$CELTYPE
  6
BYLAYER
  9
$CECOLOR
 62
   256
  9
$DIMSCALE
 40
1.0
  9
$DIMASZ
 40
2.0
  9
$DIMEXO
 40
0.5
  9
$DIMDLI
 40
2.5
  9
$DIMRND
 40
0.0
  9
$DIMDLE
 40
0.0
  9
$DIMEXE
 40
1.0
  9
$DIMTP
 40
0.0
  9
$DIMTM
 40
0.0
  9
$DIMTXT
 40
2.799999999999998
  9
$DIMCEN
 40
0.0
  9
$DIMTSZ
 40
0.0
  9
$DIMTOL
 70
     0
  9
$DIMLIM
 70
     0
  9
$DIMTIH
 70
     0
  9
$DIMTOH
 70
     0
  9
$DIMSE1
 70
     0
  9
$DIMSE2
 70
     0
  9
$DIMTAD
 70
     3
  9
$DIMZIN
 70
     8
  9
$DIMBLK
  1

  9
$DIMASO
 70
     1
  9
$DIMSHO
 70
     1
  9
$DIMPOST
  1

  9
$DIMAPOST
  1

  9
$DIMALT
 70
     0
  9
$DIMALTD
 70
     2
  9
$DIMALTF
 40
25.399999999999999
  9
$DIMLFAC
 40
1.0
  9
$DIMTOFL
 70
     1
  9
$DIMTVP
 40
0.0
  9
$DIMTIX
 70
     1
  9
$DIMSOXD
 70
     0
  9
$DIMSAH
 70
     1
  9
$DIMBLK1
  1
OPEN
  9
$DIMBLK2
  1
OPEN
  9
$DIMSTYLE
  2
BIGT
  9
$DIMCLRD
 70
   256
  9
$DIMCLRE
 70
   256
  9
$DIMCLRT
 70
    40
  9
$DIMTFAC
 40
1.0
  9
$DIMGAP
 40
1.0
  9
$LUNITS
 70
     2
  9
$LUPREC
 70
     3
  9
$SKETCHINC
 40
1.0
  9
$FILLETRAD
 40
0.0
  9
$AUNITS
 70
     0
  9
$AUPREC
 70
     3
  9
$MENU
  1
.
  9
$ELEVATION
 40
0.0
  9
$PELEVATION
 40
0.0
  9
$THICKNESS
 40
0.0
  9
$LIMCHECK
 70
     0
  9
$BLIPMODE
 70
     0
  9
$CHAMFERA
 40
10.0
  9
$CHAMFERB
 40
10.0
  9
$SKPOLY
 70
     0
  9
$TDCREATE
 40
2456744.3892102442
  9
$TDUPDATE
 40
2457371.5630370718
  9
$TDINDWG
 40
0.241148125
  9
$TDUSRTIMER
 40
0.2411451389
  9
$USRTIMER
 70
     1
  9
$ANGBASE
 50
0.0
  9
$ANGDIR
 70
     0
  9
$PDMODE
 70
     1
  9
$PDSIZE
 40
-5.0
  9
$PLINEWID
 40
0.0
  9
$COORDS
 70
     1
  9
$SPLFRAME
 70
     0
  9
$SPLINETYPE
 70
     6
  9
$SPLINESEGS
 70
     8
  9
$ATTDIA
 70
     1
  9
$ATTREQ
 70
     1
  9
$HANDLING
 70
     1
  9
$HANDSEED
  5
11B1
  9
$SURFTAB1
 70
     6
  9
$SURFTAB2
 70
     6
  9
$SURFTYPE
 70
     6
  9
$SURFU
 70
     6
  9
$SURFV
 70
     6
  9
$UCSNAME
  2

  9
$UCSORG
 10
0.0
 20
0.0
 30
0.0
  9
$UCSXDIR
 10
1.0
 20
0.0
 30
0.0
  9
$UCSYDIR
 10
0.0
 20
1.0
 30
0.0
  9
$PUCSNAME
  2

  9
$PUCSORG
 10
0.0
 20
0.0
 30
0.0
  9
$PUCSXDIR
 10
1.0
 20
0.0
 30
0.0
  9
$PUCSYDIR
 10
0.0
 20
1.0
 30
0.0
  9
$USERI1
 70
     1
  9
$USERI2
 70
     0
  9
$USERI3
 70
     0
  9
$USERI4
 70
     0
  9
$USERI5
 70
     0
  9
$USERR1
 40
0.0
  9
$USERR2
 40
0.0
  9
$USERR3
 40
0.0
  9
$USERR4
 40
0.0
  9
$USERR5
 40
0.0
  9
$WORLDVIEW
 70
     1
  9
$SHADEDGE
 70
     3
  9
$SHADEDIF
 70
    70
  9
$TILEMODE
 70
     1
  9
$MAXACTVP
 70
    16
  9
$PLIMCHECK
 70
     0
  9
$PEXTMIN
 10
1.0000000000000000E+020
 20
1.0000000000000000E+020
 30
1.0000000000000000E+020
  9
$PEXTMAX
 10
-1.0000000000000000E+020
 20
-1.0000000000000000E+020
 30
-1.0000000000000000E+020
  9
$PLIMMIN
 10
0.0
 20
0.0
  9
$PLIMMAX
 10
420.0
 20
297.0
  9
$UNITMODE
 70
     0
  9
$VISRETAIN
 70
     0
  9
$PLINEGEN
 70
     0
  9
$PSLTSCALE
 70
     1
  0
ENDSEC
  0
SECTION
  2
TABLES
  0
TABLE
  2
VPORT
 70
     1
  0
VPORT
  2
*ACTIVE
 70
     0
 10
0.0
 20
0.0
 11
1.0
 21
1.0
 12
69.613377440917006
 22
12.92379063850129
 13
0.0
 23
0.0
 14
7.0
 24
7.0
 15
7.0
 25
7.0
 16
0.0
 26
0.0
 36
1.0
 17
0.0
 27
0.0
 37
0.0
 40
102.6441826904492
 41
1.397993311036789
 42
50.0
 43
0.0
 44
0.0
 50
0.0
 51
0.0
 71
     0
 72
 20000
 73
     1
 74
     0
 75
     0
 76
     1
 77
     0
 78
     0
  0
ENDTAB
  0
TABLE
  2
LTYPE
 70
    19
  0
LTYPE
  2
CONTINUOUS
 70
     0
  3
Solid line
 72
    65
 73
     0
 40
0.0
  0
LTYPE
  2
CENTER2
 70
     0
  3
___ _ ___ _ ___ _ ___ _ ___ _ ___ _ ___ _ ___ _
 72
    65
 73
     4
 40
1.125
 49
0.75
 49
-0.125
 49
0.125
 49
-0.125
  0
LTYPE
  2
HIDDEN
 70
     0
  3
Hidden __ __ __ __ __ __ __ __ __ __ __ __ __ _
 72
    65
 73
     2
 40
9.5249999999999986
 49
6.349999999999997
 49
-3.174999999999998
  0
LTYPE
  2
PHANTOM2
 70
     0
  3
___ _ _ ___ _ _ ___ _ _ ___ _ _ ___ _ _ ___ _ _
 72
    65
 73
     6
 40
1.25
 49
0.625
 49
-0.125
 49
0.125
 49
-0.125
 49
0.125
 49
-0.125
  0
LTYPE
  2
CENTER
 70
     0
  3
____ _ ____ _ ____ _ ____ _ ____ _ ____ _ ____ 
 72
    65
 73
     4
 40
2.0
 49
1.25
 49
-0.25
 49
0.25
 49
-0.25
  0
LTYPE
  2
HIDDEN2
 70
     0
  3
_ _ _ _ _ _ _ _ _ _ _ _ _ _ _ _ _ _ _ _ _ _ _ _
 72
    65
 73
     2
 40
0.1875
 49
0.125
 49
-0.0625
  0
LTYPE
  2
AMCONSTR
 70
     0
  3
_______________________
 72
    65
 73
     2
 40
9999.0
 49
9999.0
 49
0.0
  0
LTYPE
  2
AMZIGZAG2
 70
     0
  3
/\/-/\/-/\/-/\/-/\/-/\/
 72
    65
 73
     2
 40
0.4401
 49
0.0001
 49
-0.4400000000000003
  0
LTYPE
  2
ACANSTGB
 70
     0
  3
__ . . __ . .
 72
    65
 73
     6
 40
0.35433070866
 49
0.15748031496
 49
-0.03937007874
 49
0.03937007874
 49
-0.03937007874
 49
0.03937007874
 49
-0.03937007874
  0
LTYPE
  2
ACANSTGL
 70
     0
  3
_ _ _ _ _
 72
    65
 73
     2
 40
0.11811023622
 49
0.07874015748
 49
-0.03937007874
  0
ENDTAB
  0
TABLE
  2
LAYER
 70
     8
  0
LAYER
  2
0
 70
     0
 62
     7
  6
CONTINUOUS
  0
LAYER
  2
240
 70
     0
 62
     4
  6
CONTINUOUS
  0
LAYER
  2
245
 70
     0
 62
     2
  6
CENTER2
  0
LAYER
  2
241
 70
     0
 62
   211
  6
CONTINUOUS
  0
LAYER
  2
250
 70
     0
 62
     3
  6
CONTINUOUS
  0
LAYER
  2
DEFPOINTS
 70
     0
 62
     7
  6
CONTINUOUS
  0
LAYER
  2
246
 70
     0
 62
     3
  6
PHANTOM2
  0
LAYER
  2
247
 70
     0
 62
    60
  6
CONTINUOUS
  0
ENDTAB
  0
TABLE
  2
STYLE
 70
     8
  0
STYLE
  2
STANDARD
 70
     0
 40
0.0
 41
1.0
 50
0.0
 71
     0
 42
3.0
  3
romans.shx
  4
BIGFONT.SHX
  0
STYLE
  2
YOKO
 70
     0
 40
0.0
 41
1.0
 50
0.0
 71
     0
 42
3.0
  3
romans.shx
  4
extfont.shx
  0
STYLE
  2
ACANSGDT
 70
     0
 40
0.0
 41
1.0
 50
0.0
 71
     0
 42
3.0
  3
amgdt.shx
  4

  0
ENDTAB
  0
TABLE
  2
VIEW
 70
     0
  0
ENDTAB
  0
TABLE
  2
UCS
 70
     0
  0
ENDTAB
  0
TABLE
  2
APPID
 70
    43
  0
APPID
  2
ACAD
 70
     0
  0
APPID
  2
ACADANNOTATIVE
 70
     0
  0
APPID
  2
GLOBAL
 70
     0
  0
APPID
  2
DETAIL
 70
     0
  0
APPID
  2
GRPNAME
 70
     0
  0
APPID
  2
GPARA
 70
     0
  0
APPID
  2
DCO15
 70
     0
  0
APPID
  2
ITEMNAME
 70
     0
  0
APPID
  2
GRADE_0
 70
     0
  0
APPID
  2
ACAD_NAV_VCDISPLAY
 70
     0
  0
APPID
  2
ACAD_PSEXT
 70
     0
  0
APPID
  2
MCAD_NO_VIS
 70
     0
  0
APPID
  2
ACAD_TEMP_GRAPHIC
 70
     0
  0
APPID
  2
ACATTRIBSERVICES
 70
     0
  0
APPID
  2
GENIUS_GENSCREG_15
 70
     0
  0
APPID
  2
GENIUS_GENODEF_13
 70
     0
  0
APPID
  2
GENIUS_GENOBJ-N-SDF_13
 70
     0
  0
APPID
  2
GENIUS_GENREC_14
 70
     0
  0
APPID
  2
GENIUS_GENOBJ-N-REC_13
 70
     0
  0
APPID
  2
GENIUS_GENDIMSH_14
 70
     0
  0
APPID
  2
GENIUS_GENOBJ-N-DIM_13
 70
     0
  0
APPID
  2
GENIUS_GENDIM_13
 70
     0
  0
APPID
  2
GENIUS_GENDTOL_13
 70
     0
  0
APPID
  2
GENIUS_GENOLIS_13
 70
     0
  0
APPID
  2
GENIUS_GENOENT_13
 70
     0
  0
APPID
  2
GENIUS_GENOBJ-F-FEM_13
 70
     0
  0
APPID
  2
GENIUS_GENOREF_13
 70
     0
  0
APPID
  2
GENIUS_GEFFEM_13
 70
     0
  0
APPID
  2
GENIUS_GEFFEMP_13
 70
     0
  0
APPID
  2
AD_DRAW
 70
     0
  0
APPID
  2
DESIGNERASSEMBLIES
 70
     0
  0
APPID
  2
ACADM_DIM_EDIT
 70
     0
  0
APPID
  2
AMDT_DM_ADJ
 70
     0
  0
APPID
  2
GENIUS_GENOBJ-N-FIL_13
 70
     0
  0
APPID
  2
GENIUS_GENFIL_13
 70
     0
  0
APPID
  2
GENIUS_GENOBJ-N-CHA_13
 70
     0
  0
APPID
  2
ACAECLAYERSTANDARD
 70
     0
  0
APPID
  2
CONTENTBLOCKICON
 70
     0
  0
APPID
  2
ACAD_MLEADERVER
 70
     0
  0
APPID
  2
ACAD_DSTYLE_DIMJAG
 70
     0
  0
APPID
  2
ACAD_DSTYLE_DIMBREAK
 70
     0
  0
APPID
  2
ACAD_DSTYLE_DIMINSPECT
 70
     0
  0
APPID
  2
ACAD_EXEMPT_FROM_CAD_STANDARDS
 70
     0
  0
ENDTAB
  0
TABLE
  2
DIMSTYLE
 70
    17
  0
DIMSTYLE
  2
STANDARD
 70
     0
  3

  4

  5

  6

  7

 40
1.0
 41
0.18
 42
0.0625
 43
0.38
 44
0.18
 45
0.0
 46
0.0
 47
0.0
 48
0.0
140
0.18
141
0.09
142
0.0
143
25.399999999999999
144
1.0
145
0.0
146
1.0
147
0.09
 71
     0
 72
     0
 73
     1
 74
     1
 75
     0
 76
     0
 77
     0
 78
     0
170
     0
171
     2
172
     0
173
     0
174
     0
175
     0
176
     0
177
     0
178
     0
  0
DIMSTYLE
  2
BIGT
 70
     0
  3

  4

  5

  6

  7

 40
1.0
 41
2.2299999999999991
 42
0.5
 43
7.0
 44
1.0
 45
0.0
 46
0.0
 47
0.0
 48
0.01
140
2.799999999999998
141
0.0
142
0.0
143
25.399999999999999
144
1.0
145
0.0
146
1.0
147
1.0
 71
     0
 72
     0
 73
     0
 74
     0
 75
     0
 76
     0
 77
     3
 78
     9
170
     0
171
     2
172
     1
173
     0
174
     1
175
     0
176
   256
177
   256
178
    40
  0
DIMSTYLE
  2
AM_ANSI
 70
     0
  3

  4
mm
  5

  6

  7

 40
1.0
 41
0.12
 42
0.05
 43
0.5
 44
0.1
 45
0.0
 46
0.0
 47
0.1
 48
0.1
140
0.12
141
0.0
142
0.0
143
25.399999999999999
144
1.0
145
0.0
146
0.71
147
0.06
 71
     0
 72
     0
 73
     1
 74
     1
 75
     0
 76
     0
 77
     0
 78
     7
170
     0
171
     2
172
     0
173
     0
174
     0
175
     0
176
   256
177
   256
178
     2
  0
DIMSTYLE
  2
AM_ANSI$3
 70
     0
  3

  4
mm
  5

  6

  7

 40
1.0
 41
0.12
 42
0.05
 43
0.5
 44
0.1
 45
0.0
 46
0.0
 47
0.1
 48
0.1
140
0.12
141
0.0
142
0.0
143
25.399999999999999
144
1.0
145
0.0
146
0.71
147
0.06
 71
     0
 72
     0
 73
     1
 74
     1
 75
     0
 76
     0
 77
     0
 78
     7
170
     0
171
     2
172
     0
173
     0
174
     0
175
     0
176
   256
177
   256
178
     2
  0
DIMSTYLE
  2
AM_ANSI$4
 70
     0
  3

  4
mm
  5

  6

  7

 40
1.0
 41
0.12
 42
0.05
 43
0.5
 44
0.1
 45
0.0
 46
0.0
 47
0.1
 48
0.1
140
0.12
141
0.0
142
0.0
143
25.399999999999999
144
1.0
145
0.0
146
0.71
147
0.06
 71
     0
 72
     0
 73
     1
 74
     1
 75
     0
 76
     0
 77
     0
 78
     7
170
     0
171
     2
172
     0
173
     0
174
     0
175
     0
176
   256
177
   256
178
     2
  0
DIMSTYLE
  2
AM_ANSI$7
 70
     0
  3

  4
mm
  5

  6

  7

 40
1.0
 41
0.12
 42
0.05
 43
0.5
 44
0.1
 45
0.0
 46
0.0
 47
0.1
 48
0.1
140
0.12
141
0.0
142
0.0
143
25.399999999999999
144
1.0
145
0.0
146
0.71
147
0.06
 71
     0
 72
     0
 73
     1
 74
     1
 75
     0
 76
     0
 77
     0
 78
     7
170
     0
171
     2
172
     0
173
     0
174
     0
175
     0
176
   256
177
   256
178
     2
  0
DIMSTYLE
  2
AM_ANSI$SF
 70
     0
  3

  4
mm
  5

  6

  7

 40
1.0
 41
0.12
 42
0.05
 43
0.5
 44
0.1
 45
0.0
 46
0.0
 47
0.1
 48
0.1
140
0.12
141
0.0
142
0.0
143
25.399999999999999
144
1.0
145
0.0
146
0.71
147
0.06
 71
     0
 72
     0
 73
     1
 74
     1
 75
     1
 76
     1
 77
     0
 78
     7
170
     0
171
     2
172
     0
173
     0
174
     0
175
     0
176
   256
177
   256
178
     2
  0
DIMSTYLE
  2
AM_ANSI$SH
 70
     0
  3

  4
mm
  5

  6

  7

 40
1.0
 41
0.12
 42
0.05
 43
0.5
 44
0.1
 45
0.0
 46
0.0
 47
0.1
 48
0.1
140
0.12
141
0.0
142
0.0
143
25.399999999999999
144
1.0
145
0.0
146
0.71
147
0.06
 71
     0
 72
     0
 73
     1
 74
     1
 75
     1
 76
     1
 77
     0
 78
     7
170
     0
171
     2
172
     0
173
     1
174
     0
175
     0
176
   256
177
   256
178
     2
  0
ENDTAB
  0
ENDSEC
  0
SECTION
  2
BLOCKS
  0
BLOCK
  8
0
  2
$MODEL_SPACE
 70
     0
 10
0.0
 20
0.0
 30
0.0
  3
$MODEL_SPACE
  1

  0
ENDBLK
  5
1072
  8
0
  0
BLOCK
 67
     1
  8
0
  2
$PAPER_SPACE
 70
     0
 10
0.0
 20
0.0
 30
0.0
  3
$PAPER_SPACE
  1

  0
ENDBLK
  5
106E
 67
     1
  8
0
  0
BLOCK
  8
0
  2
_OPEN
 70
     0
 10
0.0
 20
0.0
 30
0.0
  3
_OPEN
  1

  0
LINE
  5
A2F
  8
0
  6
BYBLOCK
 62
     0
 10
-1.0
 20
0.1666666666666666
 30
0.0
 11
0.0
 21
0.0
 31
0.0
  0
LINE
  5
A30
  8
0
  6
BYBLOCK
 62
     0
 10
-1.0
 20
-0.1666666666666666
 30
0.0
 11
0.0
 21
0.0
 31
0.0
  0
LINE
  5
A31
  8
0
  6
BYBLOCK
 62
     0
 10
0.0
 20
0.0
 30
0.0
 11
-1.0
 21
0.0
 31
0.0
  0
ENDBLK
  5
A32
  8
0
  0
BLOCK
  8
0
  2
矢印なし
 70
     0
 10
0.0
 20
0.0
 30
0.0
  3
矢印なし
  1

  0
ENDBLK
  5
6E5
  8
0
  0
BLOCK
  8
0
  2
_ACMFILLEDHALF
 70
     0
 10
0.0
 20
0.0
 30
0.0
  3
_ACMFILLEDHALF
  1

  0
TRACE
  5
CF8
  8
245
 62
     0
 10
-0.8
 20
0.0
 30
0.0
 11
-1.0
 21
0.166666666
 31
0.0
 12
0.0
 22
0.0
 32
0.0
 13
0.0
 23
0.0
 33
0.0
  0
LINE
  5
CF9
  8
245
 62
     0
 10
-1.0
 20
0.0
 30
0.0
 11
-0.8
 21
0.0
 31
0.0
  0
ENDBLK
  5
CF7
  8
0
  0
ENDSEC
  0
SECTION
  2
ENTITIES
  0
INSERT
  5
6E6
  8
245
  2
矢印なし
 10
175.62382696643769
 20
90.55123571690595
 30
0.0
  0
TEXT
  5
8FD
  8
241
  6
CONTINUOUS
 10
0.0000000000002984
 20
41.999999999999908
 30
0.0
 40
5.0
  1
ST20-MW1821-50
  7
YOKO
 11
0.0000000000002984
 21
41.999999999999908
 31
0.0
 73
     1
  0
LINE
  5
AD7
  8
240
  6
CONTINUOUS
 10
79.748333950158383
 20
-10.00000000000005
 30
0.0
 11
80.839745962155817
 21
-9.36987298107816
 31
0.0
  0
LINE
  5
AD8
  8
240
  6
CONTINUOUS
 10
80.839745962155845
 20
9.3698729810773376
 30
0.0
 11
79.748333950159648
 21
9.9999999999998561
 31
0.0
  0
LINE
  5
AD9
  8
240
  6
CONTINUOUS
 10
83.339745962155746
 20
-8.7000000000004007
 30
0.0
 11
131.0000000000027
 21
-8.7000000000006086
 31
0.0
  0
ARC
  5
ADA
  8
240
  6
CONTINUOUS
 10
83.339745962155675
 20
-13.70000000000042
 30
0.0
 40
5.000000000000016
 50
90.0
 51
119.99999999999611
  0
ARC
  5
ADB
  8
240
  6
CONTINUOUS
 10
83.339745962155817
 20
13.69999999999955
 30
0.0
 40
4.9999999999999938
 50
240.00000000000389
 51
270.0
  0
LINE
  5
ADC
  8
240
  6
CONTINUOUS
 10
130.9999999999992
 20
8.6999999999993651
 30
0.0
 11
83.339745962155845
 21
8.69999999999966
 31
0.0
  0
LINE
  5
ADF
  8
245
  6
CENTER2
 10
-0.9999999999998435
 20
-0.0000000000000284
 30
0.0
 11
133.00000000000091
 21
-0.0000000000000568
 31
0.0
  0
LINE
  5
AE3
  8
240
  6
CONTINUOUS
 10
0.0000000000005826
 20
10.00000000000003
 30
0.0
 11
-0.0000000000005542
 21
-9.999999999999984
 31
0.0
  0
LINE
  5
AE4
  8
240
  6
CONTINUOUS
 10
0.0000000000005826
 20
10.00000000000003
 30
0.0
 11
79.748333950159648
 21
9.9999999999998561
 31
0.0
  0
LINE
  5
AE5
  8
240
  6
CONTINUOUS
 10
0.0000000000004832
 20
-9.999999999999984
 30
0.0
 11
79.748333950158383
 21
-10.00000000000005
 31
0.0
  0
LINE
  5
AE9
  8
241
  6
CONTINUOUS
 10
82.000000000003013
 20
-8.8828347799881584
 30
0.0
 11
82.000000000003013
 21
8.8828347799880536
 31
0.0
  0
LINE
  5
AEA
  8
241
  6
CONTINUOUS
 10
79.748333950158383
 20
9.9999999999999716
 30
0.0
 11
79.748333950158383
 21
-10.000000000000069
 31
0.0
  0
LINE
  5
AEE
  8
240
  6
CONTINUOUS
 10
130.9999999999992
 20
8.6999999999993651
 30
0.0
 11
131.0000000000027
 21
-8.7000000000006086
 31
0.0
  0
LINE
  5
D16
  8
246
  6
PHANTOM2
 10
140.99999999999909
 20
8.7000000000013422
 30
0.0
 11
141.0000000000027
 21
-8.6999999999986262
 31
0.0
  0
LINE
  5
DD9
  8
250
  6
CONTINUOUS
 10
18.3035525759264
 20
-11.56538414133124
 30
0.0
 11
19.592227710000021
 21
-9.9999999999999751
 31
0.0
  0
LINE
  5
DDA
  8
250
  6
CONTINUOUS
 10
18.880902845227009
 20
-11.89871747447237
 30
0.0
 11
19.592227710000021
 21
-9.9999999999999751
 31
0.0
  0
LINE
  5
DDB
  8
250
  6
CONTINUOUS
 10
19.592227710000021
 20
-9.9999999999999751
 30
0.0
 11
18.592227710576712
 21
-11.7320508079018
 31
0.0
  0
LINE
  5
DDC
  8
250
  6
CONTINUOUS
 10
18.592227710576712
 20
-11.7320508079018
 30
0.0
 11
13.14916605000001
 21
-21.159710159999982
 31
0.0
1001
ACAD
1000
DSTYLE
1002
{
1070
     6
1000
OPEN
1070
    41
1040
2.0
1070
    42
1040
2.0
1070
    44
1040
2.0
1070
   140
1040
4.0
1070
   343
1005
C80
1002
}
  0
TEXT
  5
DDD
  8
250
  6
CONTINUOUS
 10
0.6158327100000136
 20
-20.159710159999982
 30
0.0
 40
2.799999999999998
  1
ST20
  7
YOKO
1001
ITEMNAME
1000
LNSP3
  0
LINE
  5
DDE
  8
250
  6
CONTINUOUS
 10
13.14916605000001
 20
-21.159710159999982
 30
0.0
 11
-1.7841672899999841
 21
-21.159710159999982
 31
0.0
1001
ITEMNAME
1000
LNSP2
  0
LINE
  5
DDF
  8
247
  6
CONTINUOUS
 10
6.7499999999300089
 20
-5.999999999999976
 30
0.0
 11
13.44230769197001
 21
-5.999999999999976
 31
0.0
  0
ARC
  5
DE0
  8
247
  6
CONTINUOUS
 10
6.7499999999300089
 20
-4.2500000000700071
 30
0.0
 40
1.7499999999299991
 50
90.0
 51
270.0
  0
ARC
  5
DE1
  8
247
  6
CONTINUOUS
 10
13.44230769197001
 20
-4.2500000000700071
 30
0.0
 40
1.7499999999299991
 50
270.0
 51
90.0
  0
LINE
  5
DE2
  8
247
  6
CONTINUOUS
 10
7.6153846152800062
 20
-2.5000000001400391
 30
0.0
 11
6.755148458038005
 21
-5.5000000000199831
 31
0.0
  0
LINE
  5
DE3
  8
247
  6
CONTINUOUS
 10
8.5150161816641941
 20
-3.9230769231598721
 30
0.0
 11
7.2073238740241932
 21
-3.9230769231598721
 31
0.0
  0
ARC
  5
DE4
  8
247
  6
CONTINUOUS
 10
8.8548561839102291
 20
-3.049598667702841
 30
0.0
 40
0.5538165441895349
 50
342.99788967529543
 51
82.924166218512795
  0
ARC
  5
DE5
  8
247
  6
CONTINUOUS
 10
8.4331216769712256
 20
-2.9360330444658072
 30
0.0
 40
0.9904354236226808
 50
274.74293685220141
 51
343.84922627326642
1001
GENIUS_GENOBJ-N-FIL_13
1002
{
1000
OWNER
1000
GEN
1002
}
1001
GENIUS_GENODEF_13
1002
{
1000
HIER
1070
     0
1002
}
1002
{
1000
MANEDIT
1070
     0
1002
}
1002
{
1000
NOSEL
1070
     0
1002
}
1002
{
1000
BEHIND
1070
     0
1002
}
1002
{
1000
OTHER
1070
     0
1002
}
1002
{
1000
REACTOR
1002
}
  0
LINE
  5
DE6
  8
247
  6
CONTINUOUS
 10
8.0628407656780023
 20
-5.5000000000199831
 30
0.0
 11
6.755148458038005
 21
-5.5000000000199831
 31
0.0
  0
LINE
  5
DE7
  8
247
  6
CONTINUOUS
 10
7.6153846152800062
 20
-2.5000000001400391
 30
0.0
 11
8.9230769229200195
 21
-2.5000000001400391
 31
0.0
  0
ARC
  5
DE8
  8
247
  6
CONTINUOUS
 10
8.4390803634530425
 20
-4.4820242326654549
 30
0.0
 40
0.5640818586791229
 50
335.99094165252171
 51
82.263443459069123
  0
ARC
  5
DE9
  8
247
  6
CONTINUOUS
 10
7.9617373146529502
 20
-4.4874290391864831
 30
0.0
 40
1.0176059446230981
 50
275.70198516425808
 51
347.27733843682228
1001
GENIUS_GENOBJ-N-FIL_13
1002
{
1000
OWNER
1000
GEN
1002
}
1001
GENIUS_GENODEF_13
1002
{
1000
HIER
1070
     0
1002
}
1002
{
1000
MANEDIT
1070
     0
1002
}
1002
{
1000
NOSEL
1070
     0
1002
}
1002
{
1000
BEHIND
1070
     0
1002
}
1002
{
1000
OTHER
1070
     0
1002
}
1002
{
1000
REACTOR
1002
}
  0
LINE
  5
DEA
  8
247
  6
CONTINUOUS
 10
9.7166869194580112
 20
-5.5000000000199831
 30
0.0
 11
10.576923076700011
 21
-2.5000000001400391
 31
0.0
  0
LINE
  5
DEB
  8
247
  6
CONTINUOUS
 10
12.999999999680011
 20
-2.5000000001400391
 30
0.0
 11
12.43426338054341
 21
-2.5000000001400391
 31
0.0
  0
LINE
  5
DEC
  8
247
  6
CONTINUOUS
 10
11.538461538200011
 20
-5.5000000000199831
 30
0.0
 11
12.153846153560011
 21
-5.5000000000199831
 31
0.0
  0
ARC
  5
DED
  8
247
  6
CONTINUOUS
 10
13.29120879087715
 20
-4.5832851359733437
 30
0.0
 40
2.2526500823422122
 50
112.35948814152999
 51
164.99324854284609
  0
ARC
  5
DEE
  8
247
  6
CONTINUOUS
 10
12.625930520786779
 20
-3.3083126551946149
 30
0.0
 40
0.8906723995727782
 50
4.9945893190753639
 51
65.166328957300507
1001
GENIUS_GENOBJ-N-FIL_13
1002
{
1000
OWNER
1000
GEN
1002
}
1001
GENIUS_GENODEF_13
1002
{
1000
HIER
1070
     0
1002
}
1002
{
1000
MANEDIT
1070
     0
1002
}
1002
{
1000
NOSEL
1070
     0
1002
}
1002
{
1000
BEHIND
1070
     0
1002
}
1002
{
1000
OTHER
1070
     0
1002
}
1002
{
1000
REACTOR
1002
}
  0
ARC
  5
DEF
  8
247
  6
CONTINUOUS
 10
11.773541113787431
 20
-4.1601458886677589
 30
0.0
 40
1.392781735586712
 50
285.84609655578078
 51
352.32513700416251
  0
ARC
  5
DF0
  8
247
  6
CONTINUOUS
 10
12.35778727415965
 20
-4.4592434315272591
 30
0.0
 40
1.324563662670287
 50
159.71360167049011
 51
231.78874565641229
1001
GENIUS_GENOBJ-N-FIL_13
1002
{
1000
OWNER
1000
GEN
1002
}
1001
GENIUS_GENODEF_13
1002
{
1000
HIER
1070
     0
1002
}
1002
{
1000
MANEDIT
1070
     0
1002
}
1002
{
1000
NOSEL
1070
     0
1002
}
1002
{
1000
BEHIND
1070
     0
1002
}
1002
{
1000
OTHER
1070
     0
1002
}
1002
{
1000
REACTOR
1002
}
  0
LINE
  5
DF1
  8
247
  6
CONTINUOUS
 10
12.461538461240011
 20
-4.3461538462199512
 30
0.0
 11
13.153846153520011
 21
-4.3461538462199512
 31
0.0
  0
LINE
  5
DF2
  8
247
  6
CONTINUOUS
 10
6.7499999999299831
 20
-2.5000000001400391
 30
0.0
 11
7.423076922979944
 21
-2.5000000001400391
 31
0.0
  0
LINE
  5
DF3
  8
250
  6
CONTINUOUS
 10
0.0000000000005826
 20
10.50000000000003
 30
0.0
 11
0.0000000000005838
 21
28.999999999999769
 31
0.0
  0
LINE
  5
DF4
  8
250
  6
CONTINUOUS
 10
140.99999999999909
 20
9.2000000000013422
 30
0.0
 11
140.99999999999909
 21
28.99999999999978
 31
0.0
  0
LINE
  5
DF5
  8
250
  6
CONTINUOUS
 10
2.0000000000005831
 20
27.99999999999978
 30
0.0
 11
138.9999999999992
 21
27.99999999999978
 31
0.0
  0
LINE
  5
DF9
  8
250
  6
CONTINUOUS
 10
90.999999999999275
 20
9.199999999999612
 30
0.0
 11
90.999999999999275
 21
21.999999999999961
 31
0.0
  0
LINE
  5
DFB
  8
250
  6
CONTINUOUS
 10
92.999999999999289
 20
20.999999999999961
 30
0.0
 11
140.99999999999909
 21
20.999999999999961
 31
0.0
  0
TEXT
  5
DFF
  8
250
  6
CONTINUOUS
 10
66.699999999999932
 20
28.99999999999978
 30
0.0
 40
2.799999999999998
  1
(141)
  0
LINE
  5
E00
  8
250
  6
CONTINUOUS
 10
138.9999999999992
 20
28.333333333333108
 30
0.0
 11
140.99999999999909
 21
27.99999999999978
 31
0.0
  0
LINE
  5
E01
  8
250
  6
CONTINUOUS
 10
138.9999999999992
 20
27.66666666666644
 30
0.0
 11
140.99999999999909
 21
27.99999999999978
 31
0.0
  0
LINE
  5
E02
  8
250
  6
CONTINUOUS
 10
140.99999999999909
 20
27.99999999999978
 30
0.0
 11
138.9999999999992
 21
27.99999999999978
 31
0.0
  0
LINE
  5
E03
  8
250
  6
CONTINUOUS
 10
2.0000000000005831
 20
27.66666666666644
 30
0.0
 11
0.0000000000005837
 21
27.99999999999978
 31
0.0
  0
LINE
  5
E04
  8
250
  6
CONTINUOUS
 10
2.0000000000005831
 20
28.333333333333108
 30
0.0
 11
0.0000000000005837
 21
27.99999999999978
 31
0.0
  0
LINE
  5
E05
  8
250
  6
CONTINUOUS
 10
0.0000000000005837
 20
27.99999999999978
 30
0.0
 11
2.0000000000005831
 21
27.99999999999978
 31
0.0
  0
TEXT
  5
E06
  8
250
  6
CONTINUOUS
 10
113.3494581711833
 20
21.999999999999961
 30
0.0
 40
2.799999999999998
  1
(50)
  0
LINE
  5
E07
  8
250
  6
CONTINUOUS
 10
138.9999999999992
 20
21.33333333333329
 30
0.0
 11
140.9999999999992
 21
20.999999999999961
 31
0.0
  0
LINE
  5
E08
  8
250
  6
CONTINUOUS
 10
138.9999999999992
 20
20.666666666666629
 30
0.0
 11
140.9999999999992
 21
20.999999999999961
 31
0.0
  0
LINE
  5
E09
  8
250
  6
CONTINUOUS
 10
140.9999999999992
 20
20.999999999999961
 30
0.0
 11
138.9999999999992
 21
20.999999999999961
 31
0.0
  0
LINE
  5
E0A
  8
250
  6
CONTINUOUS
 10
92.999999999999275
 20
20.666666666666629
 30
0.0
 11
90.999999999999275
 21
20.999999999999961
 31
0.0
  0
LINE
  5
E0B
  8
250
  6
CONTINUOUS
 10
92.999999999999275
 20
21.33333333333329
 30
0.0
 11
90.999999999999275
 21
20.999999999999961
 31
0.0
  0
LINE
  5
E0C
  8
250
  6
CONTINUOUS
 10
90.999999999999275
 20
20.999999999999961
 30
0.0
 11
92.999999999999275
 21
20.999999999999961
 31
0.0
  0
VIEWPORT
  5
22
 67
     1
  8
0
 10
261.51769911504419
 20
148.5
 30
0.0
 40
523.0353982300885
 41
297.0
 68
     1
 69
     1
1001
ACAD
1000
MVIEW
1002
{
1070
    16
1010
0.0
1020
0.0
1030
0.0
1010
0.0
1020
0.0
1030
1.0
1040
0.0
1040
297.0
1040
261.51769911504419
1040
148.5
1040
50.0
1040
0.0
1040
0.0
1070
     0
1070
   100
1070
     1
1070
     1
1070
     0
1070
     0
1070
     0
1070
     0
1040
0.0
1040
0.0
1040
0.0
1040
1.0
1040
1.0
1040
10.0
1040
10.0
1070
     0
1002
{
1002
}
1002
}
1001
GENIUS_GENODEF_13
1002
{
1000
HIER
1070
     0
1002
}
1002
{
1000
MANEDIT
1070
     0
1002
}
1002
{
1000
NOSEL
1070
     0
1002
}
1002
{
1000
BEHIND
1070
     0
1002
}
1002
{
1000
OTHER
1070
     0
1002
}
1002
{
1000
REACTOR
1002
}
1001
GENIUS_GENOBJ-N-SDF_13
1002
{
1000
OWNER
1000
GEN
1002
}
1001
GENIUS_GENSCREG_15
1000
PF
1040
1.0
1000
DF
1040
1.0
1000
MIN
1011
0.0
1021
0.0
1031
0.0
1021
0.0
1031
0.0
1000
MAX
1011
523.0353982300885
1021
0.0
1031
0.0
1021
297.0
1031
0.0
1000
FLAGS
1070
     4
  0
ENDSEC
  0
EOF
