  0
SECTION
  2
HEADER
  9
$ACADVER
  1
AC1009
  9
$INSBASE
 10
0.0
 20
0.0
 30
0.0
  9
$EXTMIN
 10
-10.800000000000299
 20
-10.00000000000065
 30
0.0
  9
$EXTMAX
 10
115.003898610448
 20
45.367745696509019
 30
0.0
  9
$LIMMIN
 10
0.0
 20
0.0
  9
$LIMMAX
 10
297.0
 20
210.0
  9
$ORTHOMODE
 70
     0
  9
$REGENMODE
 70
     1
  9
$FILLMODE
 70
     1
  9
$QTEXTMODE
 70
     0
  9
$MIRRTEXT
 70
     1
  9
$DRAGMODE
 70
     2
  9
$LTSCALE
 40
10.0
  9
$OSMODE
 70
    63
  9
$ATTMODE
 70
     1
  9
$TEXTSIZE
 40
3.0
  9
$TRACEWID
 40
1.0
  9
$TEXTSTYLE
  7
YOKO
  9
$CLAYER
  8
241
  9
$CELTYPE
  6
BYLAYER
  9
$CECOLOR
 62
   256
  9
$DIMSCALE
 40
1.0
  9
$DIMASZ
 40
2.2299999999999991
  9
$DIMEXO
 40
0.5
  9
$DIMDLI
 40
7.0
  9
$DIMRND
 40
0.0
  9
$DIMDLE
 40
0.0
  9
$DIMEXE
 40
1.0
  9
$DIMTP
 40
0.0
  9
$DIMTM
 40
0.01
  9
$DIMTXT
 40
2.7999999999999989
  9
$DIMCEN
 40
0.0
  9
$DIMTSZ
 40
0.0
  9
$DIMTOL
 70
     0
  9
$DIMLIM
 70
     0
  9
$DIMTIH
 70
     0
  9
$DIMTOH
 70
     0
  9
$DIMSE1
 70
     0
  9
$DIMSE2
 70
     0
  9
$DIMTAD
 70
     3
  9
$DIMZIN
 70
     9
  9
$DIMBLK
  1
OPEN
  9
$DIMASO
 70
     1
  9
$DIMSHO
 70
     1
  9
$DIMPOST
  1

  9
$DIMAPOST
  1

  9
$DIMALT
 70
     0
  9
$DIMALTD
 70
     2
  9
$DIMALTF
 40
25.399999999999999
  9
$DIMLFAC
 40
1.0
  9
$DIMTOFL
 70
     1
  9
$DIMTVP
 40
0.0
  9
$DIMTIX
 70
     1
  9
$DIMSOXD
 70
     0
  9
$DIMSAH
 70
     0
  9
$DIMBLK1
  1

  9
$DIMBLK2
  1

  9
$DIMSTYLE
  2
BIGT
  9
$DIMCLRD
 70
   256
  9
$DIMCLRE
 70
   256
  9
$DIMCLRT
 70
    40
  9
$DIMTFAC
 40
1.0
  9
$DIMGAP
 40
1.0
  9
$LUNITS
 70
     2
  9
$LUPREC
 70
     6
  9
$SKETCHINC
 40
1.0
  9
$FILLETRAD
 40
0.0
  9
$AUNITS
 70
     0
  9
$AUPREC
 70
     6
  9
$MENU
  1
.
  9
$ELEVATION
 40
0.0
  9
$PELEVATION
 40
0.0
  9
$THICKNESS
 40
0.0
  9
$LIMCHECK
 70
     0
  9
$BLIPMODE
 70
     0
  9
$CHAMFERA
 40
0.2
  9
$CHAMFERB
 40
0.2
  9
$SKPOLY
 70
     0
  9
$TDCREATE
 40
2457233.3471244448
  9
$TDUPDATE
 40
2457233.7144451272
  9
$TDINDWG
 40
0.366932963
  9
$TDUSRTIMER
 40
0.3669328704
  9
$USRTIMER
 70
     1
  9
$ANGBASE
 50
0.0
  9
$ANGDIR
 70
     0
  9
$PDMODE
 70
     1
  9
$PDSIZE
 40
0.0
  9
$PLINEWID
 40
0.0
  9
$COORDS
 70
     1
  9
$SPLFRAME
 70
     0
  9
$SPLINETYPE
 70
     6
  9
$SPLINESEGS
 70
     4
  9
$ATTDIA
 70
     1
  9
$ATTREQ
 70
     1
  9
$HANDLING
 70
     1
  9
$HANDSEED
  5
49EF
  9
$SURFTAB1
 70
     6
  9
$SURFTAB2
 70
     6
  9
$SURFTYPE
 70
     6
  9
$SURFU
 70
     6
  9
$SURFV
 70
     6
  9
$UCSNAME
  2

  9
$UCSORG
 10
0.0
 20
0.0
 30
0.0
  9
$UCSXDIR
 10
1.0
 20
0.0
 30
0.0
  9
$UCSYDIR
 10
0.0
 20
1.0
 30
0.0
  9
$PUCSNAME
  2

  9
$PUCSORG
 10
0.0
 20
0.0
 30
0.0
  9
$PUCSXDIR
 10
1.0
 20
0.0
 30
0.0
  9
$PUCSYDIR
 10
0.0
 20
1.0
 30
0.0
  9
$USERI1
 70
     1
  9
$USERI2
 70
     0
  9
$USERI3
 70
     0
  9
$USERI4
 70
     0
  9
$USERI5
 70
     0
  9
$USERR1
 40
0.0
  9
$USERR2
 40
0.0
  9
$USERR3
 40
0.0
  9
$USERR4
 40
0.0
  9
$USERR5
 40
0.0
  9
$WORLDVIEW
 70
     1
  9
$SHADEDGE
 70
     3
  9
$SHADEDIF
 70
    70
  9
$TILEMODE
 70
     1
  9
$MAXACTVP
 70
    16
  9
$PLIMCHECK
 70
     0
  9
$PEXTMIN
 10
1.0000000000000000E+020
 20
1.0000000000000000E+020
 30
1.0000000000000000E+020
  9
$PEXTMAX
 10
-1.0000000000000000E+020
 20
-1.0000000000000000E+020
 30
-1.0000000000000000E+020
  9
$PLIMMIN
 10
0.0
 20
0.0
  9
$PLIMMAX
 10
420.0
 20
297.0
  9
$UNITMODE
 70
     0
  9
$VISRETAIN
 70
     1
  9
$PLINEGEN
 70
     0
  9
$PSLTSCALE
 70
     1
  0
ENDSEC
  0
SECTION
  2
TABLES
  0
TABLE
  2
VPORT
 70
     1
  0
VPORT
  2
*ACTIVE
 70
     0
 10
0.0
 20
0.0
 11
1.0
 21
1.0
 12
52.096001250664692
 22
18.99091134566029
 13
0.0
 23
0.0
 14
7.0
 24
7.0
 15
7.0
 25
7.0
 16
0.0
 26
0.0
 36
1.0
 17
0.0
 27
0.0
 37
0.0
 40
81.582105396330547
 41
1.548954895489548
 42
50.0
 43
0.0
 44
0.0
 50
0.0
 51
0.0
 71
     0
 72
  2000
 73
     1
 74
     0
 75
     1
 76
     1
 77
     0
 78
     0
  0
ENDTAB
  0
TABLE
  2
LTYPE
 70
    21
  0
LTYPE
  2
CONTINUOUS
 70
     0
  3
Solid line
 72
    65
 73
     0
 40
0.0
  0
LTYPE
  2
CENTER2
 70
     0
  3
___ _ ___ _ ___ _ ___ _ ___ _ ___ _ ___ _ ___ _
 72
    65
 73
     4
 40
1.125
 49
0.75
 49
-0.125
 49
0.125
 49
-0.125
  0
LTYPE
  2
HIDDEN2
 70
     0
  3
_ _ _ _ _ _ _ _ _ _ _ _ _ _ _ _ _ _ _ _ _ _ _ _
 72
    65
 73
     2
 40
0.1875
 49
0.125
 49
-0.0625
  0
LTYPE
  2
PHANTOM2
 70
     0
  3
___ _ _ ___ _ _ ___ _ _ ___ _ _ ___ _ _ ___ _ _
 72
    65
 73
     6
 40
1.25
 49
0.625
 49
-0.125
 49
0.125
 49
-0.125
 49
0.125
 49
-0.125
  0
LTYPE
  2
AM_ISO02W050
 70
     0
  3
__ __ __ __ __ __ __ __ __ __ __ __ __ __ __
 72
    65
 73
     2
 40
7.5
 49
6.0
 49
-1.5
  0
LTYPE
  2
AMCONSTR
 70
     0
  3
_______________________
 72
    65
 73
     2
 40
9999.0
 49
9999.0
 49
0.0
  0
LTYPE
  2
ACISOWELD
 70
     0
  3
_ _ _ _ _
 72
    65
 73
     2
 40
2.0
 49
2.0
 49
-1.0
  0
LTYPE
  2
ACISOTGB
 70
     0
  3
__ . . __ . .
 72
    65
 73
     6
 40
9.0
 49
4.0
 49
-1.0
 49
1.0
 49
-1.0
 49
1.0
 49
-1.0
  0
LTYPE
  2
ACISOTGL
 70
     0
  3
_ _ _ _ _
 72
    65
 73
     2
 40
3.0
 49
2.0
 49
-1.0
  0
LTYPE
  2
ACJISTGB
 70
     0
  3
__ . . __ . .
 72
    65
 73
     6
 40
9.0
 49
4.0
 49
-1.0
 49
1.0
 49
-1.0
 49
1.0
 49
-1.0
  0
LTYPE
  2
ACJISTGL
 70
     0
  3
_ _ _ _ _
 72
    65
 73
     2
 40
3.0
 49
2.0
 49
-1.0
  0
ENDTAB
  0
TABLE
  2
LAYER
 70
    16
  0
LAYER
  2
0
 70
     0
 62
     7
  6
CONTINUOUS
  0
LAYER
  2
DEFPOINTS
 70
     0
 62
     7
  6
CONTINUOUS
  0
LAYER
  2
245
 70
     0
 62
     2
  6
CENTER2
  0
LAYER
  2
240
 70
     0
 62
     4
  6
CONTINUOUS
  0
LAYER
  2
241
 70
     0
 62
   211
  6
CONTINUOUS
  0
LAYER
  2
242
 70
     0
 62
     3
  6
CONTINUOUS
  0
LAYER
  2
250
 70
     0
 62
     3
  6
CONTINUOUS
  0
ENDTAB
  0
TABLE
  2
STYLE
 70
    10
  0
STYLE
  2
STANDARD
 70
     0
 40
0.0
 41
1.0
 50
0.0
 71
     0
 42
3.0
  3
romans.shx
  4
extfont.shx
  0
STYLE
  2
ACISOTS
 70
     0
 40
1.0
 41
1.0
 50
0.0
 71
     0
 42
3.0
  3
amgdt.shx
  4
extfont.shx
  0
STYLE
  2
ACISOGDT
 70
     0
 40
0.0
 41
1.0
 50
0.0
 71
     0
 42
3.0
  3
amgdt.shx
  4
extfont.shx
  0
STYLE
  2
ACJISTS
 70
     0
 40
1.0
 41
1.0
 50
0.0
 71
     0
 42
3.0
  3
amgdt.shx
  4
extfont.shx
  0
STYLE
  2
ACJISGDT
 70
     0
 40
0.0
 41
1.0
 50
0.0
 71
     0
 42
3.0
  3
amgdt.shx
  4
extfont.shx
  0
STYLE
  2
YOKO
 70
     0
 40
0.0
 41
1.0
 50
0.0
 71
     0
 42
3.0
  3
romans.shx
  4
extfont.shx
  0
ENDTAB
  0
TABLE
  2
VIEW
 70
     0
  0
ENDTAB
  0
TABLE
  2
UCS
 70
     0
  0
ENDTAB
  0
TABLE
  2
APPID
 70
    45
  0
APPID
  2
ACAD
 70
     0
  0
APPID
  2
GLOBAL
 70
     0
  0
APPID
  2
DETAIL
 70
     0
  0
APPID
  2
GRPNAME
 70
     0
  0
APPID
  2
GPARA
 70
     0
  0
APPID
  2
MCAD_NO_VIS
 70
     0
  0
APPID
  2
ACAD_TEMP_GRAPHIC
 70
     0
  0
APPID
  2
ACATTRIBSERVICES
 70
     0
  0
APPID
  2
GENIUS_GENSCREG_15
 70
     0
  0
APPID
  2
GENIUS_GENODEF_13
 70
     0
  0
APPID
  2
GENIUS_GENOBJ-N-SDF_13
 70
     0
  0
APPID
  2
GENIUS_GENREC_14
 70
     0
  0
APPID
  2
GENIUS_GENOBJ-N-REC_13
 70
     0
  0
APPID
  2
GENIUS_GENDIMSH_14
 70
     0
  0
APPID
  2
GENIUS_GENOBJ-N-DIM_13
 70
     0
  0
APPID
  2
GENIUS_GENDIM_13
 70
     0
  0
APPID
  2
GENIUS_GENDTOL_13
 70
     0
  0
APPID
  2
GENIUS_GENOLIS_13
 70
     0
  0
APPID
  2
GENIUS_GENOENT_13
 70
     0
  0
APPID
  2
GENIUS_GENOBJ-F-FEM_13
 70
     0
  0
APPID
  2
GENIUS_GENOREF_13
 70
     0
  0
APPID
  2
GENIUS_GEFFEM_13
 70
     0
  0
APPID
  2
GENIUS_GEFFEMP_13
 70
     0
  0
APPID
  2
AD_DRAW
 70
     0
  0
APPID
  2
DESIGNERASSEMBLIES
 70
     0
  0
APPID
  2
ACADM_DIM_EDIT
 70
     0
  0
APPID
  2
AMDT_DM_ADJ
 70
     0
  0
APPID
  2
ITEMNAME
 70
     0
  0
APPID
  2
GENIUS_GENOBJ-N-FIL_13
 70
     0
  0
APPID
  2
GENIUS_GENFIL_13
 70
     0
  0
APPID
  2
GENIUS_GENOBJ-N-CHA_13
 70
     0
  0
APPID
  2
ACAD_NAV_VCDISPLAY
 70
     0
  0
APPID
  2
ACADANNOTATIVE
 70
     0
  0
APPID
  2
GENIUS_GENOBJ-N-CRS_13
 70
     0
  0
APPID
  2
GENIUS_GENOBJ-N-CEN_13
 70
     0
  0
APPID
  2
HATCH_TYPE
 70
     0
  0
APPID
  2
HATCH_DISPLAY
 70
     0
  0
APPID
  2
HATCH_DISTANCE
 70
     0
  0
APPID
  2
ACAD_EXEMPT_FROM_CAD_STANDARDS
 70
     0
  0
APPID
  2
ACAD_MLEADERVER
 70
     0
  0
APPID
  2
ACAD_DSTYLE_DIMJAG
 70
     0
  0
APPID
  2
ACAD_DSTYLE_DIMBREAK
 70
     0
  0
APPID
  2
ACAD_PSEXT
 70
     0
  0
APPID
  2
ACAECLAYERSTANDARD
 70
     0
  0
APPID
  2
ACAD_DSTYLE_DIMINSPECT
 70
     0
  0
ENDTAB
  0
TABLE
  2
DIMSTYLE
 70
    34
  0
DIMSTYLE
  2
BIGT
 70
     0
  3

  4

  5
OPEN
  6

  7

 40
1.0
 41
2.2299999999999991
 42
0.5
 43
7.0
 44
1.0
 45
0.0
 46
0.0
 47
0.0
 48
0.01
140
2.7999999999999989
141
0.0
142
0.0
143
25.399999999999999
144
1.0
145
0.0
146
1.0
147
1.0
 71
     0
 72
     0
 73
     0
 74
     0
 75
     0
 76
     0
 77
     3
 78
     9
170
     0
171
     2
172
     1
173
     0
174
     1
175
     0
176
   256
177
   256
178
    40
  0
DIMSTYLE
  2
AM_ISO
 70
     0
  3

  4
"
  5

  6

  7

 40
1.0
 41
2.5
 42
1.0
 43
10.0
 44
1.0
 45
0.0
 46
0.0
 47
0.1
 48
0.1
140
3.5
141
0.0
142
0.0
143
0.0393701
144
1.0
145
0.0
146
0.71
147
1.5
 71
     0
 72
     0
 73
     0
 74
     0
 75
     0
 76
     0
 77
     1
 78
     8
170
     0
171
     2
172
     1
173
     0
174
     0
175
     0
176
   256
177
   256
178
     2
  0
DIMSTYLE
  2
AM_ISO$3
 70
     0
  3

  4
"
  5

  6

  7

 40
1.0
 41
2.5
 42
1.0
 43
10.0
 44
1.0
 45
0.0
 46
0.0
 47
0.1
 48
0.1
140
3.5
141
0.0
142
0.0
143
0.0393701
144
1.0
145
0.0
146
0.71
147
1.5
 71
     0
 72
     0
 73
     0
 74
     1
 75
     0
 76
     0
 77
     1
 78
     8
170
     0
171
     2
172
     0
173
     0
174
     0
175
     0
176
   256
177
   256
178
     2
  0
DIMSTYLE
  2
AM_ISO$4
 70
     0
  3

  4
"
  5

  6

  7

 40
1.0
 41
2.5
 42
1.0
 43
10.0
 44
1.0
 45
0.0
 46
0.0
 47
0.1
 48
0.1
140
3.5
141
0.0
142
0.0
143
0.0393701
144
1.0
145
0.0
146
0.71
147
1.5
 71
     0
 72
     0
 73
     0
 74
     1
 75
     0
 76
     0
 77
     1
 78
     8
170
     0
171
     2
172
     0
173
     0
174
     0
175
     0
176
   256
177
   256
178
     2
  0
DIMSTYLE
  2
AM_ISO$6
 70
     0
  3

  4
"
  5

  6

  7

 40
1.0
 41
2.5
 42
1.0
 43
10.0
 44
1.0
 45
0.0
 46
0.0
 47
0.1
 48
0.1
140
3.5
141
0.0
142
0.0
143
0.0393701
144
1.0
145
0.0
146
0.71
147
1.5
 71
     0
 72
     0
 73
     0
 74
     0
 75
     0
 76
     0
 77
     0
 78
     8
170
     0
171
     2
172
     1
173
     0
174
     0
175
     0
176
   256
177
   256
178
     2
  0
DIMSTYLE
  2
AM_ISO$7
 70
     0
  3

  4
"
  5

  6

  7

 40
1.0
 41
2.5
 42
1.0
 43
10.0
 44
1.0
 45
0.0
 46
0.0
 47
0.1
 48
0.1
140
5.0
141
0.0
142
0.0
143
0.0393701
144
1.0
145
0.0
146
0.71
147
1.5
 71
     0
 72
     0
 73
     0
 74
     0
 75
     0
 76
     0
 77
     1
 78
     8
170
     0
171
     2
172
     1
173
     0
174
     0
175
     0
176
   256
177
   256
178
     2
  0
DIMSTYLE
  2
AM_ISO$SF
 70
     0
  3

  4
"
  5

  6

  7

 40
1.0
 41
2.5
 42
1.0
 43
10.0
 44
1.0
 45
0.0
 46
0.0
 47
0.1
 48
0.1
140
3.5
141
0.0
142
0.0
143
0.0393701
144
1.0
145
0.0
146
0.71
147
1.5
 71
     0
 72
     0
 73
     0
 74
     0
 75
     1
 76
     1
 77
     1
 78
     8
170
     0
171
     2
172
     1
173
     0
174
     0
175
     0
176
   256
177
   256
178
     2
  0
DIMSTYLE
  2
AM_ISO$SH
 70
     0
  3

  4
"
  5

  6
GENAXEH
  7

 40
1.0
 41
2.5
 42
1.0
 43
10.0
 44
1.0
 45
0.0
 46
0.0
 47
0.1
 48
0.1
140
3.5
141
0.0
142
0.0
143
0.0393701
144
2.0
145
0.0
146
0.71
147
1.5
 71
     0
 72
     0
 73
     0
 74
     0
 75
     1
 76
     1
 77
     1
 78
     8
170
     0
171
     2
172
     1
173
     1
174
     0
175
     0
176
   256
177
   256
178
     2
  0
DIMSTYLE
  2
BIGT$2
 70
     0
  3

  4

  5
OPEN
  6

  7

 40
1.0
 41
2.2299999999999991
 42
0.5
 43
7.0
 44
1.0
 45
0.0
 46
0.0
 47
0.0
 48
0.01
140
2.7999999999999989
141
0.0
142
0.0
143
25.399999999999999
144
1.0
145
0.0
146
1.0
147
1.0
 71
     0
 72
     0
 73
     0
 74
     0
 75
     0
 76
     0
 77
     3
 78
     9
170
     0
171
     2
172
     1
173
     0
174
     0
175
     0
176
   256
177
   256
178
    40
  0
DIMSTYLE
  2
BIGT$3
 70
     0
  3

  4

  5
OPEN
  6

  7

 40
1.0
 41
2.2299999999999991
 42
0.5
 43
2.5
 44
1.0
 45
0.0
 46
0.0
 47
0.0
 48
0.01
140
2.7999999999999989
141
0.0
142
0.0
143
25.399999999999999
144
1.0
145
0.0
146
1.0
147
1.0
 71
     0
 72
     0
 73
     0
 74
     0
 75
     0
 76
     0
 77
     3
 78
     9
170
     0
171
     2
172
     1
173
     0
174
     0
175
     0
176
   256
177
   256
178
    40
  0
DIMSTYLE
  2
BIGT$7
 70
     0
  3

  4

  5
OPEN
  6

  7

 40
0.0
 41
2.2299999999999991
 42
0.5
 43
7.0
 44
1.0
 45
0.0
 46
0.0
 47
0.0
 48
0.01
140
2.7999999999999989
141
0.0
142
0.0
143
25.399999999999999
144
1.0
145
0.0
146
1.0
147
1.0
 71
     0
 72
     0
 73
     0
 74
     0
 75
     0
 76
     0
 77
     3
 78
     9
170
     0
171
     2
172
     0
173
     0
174
     0
175
     0
176
   256
177
   256
178
    40
  0
DIMSTYLE
  2
BIGT$6
 70
     0
  3

  4

  5
OPEN
  6

  7

 40
1.0
 41
2.2299999999999991
 42
0.5
 43
2.5
 44
1.0
 45
0.0
 46
0.0
 47
0.0
 48
0.01
140
2.7999999999999989
141
0.0
142
0.0
143
25.399999999999999
144
1.0
145
0.0
146
1.0
147
1.0
 71
     0
 72
     0
 73
     0
 74
     0
 75
     0
 76
     0
 77
     3
 78
     9
170
     0
171
     2
172
     1
173
     0
174
     0
175
     0
176
   256
177
   256
178
    40
  0
DIMSTYLE
  2
BIGT$0
 70
     0
  3

  4

  5
OPEN
  6

  7

 40
1.0
 41
2.2299999999999991
 42
0.5
 43
7.0
 44
1.0
 45
0.0
 46
0.0
 47
0.0
 48
0.01
140
2.7999999999999989
141
0.0
142
0.0
143
25.399999999999999
144
1.0
145
0.0
146
1.0
147
1.0
 71
     0
 72
     0
 73
     0
 74
     0
 75
     0
 76
     0
 77
     3
 78
     9
170
     0
171
     2
172
     1
173
     0
174
     1
175
     0
176
   256
177
   256
178
    40
  0
DIMSTYLE
  2
BIGT$4
 70
     0
  3

  4

  5
OPEN
  6

  7

 40
1.0
 41
2.2299999999999991
 42
0.5
 43
2.5
 44
1.0
 45
0.0
 46
0.0
 47
0.0
 48
0.01
140
2.7999999999999989
141
0.0
142
0.0
143
25.399999999999999
144
1.0
145
0.0
146
1.0
147
1.0
 71
     0
 72
     0
 73
     0
 74
     0
 75
     0
 76
     0
 77
     3
 78
     9
170
     0
171
     2
172
     1
173
     0
174
     0
175
     0
176
   256
177
   256
178
    40
  0
DIMSTYLE
  2
BIGT$SH
 70
     0
  3

  4

  5
OPEN
  6

  7

 40
1.0
 41
2.2299999999999991
 42
0.5
 43
7.0
 44
1.0
 45
0.0
 46
0.0
 47
0.0
 48
0.0
140
2.7999999999999989
141
0.0
142
0.0
143
25.399999999999999
144
1.0
145
0.0
146
1.0
147
1.0
 71
     0
 72
     0
 73
     0
 74
     0
 75
     0
 76
     0
 77
     3
 78
     9
170
     0
171
     2
172
     1
173
     0
174
     0
175
     0
176
   256
177
   256
178
    40
  0
DIMSTYLE
  2
BIGT$SF
 70
     0
  3

  4

  5
OPEN
  6

  7

 40
1.0
 41
2.2299999999999991
 42
0.5
 43
7.0
 44
1.0
 45
0.0
 46
0.0
 47
0.0
 48
0.0
140
2.7999999999999989
141
0.0
142
0.0
143
25.399999999999999
144
1.0
145
0.0
146
1.0
147
1.0
 71
     0
 72
     0
 73
     0
 74
     0
 75
     0
 76
     0
 77
     3
 78
     9
170
     0
171
     2
172
     1
173
     0
174
     0
175
     0
176
   256
177
   256
178
    40
  0
DIMSTYLE
  2
TECHNICAL_OSAKA
 70
     0
  3

  4
"
  5
OPEN30
  6

  7

 40
1.0
 41
2.5
 42
1.0
 43
10.0
 44
1.0
 45
0.0
 46
0.0
 47
0.1
 48
0.1
140
2.7999999999999989
141
0.0
142
0.0
143
0.0393701
144
1.0
145
0.0
146
0.71
147
1.5
 71
     0
 72
     0
 73
     0
 74
     0
 75
     0
 76
     0
 77
     3
 78
     8
170
     0
171
     2
172
     1
173
     0
174
     0
175
     0
176
   256
177
   256
178
    40
  0
DIMSTYLE
  2
TECHNICAL_OSAKA$3
 70
     0
  3

  4
"
  5
OPEN30
  6

  7

 40
1.0
 41
2.5
 42
1.0
 43
10.0
 44
1.0
 45
0.0
 46
0.0
 47
0.1
 48
0.1
140
2.7999999999999989
141
0.0
142
0.0
143
0.0393701
144
1.0
145
0.0
146
0.71
147
1.5
 71
     0
 72
     0
 73
     0
 74
     1
 75
     0
 76
     0
 77
     3
 78
     8
170
     0
171
     2
172
     0
173
     0
174
     0
175
     0
176
   256
177
   256
178
    40
  0
DIMSTYLE
  2
TECHNICAL_OSAKA$4
 70
     0
  3

  4
"
  5
OPEN30
  6

  7

 40
1.0
 41
2.5
 42
1.0
 43
10.0
 44
1.0
 45
0.0
 46
0.0
 47
0.1
 48
0.1
140
2.7999999999999989
141
0.0
142
0.0
143
0.0393701
144
1.0
145
0.0
146
0.71
147
1.5
 71
     0
 72
     0
 73
     0
 74
     1
 75
     0
 76
     0
 77
     3
 78
     8
170
     0
171
     2
172
     0
173
     0
174
     0
175
     0
176
   256
177
   256
178
    40
  0
DIMSTYLE
  2
TECHNICAL_OSAKA$6
 70
     0
  3

  4
"
  5
OPEN30
  6

  7

 40
1.0
 41
2.5
 42
1.0
 43
10.0
 44
1.0
 45
0.0
 46
0.0
 47
0.1
 48
0.1
140
2.7999999999999989
141
0.0
142
0.0
143
0.0393701
144
1.0
145
0.0
146
0.71
147
1.5
 71
     0
 72
     0
 73
     0
 74
     0
 75
     0
 76
     0
 77
     0
 78
     8
170
     0
171
     2
172
     1
173
     0
174
     0
175
     0
176
   256
177
   256
178
    40
  0
DIMSTYLE
  2
TECHNICAL_OSAKA$7
 70
     0
  3

  4
"
  5
OPEN30
  6

  7

 40
1.0
 41
2.5
 42
1.0
 43
10.0
 44
1.0
 45
0.0
 46
0.0
 47
0.1
 48
0.1
140
2.7999999999999989
141
0.0
142
0.0
143
0.0393701
144
1.0
145
0.0
146
0.71
147
1.5
 71
     0
 72
     0
 73
     0
 74
     0
 75
     0
 76
     0
 77
     3
 78
     8
170
     0
171
     2
172
     1
173
     0
174
     0
175
     0
176
   256
177
   256
178
    40
  0
DIMSTYLE
  2
TECHNICAL_OSAKA$SF
 70
     0
  3

  4
"
  5
OPEN30
  6
OPEN30
  7
OPEN30
 40
1.0
 41
2.5
 42
1.0
 43
10.0
 44
1.0
 45
0.0
 46
0.0
 47
0.1
 48
0.1
140
3.5
141
0.0
142
0.0
143
0.0393701
144
1.0
145
0.0
146
0.71
147
1.5
 71
     0
 72
     0
 73
     0
 74
     0
 75
     1
 76
     1
 77
     3
 78
     8
170
     0
171
     2
172
     1
173
     0
174
     0
175
     0
176
   256
177
   256
178
    40
  0
DIMSTYLE
  2
TECHNICAL_OSAKA$SH
 70
     0
  3

  4
"
  5
OPEN30
  6
GENAXEH
  7
OPEN30
 40
1.0
 41
2.5
 42
1.0
 43
10.0
 44
1.0
 45
0.0
 46
0.0
 47
0.1
 48
0.1
140
3.5
141
0.0
142
0.0
143
0.0393701
144
2.0
145
0.0
146
0.71
147
1.5
 71
     0
 72
     0
 73
     0
 74
     0
 75
     1
 76
     1
 77
     3
 78
     8
170
     0
171
     2
172
     1
173
     1
174
     0
175
     0
176
   256
177
   256
178
    40
  0
DIMSTYLE
  2
STANDARD
 70
     0
  3

  4

  5

  6

  7

 40
1.0
 41
0.18
 42
0.0625
 43
0.38
 44
0.18
 45
0.0
 46
0.0
 47
0.0
 48
0.0
140
0.18
141
0.09
142
0.0
143
25.399999999999999
144
1.0
145
0.0
146
1.0
147
0.09
 71
     0
 72
     0
 73
     1
 74
     1
 75
     0
 76
     0
 77
     0
 78
     0
170
     0
171
     2
172
     0
173
     0
174
     0
175
     0
176
     0
177
     0
178
     0
  0
ENDTAB
  0
ENDSEC
  0
SECTION
  2
BLOCKS
  0
BLOCK
  8
0
  2
$MODEL_SPACE
 70
     0
 10
0.0
 20
0.0
 30
0.0
  3
$MODEL_SPACE
  1

  0
ENDBLK
  5
1C
  8
0
  0
BLOCK
 67
     1
  8
0
  2
$PAPER_SPACE
 70
     0
 10
0.0
 20
0.0
 30
0.0
  3
$PAPER_SPACE
  1

  0
ENDBLK
  5
19
 67
     1
  8
0
  0
BLOCK
  8
0
  2
_OPEN
 70
     0
 10
0.0
 20
0.0
 30
0.0
  3
_OPEN
  1

  0
LINE
  5
48EE
  8
0
  6
BYBLOCK
 62
     0
 10
-1.0
 20
0.1666666666666666
 30
0.0
 11
0.0
 21
0.0
 31
0.0
  0
LINE
  5
48EF
  8
0
  6
BYBLOCK
 62
     0
 10
-1.0
 20
-0.1666666666666666
 30
0.0
 11
0.0
 21
0.0
 31
0.0
  0
LINE
  5
48F0
  8
0
  6
BYBLOCK
 62
     0
 10
0.0
 20
0.0
 30
0.0
 11
-1.0
 21
0.0
 31
0.0
  0
ENDBLK
  5
48F1
  8
0
  0
BLOCK
  8
0
  2
GENAXEH
 70
     0
 10
0.0
 20
0.0
 30
0.0
  3
GENAXEH
  1

  0
LINE
  5
4929
  8
0
 10
-1.0
 20
0.0
 30
0.0
 11
1.0
 21
0.0
 31
0.0
  0
ENDBLK
  5
492A
  8
0
  0
BLOCK
  8
0
  2
_OPEN30
 70
     0
 10
0.0
 20
0.0
 30
0.0
  3
_OPEN30
  1

  0
LINE
  5
4965
  8
0
  6
BYBLOCK
 62
     0
 10
-1.0
 20
0.26794919
 30
0.0
 11
0.0
 21
0.0
 31
0.0
  0
LINE
  5
4966
  8
0
  6
BYBLOCK
 62
     0
 10
0.0
 20
0.0
 30
0.0
 11
-1.0
 21
-0.26794919
 31
0.0
  0
LINE
  5
4967
  8
0
  6
BYBLOCK
 62
     0
 10
0.0
 20
0.0
 30
0.0
 11
-1.0
 21
0.0
 31
0.0
  0
ENDBLK
  5
4968
  8
0
  0
BLOCK
  8
0
  2
*U26
 70
     1
 10
0.0
 20
0.0
 30
0.0
  3
*U26
  1

  0
TEXT
  5
49E8
  8
241
 62
    40
 10
42.333333333328298
 20
29.00077804625715
 30
0.0
 40
2.7999999999999989
  1
90
  0
ENDBLK
  5
49EA
  8
0
  0
BLOCK
  8
0
  2
*U27
 70
     1
 10
0.0
 20
0.0
 30
0.0
  3
*U27
  1

  0
TEXT
  5
49EC
  8
241
 62
    40
 10
-8.0000000000003055
 20
-3.9333333333333318
 30
0.0
 40
2.7999999999999989
  1
\U+220520
 50
90.0
  0
ENDBLK
  5
49EE
  8
0
  0
ENDSEC
  0
SECTION
  2
ENTITIES
  0
ARC
  5
45F5
  8
240
 10
66.999999999996419
 20
8.9999999999996874
 30
0.0
 40
1.0
 50
0.0000000000390827
 51
90.0
1001
GENIUS_GENOBJ-N-FIL_13
1002
{
1000
OWNER
1000
GEN
1002
}
1001
GENIUS_GENODEF_13
1002
{
1000
HIER
1070
     0
1002
}
1002
{
1000
MANEDIT
1070
     0
1002
}
1002
{
1000
NOSEL
1070
     0
1002
}
1002
{
1000
BEHIND
1070
     0
1002
}
1002
{
1000
OTHER
1070
     0
1002
}
1002
{
1000
REACTOR
1002
}
  0
LINE
  5
45F6
  8
240
 10
67.999999999996405
 20
9.0000000000003695
 30
0.0
 11
67.999999999997783
 21
6.9999999999999432
 31
0.0
  0
LINE
  5
45F7
  8
240
 10
54.999999999992731
 20
9.999999999999801
 30
0.0
 11
55.399999999992772
 21
9.7690598923240088
 31
0.0
  0
LINE
  5
45F8
  8
240
 10
56.19999999999272
 20
9.999999999999801
 30
0.0
 11
55.799999999992743
 21
9.7690598923240088
 31
0.0
  0
ARC
  5
45F9
  8
240
 10
55.599999999992747
 20
10.11547005383775
 30
0.0
 40
0.4
 50
239.99999999999679
 51
300.0000000000004
1001
GENIUS_GENODEF_13
1002
{
1000
HIER
1070
     0
1002
}
1002
{
1000
MANEDIT
1070
     0
1002
}
1002
{
1000
NOSEL
1070
     0
1002
}
1002
{
1000
BEHIND
1070
     0
1002
}
1002
{
1000
OTHER
1070
     0
1002
}
1002
{
1000
REACTOR
1002
}
1001
GENIUS_GENOBJ-N-FIL_13
1002
{
1000
OWNER
1000
GEN
1002
}
  0
ARC
  5
45FA
  8
240
 10
53.399999999992708
 20
10.115470053837861
 30
0.0
 40
0.4
 50
239.99999999999679
 51
300.0000000000004
1001
GENIUS_GENODEF_13
1002
{
1000
HIER
1070
     0
1002
}
1002
{
1000
MANEDIT
1070
     0
1002
}
1002
{
1000
NOSEL
1070
     0
1002
}
1002
{
1000
BEHIND
1070
     0
1002
}
1002
{
1000
OTHER
1070
     0
1002
}
1002
{
1000
REACTOR
1002
}
1001
GENIUS_GENOBJ-N-FIL_13
1002
{
1000
OWNER
1000
GEN
1002
}
  0
LINE
  5
45FB
  8
240
 10
53.999999999992617
 20
9.9999999999999147
 30
0.0
 11
53.599999999992697
 21
9.7690598923241225
 31
0.0
  0
LINE
  5
45FC
  8
240
 10
52.799999999992913
 20
9.9999999999999147
 30
0.0
 11
53.199999999992713
 21
9.7690598923241225
 31
0.0
  0
LINE
  5
45FD
  8
240
 10
53.999999999992561
 20
9.9999999999999147
 30
0.0
 11
54.999999999992731
 21
9.9999999999999147
 31
0.0
  0
LINE
  5
45FE
  8
240
 10
56.19999999999272
 20
9.999999999999801
 30
0.0
 11
66.999999999996419
 21
9.9999999999996874
 31
0.0
  0
LINE
  5
45FF
  8
240
 10
-0.0000000000061391
 20
8.9999999999999716
 30
0.0
 11
0.0
 21
-0.0000000000464127
 31
0.0
  0
ARC
  5
4600
  8
240
 10
0.9999999999938609
 20
9.0000000000006537
 30
0.0
 40
1.0
 50
90.0
 51
180.00000000003899
1001
GENIUS_GENODEF_13
1002
{
1000
HIER
1070
     0
1002
}
1002
{
1000
MANEDIT
1070
     0
1002
}
1002
{
1000
NOSEL
1070
     0
1002
}
1002
{
1000
BEHIND
1070
     0
1002
}
1002
{
1000
OTHER
1070
     0
1002
}
1002
{
1000
REACTOR
1002
}
1001
GENIUS_GENOBJ-N-FIL_13
1002
{
1000
OWNER
1000
GEN
1002
}
  0
LINE
  5
4601
  8
240
 10
0.9999999999938609
 20
10.00000000000065
 30
0.0
 11
52.799999999990412
 21
9.9999999999998561
 31
0.0
  0
LINE
  5
4602
  8
241
 10
52.799999999990412
 20
9.9999999999998561
 30
0.0
 11
52.799999999990412
 21
-0.0000000000000568
 31
0.0
  0
LINE
  5
4603
  8
241
 10
53.999999999992617
 20
9.9999999999999147
 30
0.0
 11
53.999999999992617
 21
-0.0000000000000568
 31
0.0
  0
LINE
  5
4604
  8
241
 10
54.999999999992561
 20
9.9999999999999147
 30
0.0
 11
54.999999999992561
 21
-0.0000000000000568
 31
0.0
  0
LINE
  5
4605
  8
241
 10
56.19999999999272
 20
9.999999999999801
 30
0.0
 11
56.19999999999272
 21
-0.0000000000000568
 31
0.0
  0
ARC
  5
4606
  8
240
 10
66.999999999996419
 20
-8.9999999999998295
 30
0.0
 40
1.0
 50
270.0
 51
359.99999999996089
1001
GENIUS_GENOBJ-N-FIL_13
1002
{
1000
OWNER
1000
GEN
1002
}
1001
GENIUS_GENODEF_13
1002
{
1000
HIER
1070
     0
1002
}
1002
{
1000
MANEDIT
1070
     0
1002
}
1002
{
1000
NOSEL
1070
     0
1002
}
1002
{
1000
BEHIND
1070
     0
1002
}
1002
{
1000
OTHER
1070
     0
1002
}
1002
{
1000
REACTOR
1002
}
  0
LINE
  5
4607
  8
240
 10
67.999999999996405
 20
-9.0000000000005116
 30
0.0
 11
67.999999999997826
 21
-6.9999999999999432
 31
0.0
  0
LINE
  5
4608
  8
240
 10
54.999999999992731
 20
-9.9999999999999147
 30
0.0
 11
55.399999999992772
 21
-9.7690598923241225
 31
0.0
  0
LINE
  5
4609
  8
240
 10
56.19999999999272
 20
-9.9999999999999147
 30
0.0
 11
55.799999999992743
 21
-9.7690598923241225
 31
0.0
  0
ARC
  5
460A
  8
240
 10
55.599999999992747
 20
-10.115470053837861
 30
0.0
 40
0.4
 50
59.99999999999951
 51
120.0000000000032
1001
GENIUS_GENODEF_13
1002
{
1000
HIER
1070
     0
1002
}
1002
{
1000
MANEDIT
1070
     0
1002
}
1002
{
1000
NOSEL
1070
     0
1002
}
1002
{
1000
BEHIND
1070
     0
1002
}
1002
{
1000
OTHER
1070
     0
1002
}
1002
{
1000
REACTOR
1002
}
1001
GENIUS_GENOBJ-N-FIL_13
1002
{
1000
OWNER
1000
GEN
1002
}
  0
ARC
  5
460B
  8
240
 10
53.399999999992708
 20
-10.11547005383798
 30
0.0
 40
0.4
 50
59.99999999999951
 51
120.0000000000032
1001
GENIUS_GENODEF_13
1002
{
1000
HIER
1070
     0
1002
}
1002
{
1000
MANEDIT
1070
     0
1002
}
1002
{
1000
NOSEL
1070
     0
1002
}
1002
{
1000
BEHIND
1070
     0
1002
}
1002
{
1000
OTHER
1070
     0
1002
}
1002
{
1000
REACTOR
1002
}
1001
GENIUS_GENOBJ-N-FIL_13
1002
{
1000
OWNER
1000
GEN
1002
}
  0
LINE
  5
460C
  8
240
 10
53.999999999992617
 20
-10.00000000000003
 30
0.0
 11
53.599999999992697
 21
-9.7690598923242362
 31
0.0
  0
LINE
  5
460D
  8
240
 10
52.799999999992913
 20
-10.00000000000003
 30
0.0
 11
53.199999999992713
 21
-9.7690598923242362
 31
0.0
  0
LINE
  5
460E
  8
240
 10
53.999999999992561
 20
-10.00000000000003
 30
0.0
 11
54.999999999992731
 21
-10.00000000000003
 31
0.0
  0
LINE
  5
460F
  8
240
 10
56.19999999999272
 20
-9.9999999999999147
 30
0.0
 11
66.999999999996419
 21
-9.9999999999998295
 31
0.0
  0
LINE
  5
4610
  8
240
 10
-0.0000000000061391
 20
-8.9999999999999716
 30
0.0
 11
0.0
 21
0.0000000000464127
 31
0.0
  0
ARC
  5
4611
  8
240
 10
0.9999999999938609
 20
-9.0000000000006537
 30
0.0
 40
1.0
 50
179.99999999996089
 51
270.0
1001
GENIUS_GENODEF_13
1002
{
1000
HIER
1070
     0
1002
}
1002
{
1000
MANEDIT
1070
     0
1002
}
1002
{
1000
NOSEL
1070
     0
1002
}
1002
{
1000
BEHIND
1070
     0
1002
}
1002
{
1000
OTHER
1070
     0
1002
}
1002
{
1000
REACTOR
1002
}
1001
GENIUS_GENOBJ-N-FIL_13
1002
{
1000
OWNER
1000
GEN
1002
}
  0
LINE
  5
4612
  8
240
 10
0.9999999999938609
 20
-10.00000000000065
 30
0.0
 11
52.799999999990412
 21
-9.9999999999999716
 31
0.0
  0
LINE
  5
4613
  8
241
 10
52.799999999990412
 20
-9.9999999999999716
 30
0.0
 11
52.799999999990412
 21
-0.0000000000000568
 31
0.0
  0
LINE
  5
4614
  8
241
 10
53.999999999992617
 20
-10.00000000000003
 30
0.0
 11
53.999999999992617
 21
-0.0000000000000568
 31
0.0
  0
LINE
  5
4615
  8
241
 10
54.999999999992561
 20
-10.00000000000003
 30
0.0
 11
54.999999999992561
 21
-0.0000000000000568
 31
0.0
  0
LINE
  5
4616
  8
241
 10
56.19999999999272
 20
-9.9999999999999147
 30
0.0
 11
56.19999999999272
 21
-0.0000000000000568
 31
0.0
  0
ARC
  5
4627
  8
240
 10
73.645299461617128
 20
6.25
 30
0.0
 40
0.4999999999999999
 50
30.000000000015081
 51
90.0
  0
LINE
  5
4628
  8
240
 10
68.299999999997965
 20
6.7499999999999707
 30
0.0
 11
73.645299461617128
 21
6.7499999999999707
 31
0.0
  0
LINE
  5
4629
  8
240
 10
67.999999999995396
 20
6.9999999999999432
 30
0.0
 11
68.049999999997965
 21
6.9999999999999432
 31
0.0
  0
LINE
  5
462A
  8
240
 10
68.299999999997965
 20
6.7499999999999707
 30
0.0
 11
68.049999999997965
 21
7.0
 31
0.0
  0
LINE
  5
462B
  8
240
 10
74.684529946158591
 20
5.4499999999999034
 30
0.0
 11
74.078312163509281
 21
6.5000000000000853
 31
0.0
  0
ARC
  5
462C
  8
240
 10
75.030940107672222
 20
5.6499999999999773
 30
0.0
 40
0.3999999999999998
 50
210.00000000001509
 51
270.0
  0
LINE
  5
462D
  8
240
 10
75.030940107672222
 20
5.2499999999998863
 30
0.0
 11
75.499999999996191
 21
5.2499999999998863
 31
0.0
  0
LINE
  5
462E
  8
240
 10
75.499999999996191
 20
5.7999999999998693
 30
0.0
 11
75.499999999996191
 21
5.2499999999998863
 31
0.0
  0
LINE
  5
4632
  8
240
 10
89.999999999996064
 20
4.9999999999999956
 30
0.0
 11
89.999999999996064
 21
0.0
 31
0.0
  0
ARC
  5
4633
  8
240
 10
75.79999999999626
 20
5.7999999999998693
 30
0.0
 40
0.300000000000012
 50
90.0
 51
180.0
  0
LINE
  5
4634
  8
240
 10
75.79999999999626
 20
6.1000000000000218
 30
0.0
 11
77.499999999996476
 21
6.1000000000000218
 31
0.0
  0
ARC
  5
4635
  8
240
 10
78.026782687638956
 20
6.9499999999999309
 30
0.0
 40
1.0000000000000031
 50
238.21166938295559
 51
270.0
  0
LINE
  5
4636
  8
240
 10
78.026782687638956
 20
5.9500000000000171
 30
0.0
 11
78.370861987793205
 21
5.9500000000000171
 31
0.0
  0
ARC
  5
4637
  8
240
 10
78.387337453470934
 20
6.9498642703040332
 30
0.0
 40
1.000000000000002
 50
269.05598264037059
 51
288.21976138890238
  0
LINE
  5
4638
  8
240
 10
78.699999999996123
 20
5.9999999999998863
 30
0.0
 11
88.999999999996064
 21
5.9999999999998863
 31
0.0
  0
LINE
  5
463D
  8
245
  6
CENTER2
 10
-3.3023593092292449
 20
0.0
 30
0.0
 11
92.813080160961363
 21
0.0
 31
0.0
1001
GRPNAME
1000
0000002V
  0
LINE
  5
4649
  8
241
 10
75.499999999996191
 20
5.2499999999998863
 30
0.0
 11
75.499999999996191
 21
0.0
 31
0.0
  0
LINE
  5
464A
  8
241
 10
67.999999999995396
 20
6.9999999999999432
 30
0.0
 11
67.999999999995396
 21
0.0
 31
0.0
  0
ARC
  5
4665
  8
240
 10
73.645299461617128
 20
-6.25
 30
0.0
 40
0.4999999999999999
 50
270.0
 51
329.99999999998153
  0
LINE
  5
4666
  8
240
 10
68.299999999997965
 20
-6.7499999999999707
 30
0.0
 11
73.645299461617128
 21
-6.7499999999999707
 31
0.0
  0
LINE
  5
4667
  8
240
 10
67.999999999995396
 20
-6.9999999999999432
 30
0.0
 11
68.049999999997965
 21
-6.9999999999999432
 31
0.0
  0
LINE
  5
4668
  8
240
 10
68.299999999997965
 20
-6.7499999999999707
 30
0.0
 11
68.049999999997965
 21
-7.0
 31
0.0
  0
LINE
  5
4669
  8
240
 10
74.684529946158591
 20
-5.4499999999999034
 30
0.0
 11
74.078312163509281
 21
-6.5000000000000853
 31
0.0
  0
ARC
  5
466A
  8
240
 10
75.030940107672222
 20
-5.6499999999999773
 30
0.0
 40
0.3999999999999998
 50
90.0
 51
149.99999999998491
  0
LINE
  5
466B
  8
240
 10
75.030940107672222
 20
-5.2499999999998863
 30
0.0
 11
75.499999999996191
 21
-5.2499999999998863
 31
0.0
  0
LINE
  5
466C
  8
240
 10
75.499999999996191
 20
-5.7999999999998693
 30
0.0
 11
75.499999999996191
 21
-5.2499999999998863
 31
0.0
  0
LINE
  5
4670
  8
240
 10
89.999999999996064
 20
-4.9999999999999938
 30
0.0
 11
89.999999999996064
 21
0.0
 31
0.0
  0
ARC
  5
4671
  8
240
 10
75.79999999999626
 20
-5.7999999999998693
 30
0.0
 40
0.300000000000012
 50
180.0
 51
270.0
  0
LINE
  5
4672
  8
240
 10
75.79999999999626
 20
-6.1000000000000218
 30
0.0
 11
77.499999999996476
 21
-6.1000000000000218
 31
0.0
  0
ARC
  5
4673
  8
240
 10
78.026782687638956
 20
-6.9499999999999309
 30
0.0
 40
1.0000000000000031
 50
90.0
 51
121.78833061704429
  0
LINE
  5
4674
  8
240
 10
78.026782687638956
 20
-5.9500000000000171
 30
0.0
 11
78.370861987793205
 21
-5.9500000000000171
 31
0.0
  0
ARC
  5
4675
  8
240
 10
78.387337453470934
 20
-6.9498642703040332
 30
0.0
 40
1.000000000000002
 50
71.780238611097587
 51
90.944017359629385
  0
LINE
  5
4676
  8
240
 10
78.699999999996123
 20
-5.9999999999998863
 30
0.0
 11
88.999999999996064
 21
-5.9999999999998863
 31
0.0
  0
LINE
  5
4686
  8
241
 10
75.499999999996191
 20
-5.2499999999998863
 30
0.0
 11
75.499999999996191
 21
0.0
 31
0.0
  0
LINE
  5
4687
  8
241
 10
67.999999999995396
 20
-6.9999999999999432
 30
0.0
 11
67.999999999995396
 21
0.0
 31
0.0
  0
LINE
  5
469B
  8
241
 10
74.799999999996544
 20
0.0
 30
0.0
 11
74.799999999996544
 21
5.2499999999998863
 31
0.0
  0
LINE
  5
469C
  8
241
 10
74.799999999996544
 20
0.0
 30
0.0
 11
74.799999999996544
 21
-5.2499999999998863
 31
0.0
  0
TEXT
  5
46AB
  8
241
 10
-0.7834397015346825
 20
41.367745696508983
 30
0.0
 40
4.0
  1
ST20-MGT3-90
  7
YOKO
  0
LINE
  5
475C
  8
241
 10
77.499999999996106
 20
6.0999999999996994
 30
0.0
 11
77.499999999996078
 21
-6.0999999999999028
 31
0.0
  0
LINE
  5
475D
  8
241
 10
78.699999999996578
 20
6.0000000000003624
 30
0.0
 11
78.699999999996834
 21
-5.9999999999999929
 31
0.0
  0
LINE
  5
475E
  8
250
 10
88.999999999996064
 20
5.9999999999999956
 30
0.0
 11
108.2341729125084
 21
5.9999999999999956
 31
0.0
  0
LINE
  5
475F
  8
250
 10
88.999999999996064
 20
-5.9999999999997309
 30
0.0
 11
108.4537656980695
 21
-5.9999999999997389
 31
0.0
  0
LINE
  5
4760
  8
250
 10
107.8843515263675
 20
3.769999999999996
 30
0.0
 11
107.8843515263675
 21
-3.769999999999738
 31
0.0
  0
TEXT
  5
4762
  8
250
 10
106.8843515263675
 20
-3.7999999999998528
 30
0.0
 40
2.799999999999998
  1
\U+220512
 50
90.0
  0
LINE
  5
4763
  8
250
 10
108.25601819303419
 20
-3.769999999999738
 30
0.0
 11
107.8843515263675
 21
-5.9999999999997389
 31
0.0
  0
LINE
  5
4764
  8
250
 10
107.5126848597009
 20
-3.769999999999738
 30
0.0
 11
107.8843515263675
 21
-5.9999999999997389
 31
0.0
  0
LINE
  5
4765
  8
250
 10
107.8843515263675
 20
-5.9999999999997389
 30
0.0
 11
107.8843515263675
 21
-3.769999999999738
 31
0.0
  0
LINE
  5
4766
  8
250
 10
107.5126848597009
 20
3.769999999999996
 30
0.0
 11
107.8843515263675
 21
5.9999999999999956
 31
0.0
  0
LINE
  5
4767
  8
250
 10
108.25601819303419
 20
3.769999999999996
 30
0.0
 11
107.8843515263675
 21
5.9999999999999956
 31
0.0
  0
LINE
  5
4768
  8
250
 10
107.8843515263675
 20
5.9999999999999956
 30
0.0
 11
107.8843515263675
 21
3.769999999999996
 31
0.0
  0
LINE
  5
4770
  8
250
 10
101.4999999999977
 20
2.0000000099999919
 30
0.0
 11
101.4999999999977
 21
-4.736302310000001
 31
0.0
  0
LINE
  5
4771
  8
250
 10
88.700000729997768
 20
2.0000000099999919
 30
0.0
 11
102.4999999999977
 21
2.0000000099999919
 31
0.0
  0
LINE
  5
4772
  8
250
 10
96.470565277114673
 20
21.000777046257141
 30
0.0
 11
115.003898610448
 21
21.000777046257141
 31
0.0
1001
ITEMNAME
1000
LNSP2
  0
LINE
  5
4773
  8
241
  6
HIDDEN2
 10
78.770046480369473
 20
5.2500000969623839
 30
0.0
 11
75.499998474118783
 21
5.2500000969623573
 31
0.0
1001
GRPNAME
1000
PASTMD0E
  0
LINE
  5
4774
  8
241
  6
HIDDEN2
 10
76.87600351161953
 20
2.7000046745990161
 30
0.0
 11
66.020046003532286
 21
2.700004674599104
 31
0.0
1001
GRPNAME
1000
PASTMD0E
  0
LINE
  5
4775
  8
241
  6
HIDDEN2
 10
78.462266881463705
 20
2.1000002675029519
 30
0.0
 11
66.020001370904609
 21
2.1000002675029532
 31
0.0
1001
GRPNAME
1000
PASTMD0K
  0
LINE
  5
4776
  8
241
  6
HIDDEN2
 10
63.520046003532293
 20
3.0000000969623839
 30
0.0
 11
66.020046003532286
 21
3.0000000969623839
 31
0.0
1001
GRPNAME
1000
PASTMD0E
  0
LINE
  5
4777
  8
241
  6
HIDDEN2
 10
63.520046003532293
 20
3.0000000969623839
 30
0.0
 11
63.520046003532293
 21
0.0000000000000196
 31
0.0
1001
GRPNAME
1000
PASTMD0E
  0
LINE
  5
4778
  8
241
  6
HIDDEN2
 10
66.020001370904609
 20
3.0000000969623839
 30
0.0
 11
66.020001370904609
 21
0.0000000000000196
 31
0.0
1001
GRPNAME
1000
PASTMD0K
  0
LINE
  5
4779
  8
241
  6
HIDDEN2
 10
79.020046480369473
 20
5.0000000969623839
 30
0.0
 11
78.770046480369473
 21
5.2500000969623839
 31
0.0
1001
GRPNAME
1000
PASTMD0E
  0
LINE
  5
477A
  8
242
  6
HIDDEN2
 10
79.520046480369444
 20
4.5000000969623839
 30
0.0
 11
86.020046599578748
 21
4.5000000969623839
 31
0.0
1001
GRPNAME
1000
PASTMD0E
  0
LINE
  5
477B
  8
241
  6
HIDDEN2
 10
85.520046599578706
 20
5.0000000969623839
 30
0.0
 11
79.020046480369473
 21
5.0000000969623839
 31
0.0
1001
GRPNAME
1000
PASTMD0E
  0
LINE
  5
477C
  8
241
  6
HIDDEN2
 10
76.87600351161953
 20
2.7000046745990161
 30
0.0
 11
86.557386729150053
 21
3.547016052520791
 31
0.0
1001
GRPNAME
1000
PASTMD0E
  0
LINE
  5
477D
  8
241
  6
HIDDEN2
 10
78.520000417230278
 20
2.0000000052425131
 30
0.0
 11
88.499999999997755
 21
2.0000000052425131
 31
0.0
1001
GRPNAME
1000
PASTMD0K
  0
LINE
  5
477E
  8
242
  6
HIDDEN2
 10
79.520046480369444
 20
4.5000000969623839
 30
0.0
 11
79.020046480369473
 21
5.0000000969623839
 31
0.0
1001
GRPNAME
1000
PASTMD0E
  0
LINE
  5
477F
  8
241
  6
CONTINUOUS
 10
78.520000417230278
 20
2.0000000052425131
 30
0.0
 11
78.462266881463705
 21
2.1000002675029519
 31
0.0
1001
GRPNAME
1000
PASTMD0K
  0
LINE
  5
4780
  8
241
  6
HIDDEN2
 10
88.100002259013806
 20
3.7000006489726771
 30
0.0
 11
88.499999999997755
 21
3.2999991230937731
 31
0.0
1001
GRPNAME
1000
PASTMD0K
  0
LINE
  5
4781
  8
241
  6
HIDDEN2
 10
85.520046599578706
 20
5.0000000969623839
 30
0.0
 11
86.020046599578748
 21
4.5000000969623839
 31
0.0
1001
GRPNAME
1000
PASTMD0E
  0
LINE
  5
4782
  8
241
  6
HIDDEN2
 10
86.020046599578748
 20
3.5000047949800881
 30
0.0
 11
86.020046599578748
 21
4.5000000969623839
 31
0.0
1001
GRPNAME
1000
PASTMD0E
  0
LINE
  5
4783
  8
241
  6
HIDDEN2
 10
86.557386729150053
 20
3.547016052520791
 30
0.0
 11
86.700000703332591
 21
3.2999991230937731
 31
0.0
1001
GRPNAME
1000
PASTMD0K
  0
LINE
  5
4784
  8
241
  6
HIDDEN2
 10
86.700000703332591
 20
3.2999991230937731
 30
0.0
 11
87.299999207256008
 21
3.2999991230937731
 31
0.0
1001
GRPNAME
1000
PASTMD0K
  0
LINE
  5
4785
  8
241
  6
HIDDEN2
 10
87.700000748036018
 20
3.7000006489726771
 30
0.0
 11
87.299999207256008
 21
3.2999991230937731
 31
0.0
1001
GRPNAME
1000
PASTMD0K
  0
LINE
  5
4786
  8
241
  6
HIDDEN2
 10
87.700000748036018
 20
3.7000006489726771
 30
0.0
 11
88.100002259013806
 21
3.7000006489726771
 31
0.0
1001
GRPNAME
1000
PASTMD0K
  0
LINE
  5
4787
  8
241
  6
HIDDEN2
 10
88.499999999997755
 20
3.2999991230937731
 30
0.0
 11
88.499999999997755
 21
0.0000000000000196
 31
0.0
1001
GRPNAME
1000
PASTMD0K
  0
LINE
  5
4788
  8
241
  6
HIDDEN2
 10
89.499999999997755
 20
2.0500000512475811
 30
0.0
 11
88.499999999997755
 21
2.0500000512475869
 31
0.0
1001
GRPNAME
1000
PASTMD0F
  0
LINE
  5
4789
  8
241
  6
HIDDEN2
 10
89.499999999997755
 20
2.0500000512475811
 30
0.0
 11
89.999999999997726
 21
2.5500000512475829
 31
0.0
1001
GRPNAME
1000
PASTMD0F
  0
LINE
  5
478A
  8
241
 10
73.954020599747935
 20
-3.6499878131000738
 30
0.0
 11
73.954020599747935
 21
-3.0923292192130489
 31
0.0
  0
ARC
  5
478B
  8
241
 10
63.1287030524458
 20
0.0000000000000196
 30
0.0
 40
11.258330249194501
 50
344.05763139436988
 51
0.0
  0
ARC
  5
478C
  8
241
 10
71.560163701880526
 20
-5.154118051782099
 30
0.0
 40
2.827182099261595
 50
327.85765324454502
 51
32.142346755458142
  0
LINE
  5
478D
  8
241
 10
73.954020599747935
 20
-3.6499878131001888
 30
0.0
 11
67.999999999995282
 21
-3.6499878131001839
 31
0.0
  0
LINE
  5
478E
  8
241
 10
73.954020599747693
 20
-3.0923292192136151
 30
0.0
 11
67.99999999999568
 21
-3.0923292192136178
 31
0.0
  0
LINE
  5
478F
  8
241
 10
73.954020599747935
 20
3.649987813100112
 30
0.0
 11
73.954020599747935
 21
3.0923292192130871
 31
0.0
  0
ARC
  5
4790
  8
241
 10
63.1287030524458
 20
0.0000000000000196
 30
0.0
 40
11.258330249194501
 50
0.0
 51
15.9423686056299
  0
ARC
  5
4791
  8
241
 10
71.560163701880526
 20
5.1541180517821372
 30
0.0
 40
2.827182099261595
 50
327.85765324454189
 51
32.142346755455051
  0
LINE
  5
4792
  8
241
 10
73.954020599747935
 20
3.6499878131002279
 30
0.0
 11
68.000000000000256
 21
3.6499878131002221
 31
0.0
  0
LINE
  5
4793
  8
241
 10
73.954020599747693
 20
3.0923292192136551
 30
0.0
 11
67.999999999999886
 21
3.0923292192136591
 31
0.0
  0
TEXT
  5
4794
  8
250
 10
98.737231943781325
 20
22.000777046257141
 30
0.0
 40
2.799999999999998
  1
NBC4S
  7
YOKO
1001
ITEMNAME
1000
LNSP3
  0
TEXT
  5
4795
  8
250
 10
100.4999999999977
 20
-8.8000000000000007
 30
0.0
 40
3.0
  1
max.\U+03C64
 50
90.0
1001
ITEMNAME
1000
DI010
  0
LINE
  5
4796
  8
250
 10
101.128333333331
 20
-0.2299999900000049
 30
0.0
 11
101.4999999999977
 21
2.0000000099999919
 31
0.0
  0
LINE
  5
4797
  8
250
 10
101.8716666666644
 20
-0.2299999900000049
 30
0.0
 11
101.4999999999977
 21
2.0000000099999919
 31
0.0
  0
LINE
  5
4798
  8
250
 10
101.4999999999977
 20
2.0000000099999919
 30
0.0
 11
101.4999999999977
 21
-0.2299999900000049
 31
0.0
  0
LINE
  5
4799
  8
250
 10
88.809862640992336
 20
7.7320508588164767
 30
0.0
 11
96.470565277114673
 21
21.000777046257141
 31
0.0
1001
ACAD
1000
DSTYLE
1002
{
1070
   341
1005
0
1070
    41
1040
2.0
1070
   140
1040
2.799999999999998
1002
}
  0
LINE
  5
479A
  8
250
 10
89.098537775587161
 20
7.5653841921498071
 30
0.0
 11
87.809862640992336
 21
6.0000000512475991
 31
0.0
  0
LINE
  5
479B
  8
250
 10
88.521187506397524
 20
7.8987175254831419
 30
0.0
 11
87.809862640992336
 21
6.0000000512475991
 31
0.0
  0
LINE
  5
479C
  8
250
 10
87.809862640992336
 20
6.0000000512475991
 30
0.0
 11
88.809862640992336
 21
7.7320508588164749
 31
0.0
  0
ARC
  5
47A8
  8
240
 10
88.999999999996064
 20
4.9999999999999956
 30
0.0
 40
1.0
 50
0.0
 51
90.0
1001
GRPNAME
1000
00000006
1001
GENIUS_GENODEF_13
1002
{
1000
HIER
1070
     0
1002
}
1002
{
1000
MANEDIT
1070
     0
1002
}
1002
{
1000
NOSEL
1070
     0
1002
}
1002
{
1000
BEHIND
1070
     0
1002
}
1002
{
1000
OTHER
1070
     0
1002
}
1002
{
1000
REACTOR
1002
}
1001
GENIUS_GENOBJ-N-FIL_13
1002
{
1000
OWNER
1000
GEN
1002
}
  0
ARC
  5
47A9
  8
240
 10
88.999999999996064
 20
-4.9999999999999938
 30
0.0
 40
1.0
 50
270.0
 51
0.0
1001
GRPNAME
1000
00000006
1001
GENIUS_GENODEF_13
1002
{
1000
HIER
1070
     0
1002
}
1002
{
1000
MANEDIT
1070
     0
1002
}
1002
{
1000
NOSEL
1070
     0
1002
}
1002
{
1000
BEHIND
1070
     0
1002
}
1002
{
1000
OTHER
1070
     0
1002
}
1002
{
1000
REACTOR
1002
}
1001
GENIUS_GENOBJ-N-FIL_13
1002
{
1000
OWNER
1000
GEN
1002
}
  0
LINE
  5
481B
  8
250
 10
0.4999999999938762
 20
10.00000000000065
 30
0.0
 11
-8.0000000000003038
 21
10.00000000000065
 31
0.0
  0
LINE
  5
481C
  8
250
 10
0.4999999999938742
 20
-10.00000000000065
 30
0.0
 11
-8.0000000000003055
 21
-10.00000000000065
 31
0.0
  0
LINE
  5
481D
  8
250
 10
-7.000000000000302
 20
7.7700000000006533
 30
0.0
 11
-7.0000000000003064
 21
-7.7700000000006488
 31
0.0
  0
LINE
  5
4821
  8
250
 10
-0.0000000000061391
 20
9.4999999999999716
 30
0.0
 11
-0.0000000000061379
 21
29.00077804625715
 31
0.0
  0
LINE
  5
4822
  8
250
 10
89.999999999996064
 20
5.4999999999999956
 30
0.0
 11
89.999999999996064
 21
29.00077804625715
 31
0.0
  0
LINE
  5
4823
  8
250
 10
2.2299999999938618
 20
28.00077804625715
 30
0.0
 11
87.769999999996074
 21
28.00077804625715
 31
0.0
  0
TEXT
  5
4827
  8
250
 10
42.333333333328298
 20
29.00077804625715
 30
0.0
 40
2.7999999999999989
  1
90
  0
LINE
  5
4828
  8
250
 10
87.769999999996074
 20
28.372444712923819
 30
0.0
 11
89.999999999996064
 21
28.00077804625715
 31
0.0
  0
LINE
  5
4829
  8
250
 10
87.769999999996074
 20
27.62911137959048
 30
0.0
 11
89.999999999996064
 21
28.00077804625715
 31
0.0
  0
LINE
  5
482A
  8
250
 10
89.999999999996064
 20
28.00077804625715
 30
0.0
 11
87.769999999996074
 21
28.00077804625715
 31
0.0
  0
LINE
  5
482B
  8
250
 10
2.2299999999938618
 20
27.62911137959048
 30
0.0
 11
-0.0000000000061379
 21
28.00077804625715
 31
0.0
  0
LINE
  5
482C
  8
250
 10
2.2299999999938618
 20
28.372444712923819
 30
0.0
 11
-0.0000000000061379
 21
28.00077804625715
 31
0.0
  0
LINE
  5
482D
  8
250
 10
-0.0000000000061379
 20
28.00077804625715
 30
0.0
 11
2.2299999999938618
 21
28.00077804625715
 31
0.0
  0
TEXT
  5
482E
  8
250
 10
-8.0000000000003055
 20
-3.9333333333333318
 30
0.0
 40
2.7999999999999989
  1
\U+220520
 50
90.0
  0
LINE
  5
482F
  8
250
 10
-6.6283333333336403
 20
-7.7700000000006488
 30
0.0
 11
-7.0000000000003073
 21
-10.00000000000065
 31
0.0
  0
LINE
  5
4830
  8
250
 10
-7.3716666666669726
 20
-7.7700000000006488
 30
0.0
 11
-7.0000000000003073
 21
-10.00000000000065
 31
0.0
  0
LINE
  5
4831
  8
250
 10
-7.0000000000003073
 20
-10.00000000000065
 30
0.0
 11
-7.0000000000003073
 21
-7.7700000000006488
 31
0.0
  0
LINE
  5
4832
  8
250
 10
-7.371666666666969
 20
7.7700000000006533
 30
0.0
 11
-7.0000000000003011
 21
10.00000000000065
 31
0.0
  0
LINE
  5
4833
  8
250
 10
-6.6283333333336349
 20
7.7700000000006533
 30
0.0
 11
-7.0000000000003011
 21
10.00000000000065
 31
0.0
  0
LINE
  5
4834
  8
250
 10
-7.0000000000003011
 20
10.00000000000065
 30
0.0
 11
-7.0000000000003011
 21
7.7700000000006533
 31
0.0
  0
VIEWPORT
  5
22
 67
     1
  8
0
 10
261.51769911504419
 20
148.5
 30
0.0
 40
523.0353982300885
 41
297.0
 68
     1
 69
     1
1001
ACAD
1000
MVIEW
1002
{
1070
    16
1010
0.0
1020
0.0
1030
0.0
1010
0.0
1020
0.0
1030
1.0
1040
0.0
1040
297.0
1040
261.51769911504419
1040
148.5
1040
50.0
1040
0.0
1040
0.0
1070
     0
1070
   100
1070
     1
1070
     1
1070
     0
1070
     0
1070
     0
1070
     0
1040
0.0
1040
0.0
1040
0.0
1040
1.0
1040
1.0
1040
10.0
1040
10.0
1070
     0
1002
{
1002
}
1002
}
1001
GENIUS_GENODEF_13
1002
{
1000
HIER
1070
     0
1002
}
1002
{
1000
MANEDIT
1070
     0
1002
}
1002
{
1000
NOSEL
1070
     0
1002
}
1002
{
1000
BEHIND
1070
     0
1002
}
1002
{
1000
OTHER
1070
     0
1002
}
1002
{
1000
REACTOR
1002
}
1001
GENIUS_GENOBJ-N-SDF_13
1002
{
1000
OWNER
1000
GEN
1002
}
1001
GENIUS_GENSCREG_15
1000
PF
1040
1.0
1000
DF
1040
1.0
1000
MIN
1011
0.0
1021
0.0
1031
0.0
1021
0.0
1031
0.0
1000
MAX
1011
523.0353982300885
1021
0.0
1031
0.0
1021
297.0
1031
0.0
1000
FLAGS
1070
     4
  0
ENDSEC
  0
EOF
