  0
SECTION
  2
HEADER
  9
$ACADVER
  1
AC1009
  9
$INSBASE
 10
0.0
 20
0.0
 30
0.0
  9
$EXTMIN
 10
-158.6857142857144
 20
-10.05000000000026
 30
0.0
  9
$EXTMAX
 10
9.9843942304556208
 20
55.624037038540131
 30
0.0
  9
$LIMMIN
 10
0.0
 20
0.0
  9
$LIMMAX
 10
297.0
 20
210.0
  9
$ORTHOMODE
 70
     1
  9
$REGENMODE
 70
     1
  9
$FILLMODE
 70
     1
  9
$QTEXTMODE
 70
     0
  9
$MIRRTEXT
 70
     1
  9
$DRAGMODE
 70
     2
  9
$LTSCALE
 40
10.0
  9
$OSMODE
 70
    39
  9
$ATTMODE
 70
     1
  9
$TEXTSIZE
 40
3.0
  9
$TRACEWID
 40
1.0
  9
$TEXTSTYLE
  7
YOKO
  9
$CLAYER
  8
240
  9
$CELTYPE
  6
BYLAYER
  9
$CECOLOR
 62
   256
  9
$DIMSCALE
 40
1.0
  9
$DIMASZ
 40
2.2299999999999991
  9
$DIMEXO
 40
0.5
  9
$DIMDLI
 40
7.0
  9
$DIMRND
 40
0.0
  9
$DIMDLE
 40
0.0
  9
$DIMEXE
 40
1.0
  9
$DIMTP
 40
0.0
  9
$DIMTM
 40
0.01
  9
$DIMTXT
 40
2.7999999999999989
  9
$DIMCEN
 40
0.0
  9
$DIMTSZ
 40
0.0
  9
$DIMTOL
 70
     0
  9
$DIMLIM
 70
     0
  9
$DIMTIH
 70
     0
  9
$DIMTOH
 70
     0
  9
$DIMSE1
 70
     0
  9
$DIMSE2
 70
     0
  9
$DIMTAD
 70
     3
  9
$DIMZIN
 70
     9
  9
$DIMBLK
  1
OPEN
  9
$DIMASO
 70
     1
  9
$DIMSHO
 70
     1
  9
$DIMPOST
  1

  9
$DIMAPOST
  1

  9
$DIMALT
 70
     0
  9
$DIMALTD
 70
     2
  9
$DIMALTF
 40
25.399999999999999
  9
$DIMLFAC
 40
1.0
  9
$DIMTOFL
 70
     1
  9
$DIMTVP
 40
0.0
  9
$DIMTIX
 70
     1
  9
$DIMSOXD
 70
     0
  9
$DIMSAH
 70
     0
  9
$DIMBLK1
  1

  9
$DIMBLK2
  1

  9
$DIMSTYLE
  2
BIGT
  9
$DIMCLRD
 70
   256
  9
$DIMCLRE
 70
   256
  9
$DIMCLRT
 70
    40
  9
$DIMTFAC
 40
1.0
  9
$DIMGAP
 40
1.0
  9
$LUNITS
 70
     2
  9
$LUPREC
 70
     3
  9
$SKETCHINC
 40
1.0
  9
$FILLETRAD
 40
0.0
  9
$AUNITS
 70
     0
  9
$AUPREC
 70
     3
  9
$MENU
  1
.
  9
$ELEVATION
 40
0.0
  9
$PELEVATION
 40
0.0
  9
$THICKNESS
 40
0.0
  9
$LIMCHECK
 70
     0
  9
$BLIPMODE
 70
     0
  9
$CHAMFERA
 40
0.25
  9
$CHAMFERB
 40
0.25
  9
$SKPOLY
 70
     0
  9
$TDCREATE
 40
2456114.6207432761
  9
$TDUPDATE
 40
2456115.3962977552
  9
$TDINDWG
 40
0.0354808218
  9
$TDUSRTIMER
 40
0.0354808218
  9
$USRTIMER
 70
     1
  9
$ANGBASE
 50
0.0
  9
$ANGDIR
 70
     0
  9
$PDMODE
 70
     1
  9
$PDSIZE
 40
0.0
  9
$PLINEWID
 40
0.0
  9
$COORDS
 70
     0
  9
$SPLFRAME
 70
     0
  9
$SPLINETYPE
 70
     6
  9
$SPLINESEGS
 70
     4
  9
$ATTDIA
 70
     1
  9
$ATTREQ
 70
     1
  9
$HANDLING
 70
     1
  9
$HANDSEED
  5
1A31
  9
$SURFTAB1
 70
     6
  9
$SURFTAB2
 70
     6
  9
$SURFTYPE
 70
     6
  9
$SURFU
 70
     6
  9
$SURFV
 70
     6
  9
$UCSNAME
  2

  9
$UCSORG
 10
0.0
 20
0.0
 30
0.0
  9
$UCSXDIR
 10
1.0
 20
0.0
 30
0.0
  9
$UCSYDIR
 10
0.0
 20
1.0
 30
0.0
  9
$PUCSNAME
  2

  9
$PUCSORG
 10
0.0
 20
0.0
 30
0.0
  9
$PUCSXDIR
 10
1.0
 20
0.0
 30
0.0
  9
$PUCSYDIR
 10
0.0
 20
1.0
 30
0.0
  9
$USERI1
 70
     1
  9
$USERI2
 70
     0
  9
$USERI3
 70
     0
  9
$USERI4
 70
     0
  9
$USERI5
 70
     0
  9
$USERR1
 40
0.0
  9
$USERR2
 40
0.0
  9
$USERR3
 40
0.0
  9
$USERR4
 40
0.0
  9
$USERR5
 40
0.0
  9
$WORLDVIEW
 70
     1
  9
$SHADEDGE
 70
     3
  9
$SHADEDIF
 70
    70
  9
$TILEMODE
 70
     1
  9
$MAXACTVP
 70
    16
  9
$PLIMCHECK
 70
     0
  9
$PEXTMIN
 10
1.0000000000000000E+020
 20
1.0000000000000000E+020
 30
1.0000000000000000E+020
  9
$PEXTMAX
 10
-1.0000000000000000E+020
 20
-1.0000000000000000E+020
 30
-1.0000000000000000E+020
  9
$PLIMMIN
 10
0.0
 20
0.0
  9
$PLIMMAX
 10
420.0
 20
297.0
  9
$UNITMODE
 70
     0
  9
$VISRETAIN
 70
     1
  9
$PLINEGEN
 70
     0
  9
$PSLTSCALE
 70
     1
  0
ENDSEC
  0
SECTION
  2
TABLES
  0
TABLE
  2
VPORT
 70
     3
  0
VPORT
  2
*ACTIVE
 70
     0
 10
0.0
 20
0.0
 11
1.0
 21
1.0
 12
-74.345020158310547
 22
22.788222623856509
 13
0.0
 23
0.0
 14
7.0
 24
7.0
 15
7.0
 25
7.0
 16
0.0
 26
0.0
 36
1.0
 17
0.0
 27
0.0
 37
0.0
 40
109.615590939345
 41
1.5459518599562361
 42
50.0
 43
0.0
 44
0.0
 50
0.0
 51
0.0
 71
     0
 72
  2000
 73
     1
 74
     0
 75
     0
 76
     0
 77
     0
 78
     0
  0
ENDTAB
  0
TABLE
  2
LTYPE
 70
    15
  0
LTYPE
  2
CONTINUOUS
 70
     0
  3
Solid line
 72
    65
 73
     0
 40
0.0
  0
LTYPE
  2
CENTER2
 70
     0
  3
___ _ ___ _ ___ _ ___ _ ___ _ ___ _ ___ _ ___ _
 72
    65
 73
     4
 40
1.125
 49
0.75
 49
-0.125
 49
0.125
 49
-0.125
  0
LTYPE
  2
HIDDEN2
 70
     0
  3
_ _ _ _ _ _ _ _ _ _ _ _ _ _ _ _ _ _ _ _ _ _ _ _
 72
    65
 73
     2
 40
0.1875
 49
0.125
 49
-0.0625
  0
LTYPE
  2
PHANTOM2
 70
     0
  3
___ _ _ ___ _ _ ___ _ _ ___ _ _ ___ _ _ ___ _ _
 72
    65
 73
     6
 40
1.25
 49
0.625
 49
-0.125
 49
0.125
 49
-0.125
 49
0.125
 49
-0.125
  0
LTYPE
  2
CENTER
 70
     0
  3
____ _ ____ _ ____ _ ____ _ ____ _ ____ _ ____ 
 72
    65
 73
     4
 40
2.0
 49
1.25
 49
-0.25
 49
0.25
 49
-0.25
  0
LTYPE
  2
AM_ISO02W050
 70
     0
  3
__ __ __ __ __ __ __ __ __ __ __ __ __ __ __
 72
    65
 73
     2
 40
7.5
 49
6.0
 49
-1.5
  0
LTYPE
  2
AMCONSTR
 70
     0
  3
_______________________
 72
    65
 73
     2
 40
9999.0
 49
9999.0
 49
0.0
  0
LTYPE
  2
ACISOWELD
 70
     0
  3
_ _ _ _ _
 72
    65
 73
     2
 40
2.0
 49
2.0
 49
-1.0
  0
LTYPE
  2
ACISOTGB
 70
     0
  3
__ . . __ . .
 72
    65
 73
     6
 40
9.0
 49
4.0
 49
-1.0
 49
1.0
 49
-1.0
 49
1.0
 49
-1.0
  0
LTYPE
  2
ACISOTGL
 70
     0
  3
_ _ _ _ _
 72
    65
 73
     2
 40
3.0
 49
2.0
 49
-1.0
  0
LTYPE
  2
ACJISTGB
 70
     0
  3
__ . . __ . .
 72
    65
 73
     6
 40
9.0
 49
4.0
 49
-1.0
 49
1.0
 49
-1.0
 49
1.0
 49
-1.0
  0
LTYPE
  2
ACJISTGL
 70
     0
  3
_ _ _ _ _
 72
    65
 73
     2
 40
3.0
 49
2.0
 49
-1.0
  0
LTYPE
  2
HIDDEN
 70
     0
  3
Hidden __ __ __ __ __ __ __ __ __ __ __ __ __ _
 72
    65
 73
     2
 40
9.5249999999999986
 49
6.3499999999999988
 49
-3.1749999999999989
  0
ENDTAB
  0
TABLE
  2
LAYER
 70
     7
  0
LAYER
  2
0
 70
     0
 62
     7
  6
CONTINUOUS
  0
LAYER
  2
DEFPOINTS
 70
     0
 62
     7
  6
CONTINUOUS
  0
LAYER
  2
245
 70
     0
 62
     2
  6
CENTER2
  0
LAYER
  2
240
 70
     0
 62
     4
  6
CONTINUOUS
  0
LAYER
  2
241
 70
     0
 62
   211
  6
CONTINUOUS
  0
LAYER
  2
242
 70
     0
 62
     3
  6
CONTINUOUS
  0
LAYER
  2
250
 70
     0
 62
     3
  6
CONTINUOUS
  0
ENDTAB
  0
TABLE
  2
STYLE
 70
     8
  0
STYLE
  2
STANDARD
 70
     0
 40
0.0
 41
1.0
 50
0.0
 71
     0
 42
3.0
  3
romans.shx
  4
extfont.shx
  0
STYLE
  2
ACISOTS
 70
     0
 40
1.0
 41
1.0
 50
0.0
 71
     0
 42
3.0
  3
amgdt.shx
  4
extfont.shx
  0
STYLE
  2
ACISOGDT
 70
     0
 40
0.0
 41
1.0
 50
0.0
 71
     0
 42
3.0
  3
amgdt.shx
  4
extfont.shx
  0
STYLE
  2
ACJISTS
 70
     0
 40
1.0
 41
1.0
 50
0.0
 71
     0
 42
3.0
  3
amgdt.shx
  4
extfont.shx
  0
STYLE
  2
ACJISGDT
 70
     0
 40
0.0
 41
1.0
 50
0.0
 71
     0
 42
3.0
  3
amgdt.shx
  4
extfont.shx
  0
STYLE
  2
YOKO
 70
     0
 40
0.0
 41
1.0
 50
0.0
 71
     0
 42
3.0
  3
romans.shx
  4
extfont.shx
  0
ENDTAB
  0
TABLE
  2
VIEW
 70
     0
  0
ENDTAB
  0
TABLE
  2
UCS
 70
     0
  0
ENDTAB
  0
TABLE
  2
APPID
 70
    28
  0
APPID
  2
ACAD
 70
     0
  0
APPID
  2
GLOBAL
 70
     0
  0
APPID
  2
DETAIL
 70
     0
  0
APPID
  2
GRPNAME
 70
     0
  0
APPID
  2
GPARA
 70
     0
  0
APPID
  2
MCAD_NO_VIS
 70
     0
  0
APPID
  2
ACAD_TEMP_GRAPHIC
 70
     0
  0
APPID
  2
ACATTRIBSERVICES
 70
     0
  0
APPID
  2
GENIUS_GENSCREG_15
 70
     0
  0
APPID
  2
GENIUS_GENODEF_13
 70
     0
  0
APPID
  2
GENIUS_GENOBJ-N-SDF_13
 70
     0
  0
APPID
  2
GENIUS_GENREC_14
 70
     0
  0
APPID
  2
GENIUS_GENOBJ-N-REC_13
 70
     0
  0
APPID
  2
GENIUS_GENDIMSH_14
 70
     0
  0
APPID
  2
GENIUS_GENOBJ-N-DIM_13
 70
     0
  0
APPID
  2
GENIUS_GENDIM_13
 70
     0
  0
APPID
  2
GENIUS_GENDTOL_13
 70
     0
  0
APPID
  2
GENIUS_GENOLIS_13
 70
     0
  0
APPID
  2
GENIUS_GENOENT_13
 70
     0
  0
APPID
  2
GENIUS_GENOBJ-F-FEM_13
 70
     0
  0
APPID
  2
GENIUS_GENOREF_13
 70
     0
  0
APPID
  2
GENIUS_GEFFEM_13
 70
     0
  0
APPID
  2
GENIUS_GEFFEMP_13
 70
     0
  0
APPID
  2
AD_DRAW
 70
     0
  0
APPID
  2
DESIGNERASSEMBLIES
 70
     0
  0
APPID
  2
ACADM_DIM_EDIT
 70
     0
  0
APPID
  2
AMDT_DM_ADJ
 70
     0
  0
APPID
  2
GENIUS_GENOBJ-N-FIL_13
 70
     0
  0
ENDTAB
  0
TABLE
  2
DIMSTYLE
 70
    29
  0
DIMSTYLE
  2
BIGT
 70
     0
  3

  4

  5
OPEN
  6

  7

 40
1.0
 41
2.2299999999999991
 42
0.5
 43
7.0
 44
1.0
 45
0.0
 46
0.0
 47
0.0
 48
0.01
140
2.7999999999999989
141
0.0
142
0.0
143
25.399999999999999
144
1.0
145
0.0
146
1.0
147
1.0
 71
     0
 72
     0
 73
     0
 74
     0
 75
     0
 76
     0
 77
     3
 78
     9
170
     0
171
     2
172
     1
173
     0
174
     1
175
     0
176
   256
177
   256
178
    40
  0
DIMSTYLE
  2
AM_ISO
 70
     0
  3

  4
"
  5

  6

  7

 40
1.0
 41
2.5
 42
1.0
 43
10.0
 44
1.0
 45
0.0
 46
0.0
 47
0.1
 48
0.1
140
3.5
141
0.0
142
0.0
143
0.0393701
144
1.0
145
0.0
146
0.71
147
1.5
 71
     0
 72
     0
 73
     0
 74
     0
 75
     0
 76
     0
 77
     1
 78
     8
170
     0
171
     2
172
     1
173
     0
174
     0
175
     0
176
   256
177
   256
178
     2
  0
DIMSTYLE
  2
AM_ISO$3
 70
     0
  3

  4
"
  5

  6

  7

 40
1.0
 41
2.5
 42
1.0
 43
10.0
 44
1.0
 45
0.0
 46
0.0
 47
0.1
 48
0.1
140
3.5
141
0.0
142
0.0
143
0.0393701
144
1.0
145
0.0
146
0.71
147
1.5
 71
     0
 72
     0
 73
     0
 74
     1
 75
     0
 76
     0
 77
     1
 78
     8
170
     0
171
     2
172
     0
173
     0
174
     0
175
     0
176
   256
177
   256
178
     2
  0
DIMSTYLE
  2
AM_ISO$4
 70
     0
  3

  4
"
  5

  6

  7

 40
1.0
 41
2.5
 42
1.0
 43
10.0
 44
1.0
 45
0.0
 46
0.0
 47
0.1
 48
0.1
140
3.5
141
0.0
142
0.0
143
0.0393701
144
1.0
145
0.0
146
0.71
147
1.5
 71
     0
 72
     0
 73
     0
 74
     1
 75
     0
 76
     0
 77
     1
 78
     8
170
     0
171
     2
172
     0
173
     0
174
     0
175
     0
176
   256
177
   256
178
     2
  0
DIMSTYLE
  2
AM_ISO$6
 70
     0
  3

  4
"
  5

  6

  7

 40
1.0
 41
2.5
 42
1.0
 43
10.0
 44
1.0
 45
0.0
 46
0.0
 47
0.1
 48
0.1
140
3.5
141
0.0
142
0.0
143
0.0393701
144
1.0
145
0.0
146
0.71
147
1.5
 71
     0
 72
     0
 73
     0
 74
     0
 75
     0
 76
     0
 77
     0
 78
     8
170
     0
171
     2
172
     1
173
     0
174
     0
175
     0
176
   256
177
   256
178
     2
  0
DIMSTYLE
  2
AM_ISO$7
 70
     0
  3

  4
"
  5

  6

  7

 40
1.0
 41
2.5
 42
1.0
 43
10.0
 44
1.0
 45
0.0
 46
0.0
 47
0.1
 48
0.1
140
5.0
141
0.0
142
0.0
143
0.0393701
144
1.0
145
0.0
146
0.71
147
1.5
 71
     0
 72
     0
 73
     0
 74
     0
 75
     0
 76
     0
 77
     1
 78
     8
170
     0
171
     2
172
     1
173
     0
174
     0
175
     0
176
   256
177
   256
178
     2
  0
DIMSTYLE
  2
AM_ISO$SF
 70
     0
  3

  4
"
  5

  6

  7

 40
1.0
 41
2.5
 42
1.0
 43
10.0
 44
1.0
 45
0.0
 46
0.0
 47
0.1
 48
0.1
140
3.5
141
0.0
142
0.0
143
0.0393701
144
1.0
145
0.0
146
0.71
147
1.5
 71
     0
 72
     0
 73
     0
 74
     0
 75
     1
 76
     1
 77
     1
 78
     8
170
     0
171
     2
172
     1
173
     0
174
     0
175
     0
176
   256
177
   256
178
     2
  0
DIMSTYLE
  2
AM_ISO$SH
 70
     0
  3

  4
"
  5

  6
GENAXEH
  7

 40
1.0
 41
2.5
 42
1.0
 43
10.0
 44
1.0
 45
0.0
 46
0.0
 47
0.1
 48
0.1
140
3.5
141
0.0
142
0.0
143
0.0393701
144
2.0
145
0.0
146
0.71
147
1.5
 71
     0
 72
     0
 73
     0
 74
     0
 75
     1
 76
     1
 77
     1
 78
     8
170
     0
171
     2
172
     1
173
     1
174
     0
175
     0
176
   256
177
   256
178
     2
  0
DIMSTYLE
  2
BIGT$2
 70
     0
  3

  4

  5
OPEN
  6

  7

 40
1.0
 41
2.2299999999999991
 42
0.5
 43
7.0
 44
1.0
 45
0.0
 46
0.0
 47
0.0
 48
0.01
140
2.7999999999999989
141
0.0
142
0.0
143
25.399999999999999
144
1.0
145
0.0
146
1.0
147
1.0
 71
     0
 72
     0
 73
     0
 74
     0
 75
     0
 76
     0
 77
     3
 78
     9
170
     0
171
     2
172
     1
173
     0
174
     0
175
     0
176
   256
177
   256
178
    40
  0
DIMSTYLE
  2
BIGT$3
 70
     0
  3

  4

  5
OPEN
  6

  7

 40
1.0
 41
2.2299999999999991
 42
0.5
 43
2.5
 44
1.0
 45
0.0
 46
0.0
 47
0.0
 48
0.01
140
2.7999999999999989
141
0.0
142
0.0
143
25.399999999999999
144
1.0
145
0.0
146
1.0
147
1.0
 71
     0
 72
     0
 73
     0
 74
     0
 75
     0
 76
     0
 77
     3
 78
     9
170
     0
171
     2
172
     1
173
     0
174
     0
175
     0
176
   256
177
   256
178
    40
  0
DIMSTYLE
  2
BIGT$7
 70
     0
  3

  4

  5
OPEN
  6

  7

 40
0.0
 41
2.2299999999999991
 42
0.5
 43
7.0
 44
1.0
 45
0.0
 46
0.0
 47
0.0
 48
0.01
140
2.7999999999999989
141
0.0
142
0.0
143
25.399999999999999
144
1.0
145
0.0
146
1.0
147
1.0
 71
     0
 72
     0
 73
     0
 74
     0
 75
     0
 76
     0
 77
     3
 78
     9
170
     0
171
     2
172
     0
173
     0
174
     0
175
     0
176
   256
177
   256
178
    40
  0
DIMSTYLE
  2
BIGT$6
 70
     0
  3

  4

  5
OPEN
  6

  7

 40
1.0
 41
2.2299999999999991
 42
0.5
 43
2.5
 44
1.0
 45
0.0
 46
0.0
 47
0.0
 48
0.01
140
2.7999999999999989
141
0.0
142
0.0
143
25.399999999999999
144
1.0
145
0.0
146
1.0
147
1.0
 71
     0
 72
     0
 73
     0
 74
     0
 75
     0
 76
     0
 77
     3
 78
     9
170
     0
171
     2
172
     1
173
     0
174
     0
175
     0
176
   256
177
   256
178
    40
  0
DIMSTYLE
  2
BIGT$0
 70
     0
  3

  4

  5
OPEN
  6

  7

 40
1.0
 41
2.2299999999999991
 42
0.5
 43
7.0
 44
1.0
 45
0.0
 46
0.0
 47
0.0
 48
0.01
140
2.7999999999999989
141
0.0
142
0.0
143
25.399999999999999
144
1.0
145
0.0
146
1.0
147
1.0
 71
     0
 72
     0
 73
     0
 74
     0
 75
     0
 76
     0
 77
     3
 78
     9
170
     0
171
     2
172
     1
173
     0
174
     0
175
     0
176
   256
177
   256
178
    40
  0
DIMSTYLE
  2
BIGT$4
 70
     0
  3

  4

  5
OPEN
  6

  7

 40
1.0
 41
2.2299999999999991
 42
0.5
 43
2.5
 44
1.0
 45
0.0
 46
0.0
 47
0.0
 48
0.01
140
2.7999999999999989
141
0.0
142
0.0
143
25.399999999999999
144
1.0
145
0.0
146
1.0
147
1.0
 71
     0
 72
     0
 73
     0
 74
     0
 75
     0
 76
     0
 77
     3
 78
     9
170
     0
171
     2
172
     1
173
     0
174
     0
175
     0
176
   256
177
   256
178
    40
  0
DIMSTYLE
  2
BIGT$SH
 70
     0
  3

  4

  5
OPEN
  6

  7

 40
1.0
 41
2.2299999999999991
 42
0.5
 43
7.0
 44
1.0
 45
0.0
 46
0.0
 47
0.0
 48
0.0
140
2.7999999999999989
141
0.0
142
0.0
143
25.399999999999999
144
1.0
145
0.0
146
1.0
147
1.0
 71
     0
 72
     0
 73
     0
 74
     0
 75
     0
 76
     0
 77
     3
 78
     9
170
     0
171
     2
172
     1
173
     0
174
     0
175
     0
176
   256
177
   256
178
    40
  0
DIMSTYLE
  2
BIGT$SF
 70
     0
  3

  4

  5
OPEN
  6

  7

 40
1.0
 41
2.2299999999999991
 42
0.5
 43
7.0
 44
1.0
 45
0.0
 46
0.0
 47
0.0
 48
0.0
140
2.7999999999999989
141
0.0
142
0.0
143
25.399999999999999
144
1.0
145
0.0
146
1.0
147
1.0
 71
     0
 72
     0
 73
     0
 74
     0
 75
     0
 76
     0
 77
     3
 78
     9
170
     0
171
     2
172
     1
173
     0
174
     0
175
     0
176
   256
177
   256
178
    40
  0
DIMSTYLE
  2
TECHNICAL_OSAKA
 70
     0
  3

  4
"
  5
OPEN30
  6

  7

 40
1.0
 41
2.5
 42
1.0
 43
10.0
 44
1.0
 45
0.0
 46
0.0
 47
0.1
 48
0.1
140
2.7999999999999989
141
0.0
142
0.0
143
0.0393701
144
1.0
145
0.0
146
0.71
147
1.5
 71
     0
 72
     0
 73
     0
 74
     0
 75
     0
 76
     0
 77
     3
 78
     8
170
     0
171
     2
172
     1
173
     0
174
     0
175
     0
176
   256
177
   256
178
    40
  0
DIMSTYLE
  2
TECHNICAL_OSAKA$3
 70
     0
  3

  4
"
  5
OPEN30
  6

  7

 40
1.0
 41
2.5
 42
1.0
 43
10.0
 44
1.0
 45
0.0
 46
0.0
 47
0.1
 48
0.1
140
2.7999999999999989
141
0.0
142
0.0
143
0.0393701
144
1.0
145
0.0
146
0.71
147
1.5
 71
     0
 72
     0
 73
     0
 74
     1
 75
     0
 76
     0
 77
     3
 78
     8
170
     0
171
     2
172
     0
173
     0
174
     0
175
     0
176
   256
177
   256
178
    40
  0
DIMSTYLE
  2
TECHNICAL_OSAKA$4
 70
     0
  3

  4
"
  5
OPEN30
  6

  7

 40
1.0
 41
2.5
 42
1.0
 43
10.0
 44
1.0
 45
0.0
 46
0.0
 47
0.1
 48
0.1
140
2.7999999999999989
141
0.0
142
0.0
143
0.0393701
144
1.0
145
0.0
146
0.71
147
1.5
 71
     0
 72
     0
 73
     0
 74
     1
 75
     0
 76
     0
 77
     3
 78
     8
170
     0
171
     2
172
     0
173
     0
174
     0
175
     0
176
   256
177
   256
178
    40
  0
DIMSTYLE
  2
TECHNICAL_OSAKA$6
 70
     0
  3

  4
"
  5
OPEN30
  6

  7

 40
1.0
 41
2.5
 42
1.0
 43
10.0
 44
1.0
 45
0.0
 46
0.0
 47
0.1
 48
0.1
140
2.7999999999999989
141
0.0
142
0.0
143
0.0393701
144
1.0
145
0.0
146
0.71
147
1.5
 71
     0
 72
     0
 73
     0
 74
     0
 75
     0
 76
     0
 77
     0
 78
     8
170
     0
171
     2
172
     1
173
     0
174
     0
175
     0
176
   256
177
   256
178
    40
  0
DIMSTYLE
  2
TECHNICAL_OSAKA$7
 70
     0
  3

  4
"
  5
OPEN30
  6

  7

 40
1.0
 41
2.5
 42
1.0
 43
10.0
 44
1.0
 45
0.0
 46
0.0
 47
0.1
 48
0.1
140
2.7999999999999989
141
0.0
142
0.0
143
0.0393701
144
1.0
145
0.0
146
0.71
147
1.5
 71
     0
 72
     0
 73
     0
 74
     0
 75
     0
 76
     0
 77
     3
 78
     8
170
     0
171
     2
172
     1
173
     0
174
     0
175
     0
176
   256
177
   256
178
    40
  0
DIMSTYLE
  2
TECHNICAL_OSAKA$SF
 70
     0
  3

  4
"
  5
OPEN30
  6
OPEN30
  7
OPEN30
 40
1.0
 41
2.5
 42
1.0
 43
10.0
 44
1.0
 45
0.0
 46
0.0
 47
0.1
 48
0.1
140
3.5
141
0.0
142
0.0
143
0.0393701
144
1.0
145
0.0
146
0.71
147
1.5
 71
     0
 72
     0
 73
     0
 74
     0
 75
     1
 76
     1
 77
     3
 78
     8
170
     0
171
     2
172
     1
173
     0
174
     0
175
     0
176
   256
177
   256
178
    40
  0
DIMSTYLE
  2
TECHNICAL_OSAKA$SH
 70
     0
  3

  4
"
  5
OPEN30
  6
GENAXEH
  7
OPEN30
 40
1.0
 41
2.5
 42
1.0
 43
10.0
 44
1.0
 45
0.0
 46
0.0
 47
0.1
 48
0.1
140
3.5
141
0.0
142
0.0
143
0.0393701
144
2.0
145
0.0
146
0.71
147
1.5
 71
     0
 72
     0
 73
     0
 74
     0
 75
     1
 76
     1
 77
     3
 78
     8
170
     0
171
     2
172
     1
173
     1
174
     0
175
     0
176
   256
177
   256
178
    40
  0
ENDTAB
  0
ENDSEC
  0
SECTION
  2
BLOCKS
  0
BLOCK
  8
0
  2
$MODEL_SPACE
 70
     0
 10
0.0
 20
0.0
 30
0.0
  3
$MODEL_SPACE
  1

  0
ENDBLK
  5
1C
  8
0
  0
BLOCK
 67
     1
  8
0
  2
$PAPER_SPACE
 70
     0
 10
0.0
 20
0.0
 30
0.0
  3
$PAPER_SPACE
  1

  0
ENDBLK
  5
19
 67
     1
  8
0
  0
BLOCK
  8
0
  2
_OPEN
 70
     0
 10
0.0
 20
0.0
 30
0.0
  3
_OPEN
  1

  0
LINE
  5
19C7
  8
0
  6
BYBLOCK
 62
     0
 10
-1.0
 20
0.1666666666666666
 30
0.0
 11
0.0
 21
0.0
 31
0.0
  0
LINE
  5
19C8
  8
0
  6
BYBLOCK
 62
     0
 10
-1.0
 20
-0.1666666666666666
 30
0.0
 11
0.0
 21
0.0
 31
0.0
  0
LINE
  5
19C9
  8
0
  6
BYBLOCK
 62
     0
 10
0.0
 20
0.0
 30
0.0
 11
-1.0
 21
0.0
 31
0.0
  0
ENDBLK
  5
19CA
  8
0
  0
BLOCK
  8
0
  2
GENAXEH
 70
     0
 10
0.0
 20
0.0
 30
0.0
  3
GENAXEH
  1

  0
LINE
  5
19F2
  8
0
 10
-1.0
 20
0.0
 30
0.0
 11
1.0
 21
0.0
 31
0.0
  0
ENDBLK
  5
19F3
  8
0
  0
BLOCK
  8
0
  2
_OPEN30
 70
     0
 10
0.0
 20
0.0
 30
0.0
  3
_OPEN30
  1

  0
LINE
  5
1A17
  8
0
  6
BYBLOCK
 62
     0
 10
-1.0
 20
0.26794919
 30
0.0
 11
0.0
 21
0.0
 31
0.0
  0
LINE
  5
1A18
  8
0
  6
BYBLOCK
 62
     0
 10
0.0
 20
0.0
 30
0.0
 11
-1.0
 21
-0.26794919
 31
0.0
  0
LINE
  5
1A19
  8
0
  6
BYBLOCK
 62
     0
 10
0.0
 20
0.0
 30
0.0
 11
-1.0
 21
0.0
 31
0.0
  0
ENDBLK
  5
1A1A
  8
0
  0
ENDSEC
  0
SECTION
  2
ENTITIES
  0
LINE
  5
14BC
  8
241
  6
CONTINUOUS
 10
-29.99999999999995
 20
9.9817165220011788
 30
0.0
 11
-29.99999999999995
 21
-9.9817165220011503
 31
0.0
  0
LINE
  5
14BD
  8
241
  6
CONTINUOUS
 10
-132.99999999999989
 20
-9.8011729754636718
 30
0.0
 11
-132.99999999999989
 21
9.8758707853337171
 31
0.0
  0
LINE
  5
14BE
  8
240
  6
CONTINUOUS
 10
-134.74999999999989
 20
8.9896370289181249
 30
0.0
 11
-133.23205080756881
 21
9.8660254037844481
 31
0.0
  0
LINE
  5
14BF
  8
240
  6
CONTINUOUS
 10
-29.30717967697581
 20
9.5999999999999943
 30
0.0
 11
-29.999999999999261
 21
10.000000000000069
 31
0.0
  0
LINE
  5
14C3
  8
241
 10
-27.99999999999994
 20
9.7317165220010793
 30
0.0
 11
-27.99999999999994
 21
-9.7317165220011201
 31
0.0
  0
LINE
  5
14C7
  8
240
 10
-29.307179676973679
 20
-9.5999999999999091
 30
0.0
 11
-28.25980762113528
 21
-9.6000000000000085
 31
0.0
  0
LINE
  5
14C9
  8
240
 10
-28.25980762113528
 20
-9.6000000000000085
 30
0.0
 11
-28.000000000000199
 21
-9.7499999999997566
 31
0.0
  0
LINE
  5
14CB
  8
240
  6
CONTINUOUS
 10
-29.99999999999957
 20
-9.9999999999999858
 30
0.0
 11
-29.307179676973679
 21
-9.5999999999999091
 31
0.0
  0
LINE
  5
14D0
  8
240
 10
-29.30717967697581
 20
9.5999999999999943
 30
0.0
 11
-28.25980762113528
 21
9.6000000000000352
 31
0.0
  0
LINE
  5
14D3
  8
240
 10
-28.25980762113528
 20
9.6000000000000352
 30
0.0
 11
-28.000000000000359
 21
9.7499999999996838
 31
0.0
  0
LINE
  5
14D5
  8
240
  6
CONTINUOUS
 10
-134.99999999999989
 20
-8.5566243270258866
 30
0.0
 11
-134.99999999999989
 21
8.556624327025915
 31
0.0
  0
LINE
  5
14D6
  8
240
  6
CONTINUOUS
 10
-29.99999999999957
 20
-9.9999999999999858
 30
0.0
 11
-132.73205080756881
 21
-9.9999999999999858
 31
0.0
  0
LINE
  5
14D7
  8
240
  6
CONTINUOUS
 10
-133.23205080756881
 20
-9.8660254037844197
 30
0.0
 11
-134.74999999999989
 21
-8.9896370289181107
 31
0.0
  0
ARC
  5
14D8
  8
240
  6
CONTINUOUS
 10
-132.73205080756881
 20
-8.9999999999999858
 30
0.0
 40
1.0
 50
239.99999999999989
 51
270.0
  0
ARC
  5
14D9
  8
240
  6
CONTINUOUS
 10
-134.49999999999989
 20
-8.5566243270258866
 30
0.0
 40
0.5000000000000041
 50
180.0
 51
239.99999999999989
  0
ARC
  5
14E1
  8
240
  6
CONTINUOUS
 10
-134.49999999999989
 20
8.556624327025915
 30
0.0
 40
0.5
 50
120.0000000000001
 51
180.0
  0
LINE
  5
14E4
  8
240
  6
CONTINUOUS
 10
-29.999999999999261
 20
10.000000000000069
 30
0.0
 11
-132.73205080756881
 21
10.000000000000011
 31
0.0
  0
ARC
  5
14E5
  8
240
  6
CONTINUOUS
 10
-132.73205080756881
 20
9.0000000000000142
 30
0.0
 40
1.000000000000002
 50
90.0
 51
120.0000000000001
  0
ARC
  5
150C
  8
240
 10
-16.750000000000139
 20
10.24999999999994
 30
0.0
 40
0.8
 50
218.68218745348841
 51
321.31781254651168
  0
ARC
  5
1511
  8
240
 10
-16.750000000000139
 20
-10.249999999999909
 30
0.0
 40
0.8
 50
38.682187453488332
 51
141.31781254651159
  0
LINE
  5
1512
  8
241
 10
-16.125500200160388
 20
-4.1151408139687637
 30
0.0
 11
-16.125500200160442
 21
7.8136404870748626
 31
0.0
  0
LINE
  5
1513
  8
241
 10
-17.374499799840041
 20
-4.6116780665210788
 30
0.0
 11
-17.374499799840009
 21
8.1793122664135041
 31
0.0
  0
LINE
  5
1514
  8
240
 10
-17.374499799840009
 20
-9.7499999999999005
 30
0.0
 11
-28.000000000000199
 21
-9.7499999999997566
 31
0.0
  0
LINE
  5
1515
  8
240
 10
-11.04961524225291
 20
-9.75
 30
0.0
 11
-16.125500200160388
 21
-9.7499999999999432
 31
0.0
  0
LINE
  5
1519
  8
240
 10
-11.049615242261689
 20
9.7500000000001972
 30
0.0
 11
-16.125500200160271
 21
9.7500000000000711
 31
0.0
  0
LINE
  5
151A
  8
240
 10
-17.374499799839981
 20
9.7499999999999858
 30
0.0
 11
-28.000000000000359
 21
9.7499999999996838
 31
0.0
  0
LINE
  5
1554
  8
240
 10
-0.7499999999998295
 20
5.5168522595886449
 30
0.0
 11
-0.7499999999998864
 21
-4.445591952239198
 31
0.0
  0
LINE
  5
1558
  8
240
 10
-11.049615242261689
 20
9.7500000000001972
 30
0.0
 11
-10.247195646586359
 21
9.9650076826531517
 31
0.0
  0
LINE
  5
1559
  8
240
 10
-1.3384439641594661
 20
-9.8603409263615305
 30
0.0
 11
-9.9299999999976194
 21
-10.05000000000026
 31
0.0
  0
LINE
  5
155A
  8
240
 10
-0.8080688700438258
 20
-8.4049403010192378
 30
0.0
 11
-0.849937355488862
 21
-9.3818716280656957
 31
0.0
  0
ARC
  5
155B
  8
240
 10
-1.3494788033977441
 20
-9.3604627088695196
 30
0.0
 40
0.5
 50
271.26460210452359
 51
357.54596832546582
  0
LINE
  5
155C
  8
240
 10
-11.04961524225291
 20
-9.75
 30
0.0
 11
-9.9299999999976194
 21
-10.05000000000026
 31
0.0
  0
LINE
  5
155E
  8
240
 10
-0.750000000000057
 20
-4.4455919522387433
 30
0.0
 11
-0.7499999999997727
 21
5.516852259588731
 31
0.0
  0
ARC
  5
155F
  8
241
 10
-17.249999999999741
 20
9.7058271826674343
 30
0.0
 40
1.5
 50
179.9999999999992
 51
253.68146086302551
  0
ARC
  5
1560
  8
241
 10
-2.595058159459938
 20
2.289344562022563
 30
0.0
 40
1.5
 50
2.9999999999999218
 51
73.681460863023688
  0
LINE
  5
1561
  8
241
 10
-1.0971138573281101
 20
2.3678484963869262
 30
0.0
 11
-1.037259069509161
 21
1.2257511085976629
 31
0.0
  0
ARC
  5
1562
  8
241
 10
0.9599999999999795
 20
1.3304230210835319
 30
0.0
 40
2.0
 50
182.99999999999989
 51
211.24026521618489
  0
LINE
  5
1567
  8
241
 10
-2.1735922732956112
 20
3.7289162020598492
 30
0.0
 11
-17.6714658861641
 21
8.2662555426300912
 31
0.0
  0
TEXT
  5
1615
  8
241
 10
-159.40000000000001
 20
50.624037038540131
 30
0.0
 40
5.0
  1
ST20-FCR21083-135
  7
YOKO
 11
-159.40000000000001
 21
50.624037038540131
 31
0.0
 73
     1
  0
LINE
  5
166F
  8
241
 10
-9.9329999999858387
 20
-2.464488926102447
 30
0.0
 11
-0.75
 21
-4.0836995899453683
 31
0.0
  0
LINE
  5
1670
  8
240
 10
-0.8092231194922874
 20
-8.4045201885770808
 30
0.0
 11
0.0
 21
-8.6990533169522877
 31
0.0
  0
LINE
  5
1671
  8
241
 10
-0.8158590239415275
 20
-4.0720868671013326
 30
0.0
 11
-0.7499999999999432
 21
-4.4455919522391119
 31
0.0
  0
LINE
  5
1672
  8
241
 10
-9.2806781291933476
 20
-5.3211627241205539
 30
0.0
 11
-11.36963999284279
 21
-4.9528223858878837
 31
0.0
  0
LINE
  5
1673
  8
241
 10
-11.36963999284279
 20
-4.9528223858878837
 30
0.0
 11
-9.9329999999858387
 21
-2.464488926102447
 31
0.0
  0
LINE
  5
1674
  8
245
 10
-8.3689456259980375
 20
7.1230000000000038
 30
0.0
 11
-3.085463358433628
 21
7.1230000000000038
 31
0.0
  0
LINE
  5
1675
  8
245
 10
-5.765999999999905
 20
4.9386324982679488
 30
0.0
 11
-5.7659999999999618
 21
9.324808871200986
 31
0.0
  0
LINE
  5
1676
  8
240
 10
-10.01568379756492
 20
10.50000000000003
 30
0.0
 11
0.0
 21
10.500000000000011
 31
0.0
1001
GRPNAME
1000
PASTMD03
  0
LINE
  5
1677
  8
241
 10
-3.1370862332071852
 20
4.0000000000000284
 30
0.0
 11
-1.4064005873041761
 21
4.0000000000000284
 31
0.0
1001
GRPNAME
1000
PASTMD03
  0
LINE
  5
1678
  8
240
 10
0.0
 20
7.2500000000000142
 30
0.0
 11
0.0000000000000568
 21
10.50000000000003
 31
0.0
1001
GRPNAME
1000
PASTMD03
  0
LINE
  5
1679
  8
240
 10
0.0
 20
7.2500000000000142
 30
0.0
 11
-0.7499999999997727
 21
5.516852259588731
 31
0.0
  0
LINE
  5
167A
  8
241
 10
-11.53199999999992
 20
6.9959999999999951
 30
0.0
 11
-11.53199999999992
 21
6.4577934654940909
 31
0.0
1001
GRPNAME
1000
PASTMD03
  0
LINE
  5
167B
  8
241
 10
-11.53199999999992
 20
6.9959999999999951
 30
0.0
 11
-10.247195646586359
 21
9.9650076826531517
 31
0.0
  0
LINE
  5
167C
  8
242
 10
-9.4967182463843756
 20
10.40707376585906
 30
0.0
 11
-1.734445318241284
 21
9.0171572483835263
 31
0.0
  0
LINE
  5
167D
  8
242
 10
-0.918405203465852
 20
7.9089336604599652
 30
0.0
 11
-1.341088918963635
 21
4.5231585938148688
 31
0.0
  0
LINE
  5
167E
  8
242
 10
-1.9253661384847189
 20
4.0929262341409887
 30
0.0
 11
-5.8623883059432274
 21
4.7978914152000272
 31
0.0
  0
LINE
  5
167F
  8
242
 10
-10.5559901977665
 20
6.1720453826875277
 30
0.0
 11
-10.080995465905399
 21
9.9768414061851711
 31
0.0
  0
LINE
  5
1680
  8
241
 10
-0.8092231194922874
 20
-8.4045201885770808
 30
0.0
 11
-9.2806781291933476
 21
-5.3211627241205539
 31
0.0
  0
LINE
  5
1681
  8
240
 10
-0.7499999999999432
 20
-4.4455919522391261
 30
0.0
 11
0.0
 21
-8.6990533169522877
 31
0.0
  0
LINE
  5
1683
  8
240
 10
-10.247195646586359
 20
9.9650076826531517
 30
0.0
 11
-10.01568379756492
 21
10.50000000000003
 31
0.0
  0
ARC
  5
1684
  8
242
 10
-1.9107024803745949
 20
8.0328130947478655
 30
0.0
 40
1.0
 50
352.88395086182601
 51
79.848174525525835
1001
GENIUS_GENOBJ-N-FIL_13
1002
{
1000
OWNER
1000
GEN
1002
}
1001
GENIUS_GENODEF_13
1002
{
1000
HIER
1070
     0
1002
}
1002
{
1000
MANEDIT
1070
     0
1002
}
1002
{
1000
NOSEL
1070
     0
1002
}
1002
{
1000
BEHIND
1070
     0
1002
}
1002
{
1000
OTHER
1070
     0
1002
}
1002
{
1000
REACTOR
1002
}
  0
ARC
  5
1685
  8
242
 10
-9.584846827451031
 20
9.9149016890412298
 30
0.0
 40
0.5
 50
79.848174525525835
 51
172.88395086182521
1001
GENIUS_GENOBJ-N-FIL_13
1002
{
1000
OWNER
1000
GEN
1002
}
1001
GENIUS_GENODEF_13
1002
{
1000
HIER
1070
     0
1002
}
1002
{
1000
MANEDIT
1070
     0
1002
}
1002
{
1000
NOSEL
1070
     0
1002
}
1002
{
1000
BEHIND
1070
     0
1002
}
1002
{
1000
OTHER
1070
     0
1002
}
1002
{
1000
REACTOR
1002
}
  0
ARC
  5
1686
  8
242
 10
-1.837237557418006
 20
4.5850983109588119
 30
0.0
 40
0.5
 50
259.84817452552579
 51
352.88395086182601
1001
GENIUS_GENOBJ-N-FIL_13
1002
{
1000
OWNER
1000
GEN
1002
}
1001
GENIUS_GENODEF_13
1002
{
1000
HIER
1070
     0
1002
}
1002
{
1000
MANEDIT
1070
     0
1002
}
1002
{
1000
NOSEL
1070
     0
1002
}
1002
{
1000
BEHIND
1070
     0
1002
}
1002
{
1000
OTHER
1070
     0
1002
}
1002
{
1000
REACTOR
1002
}
  0
ARC
  5
1693
  8
241
 10
-15.62106996456828
 20
-7.2031423204526703
 30
0.0
 40
3.128930035431662
 50
79.999982399907623
 51
233.6123851153157
  0
LINE
  5
1694
  8
241
 10
-15.07773696586832
 20
-4.1217477629268577
 30
0.0
 11
-11.2767668308183
 21
-4.7919613506030743
 31
0.0
  0
CIRCLE
  5
1695
  8
241
 10
-5.765999999999905
 20
7.1230000000000038
 30
0.0
 40
1.8999999999999999
  0
LINE
  5
1698
  8
245
 10
2.193741343067642
 20
0.0
 30
0.0
 11
-139.0772158274996
 21
0.0000000000000142
 31
0.0
  0
LINE
  5
169D
  8
241
 10
-0.7499999999998295
 20
5.5168522595886031
 30
0.0
 11
-1.4064005873041761
 21
4.0000000000000284
 31
0.0
  0
LINE
  5
1807
  8
250
 10
0.0
 20
11.000000000000011
 30
0.0
 11
0.0000000000000008
 21
23.40768364140979
 31
0.0
  0
LINE
  5
1808
  8
250
 10
-7.9999999999999432
 20
11.000000000000171
 30
0.0
 11
-7.9999999999999423
 21
23.40768364140979
 31
0.0
  0
LINE
  5
1809
  8
250
 10
-2.2299999999999991
 20
22.40768364140979
 30
0.0
 11
-5.7699999999999418
 21
22.40768364140979
 31
0.0
  0
LINE
  5
180D
  8
250
 10
-29.999999999999918
 20
10.481716522001159
 30
0.0
 11
-29.999999999999918
 21
30.407683641409921
 31
0.0
  0
LINE
  5
180E
  8
250
 10
0.0000000000000569
 20
11.000000000000011
 30
0.0
 11
0.0000000000000581
 21
30.407683641409921
 31
0.0
  0
LINE
  5
180F
  8
250
 10
-27.769999999999921
 20
29.407683641409921
 30
0.0
 11
-2.2299999999999409
 21
29.407683641409921
 31
0.0
  0
LINE
  5
1813
  8
250
 10
-134.99999999999989
 20
9.056624327025915
 30
0.0
 11
-134.99999999999989
 21
30.407683641409921
 31
0.0
  0
LINE
  5
1814
  8
250
 10
-29.999999999999918
 20
10.48296291314454
 30
0.0
 11
-29.999999999999918
 21
30.407683641409921
 31
0.0
  0
LINE
  5
1815
  8
250
 10
-132.7699999999999
 20
29.407683641409921
 30
0.0
 11
-32.229999999999912
 21
29.407683641409921
 31
0.0
  0
LINE
  5
1819
  8
250
 10
-134.99999999999989
 20
9.056624327025915
 30
0.0
 11
-134.99999999999989
 21
37.407683641409918
 31
0.0
  0
LINE
  5
181A
  8
250
 10
0.0
 20
11.000000000000011
 30
0.0
 11
0.0000000000000016
 21
37.407683641409918
 31
0.0
  0
LINE
  5
181B
  8
250
 10
-132.7699999999999
 20
36.407683641409918
 30
0.0
 11
-2.2299999999999982
 21
36.407683641409918
 31
0.0
  0
LINE
  5
181F
  8
250
 10
0.5
 20
10.500000000000011
 30
0.0
 11
9.9843942304556208
 21
10.500000000000011
 31
0.0
  0
LINE
  5
1820
  8
250
 10
8.9843942304556208
 20
8.270000000000012
 30
0.0
 11
8.9843942304556172
 21
-4.1333333333333329
 31
0.0
  0
LINE
  5
1823
  8
250
 10
-133.23205080756881
 20
10.000000000000011
 30
0.0
 11
-146.36701435938579
 21
10.000000000000011
 31
0.0
  0
LINE
  5
1824
  8
250
 10
-133.23205080756881
 20
-9.9999999999999858
 30
0.0
 11
-146.36701435938579
 21
-9.999999999999984
 31
0.0
  0
LINE
  5
1825
  8
250
 10
-145.36701435938579
 20
7.7700000000000147
 30
0.0
 11
-145.36701435938579
 21
-7.7699999999999827
 31
0.0
  0
TEXT
  5
1829
  8
250
 10
7.9843942304556181
 20
-3.399999999999999
 30
0.0
 40
2.7999999999999989
  1
\U+220521
 50
90.0
  0
LINE
  5
182A
  8
250
 10
8.6127275637889547
 20
8.270000000000012
 30
0.0
 11
8.9843942304556208
 21
10.500000000000011
 31
0.0
  0
LINE
  5
182B
  8
250
 10
9.3560608971222852
 20
8.270000000000012
 30
0.0
 11
8.9843942304556208
 21
10.500000000000011
 31
0.0
  0
LINE
  5
182C
  8
250
 10
8.9843942304556208
 20
10.500000000000011
 30
0.0
 11
8.9843942304556208
 21
8.270000000000012
 31
0.0
  0
TEXT
  5
182D
  8
250
 10
-5.333333333333302
 20
23.40768364140979
 30
0.0
 40
2.7999999999999989
  1
8
  0
LINE
  5
182E
  8
250
 10
-5.7699999999999418
 20
22.03601697474312
 30
0.0
 11
-7.9999999999999423
 21
22.40768364140979
 31
0.0
  0
LINE
  5
182F
  8
250
 10
-5.7699999999999418
 20
22.779350308076459
 30
0.0
 11
-7.9999999999999423
 21
22.40768364140979
 31
0.0
  0
LINE
  5
1830
  8
250
 10
-7.9999999999999423
 20
22.40768364140979
 30
0.0
 11
-5.7699999999999418
 21
22.40768364140979
 31
0.0
  0
LINE
  5
1831
  8
250
 10
-2.2299999999999991
 20
22.779350308076459
 30
0.0
 11
0.0000000000000007
 21
22.40768364140979
 31
0.0
  0
LINE
  5
1832
  8
250
 10
-2.2299999999999991
 20
22.03601697474312
 30
0.0
 11
0.0000000000000007
 21
22.40768364140979
 31
0.0
  0
LINE
  5
1833
  8
250
 10
0.0000000000000007
 20
22.40768364140979
 30
0.0
 11
-2.2299999999999991
 21
22.40768364140979
 31
0.0
  0
TEXT
  5
1834
  8
250
 10
-17.66666666666659
 20
30.407683641409921
 30
0.0
 40
2.7999999999999989
  1
30
  0
LINE
  5
1835
  8
250
 10
-2.2299999999999409
 20
29.779350308076591
 30
0.0
 11
0.000000000000058
 21
29.407683641409921
 31
0.0
  0
LINE
  5
1836
  8
250
 10
-2.2299999999999409
 20
29.036016974743251
 30
0.0
 11
0.000000000000058
 21
29.407683641409921
 31
0.0
  0
LINE
  5
1837
  8
250
 10
0.000000000000058
 20
29.407683641409921
 30
0.0
 11
-2.2299999999999409
 21
29.407683641409921
 31
0.0
  0
LINE
  5
1838
  8
250
 10
-27.769999999999921
 20
29.036016974743251
 30
0.0
 11
-29.999999999999918
 21
29.407683641409921
 31
0.0
  0
LINE
  5
1839
  8
250
 10
-27.769999999999921
 20
29.779350308076591
 30
0.0
 11
-29.999999999999918
 21
29.407683641409921
 31
0.0
  0
LINE
  5
183A
  8
250
 10
-29.999999999999918
 20
29.407683641409921
 30
0.0
 11
-27.769999999999921
 21
29.407683641409921
 31
0.0
  0
TEXT
  5
183B
  8
250
 10
-86.699999999999918
 20
30.407683641409921
 30
0.0
 40
2.7999999999999989
  1
105
  0
LINE
  5
183C
  8
250
 10
-32.229999999999912
 20
29.779350308076591
 30
0.0
 11
-29.999999999999918
 21
29.407683641409921
 31
0.0
  0
LINE
  5
183D
  8
250
 10
-32.229999999999912
 20
29.036016974743251
 30
0.0
 11
-29.999999999999918
 21
29.407683641409921
 31
0.0
  0
LINE
  5
183E
  8
250
 10
-29.999999999999918
 20
29.407683641409921
 30
0.0
 11
-32.229999999999912
 21
29.407683641409921
 31
0.0
  0
LINE
  5
183F
  8
250
 10
-132.7699999999999
 20
29.036016974743251
 30
0.0
 11
-134.99999999999989
 21
29.407683641409921
 31
0.0
  0
LINE
  5
1840
  8
250
 10
-132.7699999999999
 20
29.779350308076591
 30
0.0
 11
-134.99999999999989
 21
29.407683641409921
 31
0.0
  0
LINE
  5
1841
  8
250
 10
-134.99999999999989
 20
29.407683641409921
 30
0.0
 11
-132.7699999999999
 21
29.407683641409921
 31
0.0
  0
TEXT
  5
1842
  8
250
 10
-71.699999999999974
 20
37.407683641409918
 30
0.0
 40
2.7999999999999989
  1
135
  0
LINE
  5
1843
  8
250
 10
-2.2299999999999982
 20
36.779350308076587
 30
0.0
 11
0.0000000000000016
 21
36.407683641409918
 31
0.0
  0
LINE
  5
1844
  8
250
 10
-2.2299999999999982
 20
36.036016974743248
 30
0.0
 11
0.0000000000000016
 21
36.407683641409918
 31
0.0
  0
LINE
  5
1845
  8
250
 10
0.0000000000000016
 20
36.407683641409918
 30
0.0
 11
-2.2299999999999982
 21
36.407683641409918
 31
0.0
  0
LINE
  5
1846
  8
250
 10
-132.7699999999999
 20
36.036016974743248
 30
0.0
 11
-134.99999999999989
 21
36.407683641409918
 31
0.0
  0
LINE
  5
1847
  8
250
 10
-132.7699999999999
 20
36.779350308076587
 30
0.0
 11
-134.99999999999989
 21
36.407683641409918
 31
0.0
  0
LINE
  5
1848
  8
250
 10
-134.99999999999989
 20
36.407683641409918
 30
0.0
 11
-132.7699999999999
 21
36.407683641409918
 31
0.0
  0
TEXT
  5
1849
  8
250
 10
-146.36701435938579
 20
-3.8000000000000052
 30
0.0
 40
2.7999999999999989
  1
\U+220520
 50
90.0
  0
LINE
  5
184A
  8
250
 10
-144.99534769271909
 20
-7.7699999999999827
 30
0.0
 11
-145.36701435938579
 21
-9.999999999999984
 31
0.0
  0
LINE
  5
184B
  8
250
 10
-145.7386810260524
 20
-7.7699999999999827
 30
0.0
 11
-145.36701435938579
 21
-9.999999999999984
 31
0.0
  0
LINE
  5
184C
  8
250
 10
-145.36701435938579
 20
-9.999999999999984
 30
0.0
 11
-145.36701435938579
 21
-7.7699999999999827
 31
0.0
  0
LINE
  5
184D
  8
250
 10
-145.7386810260524
 20
7.7700000000000147
 30
0.0
 11
-145.36701435938579
 21
10.000000000000011
 31
0.0
  0
LINE
  5
184E
  8
250
 10
-144.99534769271909
 20
7.7700000000000147
 30
0.0
 11
-145.36701435938579
 21
10.000000000000011
 31
0.0
  0
LINE
  5
184F
  8
250
 10
-145.36701435938579
 20
10.000000000000011
 30
0.0
 11
-145.36701435938579
 21
7.7700000000000147
 31
0.0
  0
VIEWPORT
  5
22
 67
     1
  8
0
 10
261.51769911504419
 20
148.5
 30
0.0
 40
523.0353982300885
 41
297.0
 68
     1
 69
     1
1001
ACAD
1000
MVIEW
1002
{
1070
    16
1010
0.0
1020
0.0
1030
0.0
1010
0.0
1020
0.0
1030
1.0
1040
0.0
1040
297.0
1040
261.51769911504419
1040
148.5
1040
50.0
1040
0.0
1040
0.0
1070
     0
1070
   100
1070
     1
1070
     1
1070
     0
1070
     0
1070
     0
1070
     0
1040
0.0
1040
0.0
1040
0.0
1040
1.0
1040
1.0
1040
10.0
1040
10.0
1070
     0
1002
{
1002
}
1002
}
1001
GENIUS_GENODEF_13
1002
{
1000
HIER
1070
     0
1002
}
1002
{
1000
MANEDIT
1070
     0
1002
}
1002
{
1000
NOSEL
1070
     0
1002
}
1002
{
1000
BEHIND
1070
     0
1002
}
1002
{
1000
OTHER
1070
     0
1002
}
1002
{
1000
REACTOR
1002
}
1001
GENIUS_GENOBJ-N-SDF_13
1002
{
1000
OWNER
1000
GEN
1002
}
1001
GENIUS_GENSCREG_15
1000
PF
1040
1.0
1000
DF
1040
1.0
1000
MIN
1011
0.0
1021
0.0
1031
0.0
1021
0.0
1031
0.0
1000
MAX
1011
523.0353982300885
1021
0.0
1031
0.0
1021
297.0
1031
0.0
1000
FLAGS
1070
     2
  0
ENDSEC
  0
EOF
