  0
SECTION
  2
HEADER
  9
$ACADVER
  1
AC1009
  9
$INSBASE
 10
0.0
 20
0.0
 30
0.0
  9
$EXTMIN
 10
-13.823431196439969
 20
-20.036384689282499
 30
-0.000000039842541
  9
$EXTMAX
 10
148.0213443032423
 20
54.000690906970931
 30
0.0000000765687993
  9
$LIMMIN
 10
0.0
 20
0.0
  9
$LIMMAX
 10
420.0
 20
297.0
  9
$ORTHOMODE
 70
     0
  9
$REGENMODE
 70
     1
  9
$FILLMODE
 70
     1
  9
$QTEXTMODE
 70
     0
  9
$MIRRTEXT
 70
     1
  9
$DRAGMODE
 70
     2
  9
$LTSCALE
 40
10.0
  9
$OSMODE
 70
    39
  9
$ATTMODE
 70
     1
  9
$TEXTSIZE
 40
3.0
  9
$TRACEWID
 40
1.0
  9
$TEXTSTYLE
  7
YOKO
  9
$CLAYER
  8
240
  9
$CELTYPE
  6
BYLAYER
  9
$CECOLOR
 62
   256
  9
$DIMSCALE
 40
1.0
  9
$DIMASZ
 40
2.2299999999999991
  9
$DIMEXO
 40
0.5
  9
$DIMDLI
 40
2.5
  9
$DIMRND
 40
0.0
  9
$DIMDLE
 40
0.0
  9
$DIMEXE
 40
1.0
  9
$DIMTP
 40
0.0
  9
$DIMTM
 40
0.0
  9
$DIMTXT
 40
2.7999999999999989
  9
$DIMCEN
 40
0.0
  9
$DIMTSZ
 40
0.0
  9
$DIMTOL
 70
     0
  9
$DIMLIM
 70
     0
  9
$DIMTIH
 70
     0
  9
$DIMTOH
 70
     0
  9
$DIMSE1
 70
     0
  9
$DIMSE2
 70
     0
  9
$DIMTAD
 70
     3
  9
$DIMZIN
 70
     8
  9
$DIMBLK
  1

  9
$DIMASO
 70
     1
  9
$DIMSHO
 70
     1
  9
$DIMPOST
  1

  9
$DIMAPOST
  1

  9
$DIMALT
 70
     0
  9
$DIMALTD
 70
     2
  9
$DIMALTF
 40
25.399999999999999
  9
$DIMLFAC
 40
1.0
  9
$DIMTOFL
 70
     1
  9
$DIMTVP
 40
0.0
  9
$DIMTIX
 70
     1
  9
$DIMSOXD
 70
     0
  9
$DIMSAH
 70
     1
  9
$DIMBLK1
  1
OPEN
  9
$DIMBLK2
  1
OPEN
  9
$DIMSTYLE
  2
BIGT
  9
$DIMCLRD
 70
   256
  9
$DIMCLRE
 70
   256
  9
$DIMCLRT
 70
    40
  9
$DIMTFAC
 40
1.0
  9
$DIMGAP
 40
1.0
  9
$LUNITS
 70
     2
  9
$LUPREC
 70
     3
  9
$SKETCHINC
 40
1.0
  9
$FILLETRAD
 40
0.0
  9
$AUNITS
 70
     0
  9
$AUPREC
 70
     3
  9
$MENU
  1
.
  9
$ELEVATION
 40
0.0
  9
$PELEVATION
 40
0.0
  9
$THICKNESS
 40
0.0
  9
$LIMCHECK
 70
     0
  9
$BLIPMODE
 70
     0
  9
$CHAMFERA
 40
10.0
  9
$CHAMFERB
 40
10.0
  9
$SKPOLY
 70
     0
  9
$TDCREATE
 40
2455145.6911380561
  9
$TDUPDATE
 40
2456091.701653426
  9
$TDINDWG
 40
0.0731002431
  9
$TDUSRTIMER
 40
0.0731002431
  9
$USRTIMER
 70
     1
  9
$ANGBASE
 50
0.0
  9
$ANGDIR
 70
     0
  9
$PDMODE
 70
     1
  9
$PDSIZE
 40
-5.0
  9
$PLINEWID
 40
0.0
  9
$COORDS
 70
     2
  9
$SPLFRAME
 70
     0
  9
$SPLINETYPE
 70
     6
  9
$SPLINESEGS
 70
     8
  9
$ATTDIA
 70
     1
  9
$ATTREQ
 70
     1
  9
$HANDLING
 70
     1
  9
$HANDSEED
  5
E30
  9
$SURFTAB1
 70
     6
  9
$SURFTAB2
 70
     6
  9
$SURFTYPE
 70
     6
  9
$SURFU
 70
     6
  9
$SURFV
 70
     6
  9
$UCSNAME
  2

  9
$UCSORG
 10
0.0
 20
0.0
 30
0.0
  9
$UCSXDIR
 10
1.0
 20
0.0
 30
0.0
  9
$UCSYDIR
 10
0.0
 20
1.0
 30
0.0
  9
$PUCSNAME
  2

  9
$PUCSORG
 10
0.0
 20
0.0
 30
0.0
  9
$PUCSXDIR
 10
1.0
 20
0.0
 30
0.0
  9
$PUCSYDIR
 10
0.0
 20
1.0
 30
0.0
  9
$USERI1
 70
     1
  9
$USERI2
 70
     0
  9
$USERI3
 70
     0
  9
$USERI4
 70
     0
  9
$USERI5
 70
     0
  9
$USERR1
 40
0.0
  9
$USERR2
 40
0.0
  9
$USERR3
 40
0.0
  9
$USERR4
 40
0.0
  9
$USERR5
 40
0.0
  9
$WORLDVIEW
 70
     1
  9
$SHADEDGE
 70
     3
  9
$SHADEDIF
 70
    70
  9
$TILEMODE
 70
     1
  9
$MAXACTVP
 70
    16
  9
$PLIMCHECK
 70
     0
  9
$PEXTMIN
 10
1.0000000000000000E+020
 20
1.0000000000000000E+020
 30
1.0000000000000000E+020
  9
$PEXTMAX
 10
-1.0000000000000000E+020
 20
-1.0000000000000000E+020
 30
-1.0000000000000000E+020
  9
$PLIMMIN
 10
0.0
 20
0.0
  9
$PLIMMAX
 10
420.0
 20
297.0
  9
$UNITMODE
 70
     0
  9
$VISRETAIN
 70
     0
  9
$PLINEGEN
 70
     0
  9
$PSLTSCALE
 70
     1
  0
ENDSEC
  0
SECTION
  2
TABLES
  0
TABLE
  2
VPORT
 70
    42
  0
VPORT
  2
*ACTIVE
 70
     0
 10
0.0
 20
0.0
 11
1.0
 21
1.0
 12
67.098956553401194
 22
16.982153108844209
 13
0.0
 23
0.0
 14
7.0
 24
7.0
 15
7.0
 25
7.0
 16
0.0
 26
0.0
 36
1.0
 17
0.0
 27
0.0
 37
0.0
 40
111.71521204491781
 41
1.4552401746724879
 42
50.0
 43
0.0
 44
0.0
 50
0.0
 51
0.0
 71
     0
 72
  2000
 73
     1
 74
     0
 75
     0
 76
     0
 77
     0
 78
     0
  0
ENDTAB
  0
TABLE
  2
LTYPE
 70
    16
  0
LTYPE
  2
CONTINUOUS
 70
     0
  3
Solid line
 72
    65
 73
     0
 40
0.0
  0
LTYPE
  2
CENTER2
 70
     0
  3
___ _ ___ _ ___ _ ___ _ ___ _ ___ _ ___ _ ___ _
 72
    65
 73
     4
 40
1.125
 49
0.75
 49
-0.125
 49
0.125
 49
-0.125
  0
LTYPE
  2
PHANTOM2
 70
     0
  3
___ _ _ ___ _ _ ___ _ _ ___ _ _ ___ _ _ ___ _ _
 72
    65
 73
     6
 40
1.25
 49
0.625
 49
-0.125
 49
0.125
 49
-0.125
 49
0.125
 49
-0.125
  0
LTYPE
  2
HIDDEN2
 70
     0
  3
_ _ _ _ _ _ _ _ _ _ _ _ _ _ _ _ _ _ _ _ _ _ _ _
 72
    65
 73
     2
 40
0.1875
 49
0.125
 49
-0.0625
  0
LTYPE
  2
AMCONSTR
 70
     0
  3
_______________________
 72
    65
 73
     2
 40
9999.0
 49
9999.0
 49
0.0
  0
LTYPE
  2
AM_ISO02W050
 70
     0
  3
__ __ __ __ __ __ __ __ __ __ __ __ __ __ __
 72
    65
 73
     2
 40
7.5
 49
6.0
 49
-1.5
  0
LTYPE
  2
HIDDEN
 70
     0
  3
Hidden __ __ __ __ __ __ __ __ __ __ __ __ __ _
 72
    65
 73
     2
 40
9.5249999999999986
 49
6.3499999999999988
 49
-3.1749999999999989
  0
LTYPE
  2
CENTER
 70
     0
  3
____ _ ____ _ ____ _ ____ _ ____ _ ____ _ ____ 
 72
    65
 73
     4
 40
2.0
 49
1.25
 49
-0.25
 49
0.25
 49
-0.25
  0
LTYPE
  2
ACJISTGB
 70
     0
  3
__ . . __ . .
 72
    65
 73
     6
 40
9.0
 49
4.0
 49
-1.0
 49
1.0
 49
-1.0
 49
1.0
 49
-1.0
  0
LTYPE
  2
ACJISTGL
 70
     0
  3
_ _ _ _ _
 72
    65
 73
     2
 40
3.0
 49
2.0
 49
-1.0
  0
LTYPE
  2
ACISOWELD
 70
     0
  3
_ _ _ _ _
 72
    65
 73
     2
 40
2.0
 49
2.0
 49
-1.0
  0
LTYPE
  2
ACISOTGB
 70
     0
  3
__ . . __ . .
 72
    65
 73
     6
 40
9.0
 49
4.0
 49
-1.0
 49
1.0
 49
-1.0
 49
1.0
 49
-1.0
  0
LTYPE
  2
ACISOTGL
 70
     0
  3
_ _ _ _ _
 72
    65
 73
     2
 40
3.0
 49
2.0
 49
-1.0
  0
LTYPE
  2
ACANSTGB
 70
     0
  3
__ . . __ . .
 72
    65
 73
     6
 40
0.35433070866
 49
0.15748031496
 49
-0.03937007874
 49
0.03937007874
 49
-0.03937007874
 49
0.03937007874
 49
-0.03937007874
  0
LTYPE
  2
ACANSTGL
 70
     0
  3
_ _ _ _ _
 72
    65
 73
     2
 40
0.11811023622
 49
0.07874015748
 49
-0.03937007874
  0
ENDTAB
  0
TABLE
  2
LAYER
 70
    10
  0
LAYER
  2
0
 70
     0
 62
     7
  6
CONTINUOUS
  0
LAYER
  2
240
 70
     0
 62
     4
  6
CONTINUOUS
  0
LAYER
  2
241
 70
     0
 62
   211
  6
CONTINUOUS
  0
LAYER
  2
245
 70
     0
 62
     2
  6
CENTER2
  0
LAYER
  2
250
 70
     0
 62
     3
  6
CONTINUOUS
  0
LAYER
  2
DEFPOINTS
 70
     0
 62
     7
  6
CONTINUOUS
  0
ENDTAB
  0
TABLE
  2
STYLE
 70
     9
  0
STYLE
  2
STANDARD
 70
     0
 40
0.0
 41
1.0
 50
0.0
 71
     0
 42
3.0
  3
romans.shx
  4
BIGFONT.SHX
  0
STYLE
  2
YOKO
 70
     0
 40
0.0
 41
1.0
 50
0.0
 71
     0
 42
3.0
  3
romans.shx
  4
extfont.shx
  0
STYLE
  2
ACJISGDT
 70
     0
 40
0.0
 41
1.0
 50
0.0
 71
     0
 42
3.0
  3
amgdt.shx
  4
extfont.shx
  0
STYLE
  2
ACJISTS
 70
     0
 40
1.0
 41
1.0
 50
0.0
 71
     0
 42
3.0
  3
amgdt.shx
  4
extfont.shx
  0
STYLE
  2
ACISOTS
 70
     0
 40
1.0
 41
1.0
 50
0.0
 71
     0
 42
3.0
  3
amgdt.shx
  4
extfont.shx
  0
STYLE
  2
ACISOGDT
 70
     0
 40
0.0
 41
1.0
 50
0.0
 71
     0
 42
3.0
  3
amgdt.shx
  4
extfont.shx
  0
STYLE
  2
ACANSTS
 70
     0
 40
1.0
 41
1.0
 50
0.0
 71
     0
 42
3.0
  3
romans.shx
  4
extfont.shx
  0
STYLE
  2
ACANSGDT
 70
     0
 40
0.0
 41
1.0
 50
0.0
 71
     0
 42
3.0
  3
amgdtans.shx
  4

  0
ENDTAB
  0
TABLE
  2
VIEW
 70
     0
  0
ENDTAB
  0
TABLE
  2
UCS
 70
     0
  0
ENDTAB
  0
TABLE
  2
APPID
 70
    35
  0
APPID
  2
ACAD
 70
     0
  0
APPID
  2
GLOBAL
 70
     0
  0
APPID
  2
DETAIL
 70
     0
  0
APPID
  2
GRPNAME
 70
     0
  0
APPID
  2
GPARA
 70
     0
  0
APPID
  2
DCO15
 70
     0
  0
APPID
  2
ITEMNAME
 70
     0
  0
APPID
  2
GRADE_0
 70
     0
  0
APPID
  2
HATCH_TYPE
 70
     0
  0
APPID
  2
HATCH_DISPLAY
 70
     0
  0
APPID
  2
HATCH_DISTANCE
 70
     0
  0
APPID
  2
CONTENTBLOCKICON
 70
     0
  0
APPID
  2
MCAD_NO_VIS
 70
     0
  0
APPID
  2
ACAD_TEMP_GRAPHIC
 70
     0
  0
APPID
  2
ACATTRIBSERVICES
 70
     0
  0
APPID
  2
GENIUS_GENSCREG_15
 70
     0
  0
APPID
  2
GENIUS_GENODEF_13
 70
     0
  0
APPID
  2
GENIUS_GENOBJ-N-SDF_13
 70
     0
  0
APPID
  2
GENIUS_GENREC_14
 70
     0
  0
APPID
  2
GENIUS_GENOBJ-N-REC_13
 70
     0
  0
APPID
  2
GENIUS_GENDIMSH_14
 70
     0
  0
APPID
  2
GENIUS_GENOBJ-N-DIM_13
 70
     0
  0
APPID
  2
GENIUS_GENDIM_13
 70
     0
  0
APPID
  2
GENIUS_GENDTOL_13
 70
     0
  0
APPID
  2
GENIUS_GENOLIS_13
 70
     0
  0
APPID
  2
GENIUS_GENOENT_13
 70
     0
  0
APPID
  2
GENIUS_GENOBJ-F-FEM_13
 70
     0
  0
APPID
  2
GENIUS_GENOREF_13
 70
     0
  0
APPID
  2
GENIUS_GEFFEM_13
 70
     0
  0
APPID
  2
GENIUS_GEFFEMP_13
 70
     0
  0
APPID
  2
AD_DRAW
 70
     0
  0
APPID
  2
DESIGNERASSEMBLIES
 70
     0
  0
APPID
  2
ACADM_DIM_EDIT
 70
     0
  0
APPID
  2
AMDT_DM_ADJ
 70
     0
  0
APPID
  2
GENIUS_GENOBJ-N-FIL_13
 70
     0
  0
ENDTAB
  0
TABLE
  2
DIMSTYLE
 70
    29
  0
DIMSTYLE
  2
BIGT
 70
     0
  3

  4

  5
OPEN
  6

  7

 40
1.0
 41
2.2299999999999991
 42
0.5
 43
7.0
 44
1.0
 45
0.0
 46
0.0
 47
0.0
 48
0.01
140
2.7999999999999989
141
0.0
142
0.0
143
25.399999999999999
144
1.0
145
0.0
146
1.0
147
1.0
 71
     0
 72
     0
 73
     0
 74
     0
 75
     0
 76
     0
 77
     3
 78
     9
170
     0
171
     2
172
     1
173
     0
174
     1
175
     0
176
   256
177
   256
178
    40
  0
DIMSTYLE
  2
BIGT$0
 70
     0
  3

  4

  5
OPEN
  6

  7

 40
1.0
 41
2.2299999999999991
 42
0.5
 43
7.0
 44
1.0
 45
0.0
 46
0.0
 47
0.0
 48
0.01
140
2.7999999999999989
141
0.0
142
0.0
143
25.399999999999999
144
1.0
145
0.0
146
1.0
147
1.0
 71
     0
 72
     0
 73
     0
 74
     0
 75
     0
 76
     0
 77
     3
 78
     9
170
     0
171
     2
172
     1
173
     0
174
     0
175
     0
176
   256
177
   256
178
    40
  0
DIMSTYLE
  2
BIGT$2
 70
     0
  3

  4

  5
OPEN
  6

  7

 40
1.0
 41
2.2299999999999991
 42
0.5
 43
7.0
 44
1.0
 45
0.0
 46
0.0
 47
0.0
 48
0.01
140
2.7999999999999989
141
0.0
142
0.0
143
25.399999999999999
144
1.0
145
0.0
146
1.0
147
1.0
 71
     0
 72
     0
 73
     0
 74
     0
 75
     0
 76
     0
 77
     3
 78
     9
170
     0
171
     2
172
     1
173
     0
174
     0
175
     0
176
   256
177
   256
178
    40
  0
DIMSTYLE
  2
BIGT$3
 70
     0
  3

  4

  5
OPEN
  6

  7

 40
1.0
 41
2.2299999999999991
 42
0.5
 43
2.5
 44
1.0
 45
0.0
 46
0.0
 47
0.0
 48
0.01
140
2.7999999999999989
141
0.0
142
0.0
143
25.399999999999999
144
1.0
145
0.0
146
1.0
147
1.0
 71
     0
 72
     0
 73
     0
 74
     0
 75
     0
 76
     0
 77
     3
 78
     9
170
     0
171
     2
172
     1
173
     0
174
     0
175
     0
176
   256
177
   256
178
    40
  0
DIMSTYLE
  2
BIGT$4
 70
     0
  3

  4

  5
OPEN
  6

  7

 40
1.0
 41
2.2299999999999991
 42
0.5
 43
2.5
 44
1.0
 45
0.0
 46
0.0
 47
0.0
 48
0.01
140
2.7999999999999989
141
0.0
142
0.0
143
25.399999999999999
144
1.0
145
0.0
146
1.0
147
1.0
 71
     0
 72
     0
 73
     0
 74
     0
 75
     0
 76
     0
 77
     3
 78
     9
170
     0
171
     2
172
     1
173
     0
174
     0
175
     0
176
   256
177
   256
178
    40
  0
DIMSTYLE
  2
BIGT$6
 70
     0
  3

  4

  5
OPEN
  6

  7

 40
1.0
 41
2.2299999999999991
 42
0.5
 43
2.5
 44
1.0
 45
0.0
 46
0.0
 47
0.0
 48
0.01
140
2.7999999999999989
141
0.0
142
0.0
143
25.399999999999999
144
1.0
145
0.0
146
1.0
147
1.0
 71
     0
 72
     0
 73
     0
 74
     0
 75
     0
 76
     0
 77
     3
 78
     9
170
     0
171
     2
172
     1
173
     0
174
     0
175
     0
176
   256
177
   256
178
    40
  0
DIMSTYLE
  2
BIGT$7
 70
     0
  3

  4

  5
OPEN
  6

  7

 40
0.0
 41
2.2299999999999991
 42
0.5
 43
7.0
 44
1.0
 45
0.0
 46
0.0
 47
0.0
 48
0.01
140
2.7999999999999989
141
0.0
142
0.0
143
25.399999999999999
144
1.0
145
0.0
146
1.0
147
1.0
 71
     0
 72
     0
 73
     0
 74
     0
 75
     0
 76
     0
 77
     3
 78
     9
170
     0
171
     2
172
     0
173
     0
174
     0
175
     0
176
   256
177
   256
178
    40
  0
DIMSTYLE
  2
BIGT$SF
 70
     0
  3

  4

  5
OPEN
  6

  7

 40
1.0
 41
2.2299999999999991
 42
0.5
 43
7.0
 44
1.0
 45
0.0
 46
0.0
 47
0.0
 48
0.0
140
2.7999999999999989
141
0.0
142
0.0
143
25.399999999999999
144
1.0
145
0.0
146
1.0
147
1.0
 71
     0
 72
     0
 73
     0
 74
     0
 75
     0
 76
     0
 77
     3
 78
     9
170
     0
171
     2
172
     1
173
     0
174
     0
175
     0
176
   256
177
   256
178
    40
  0
DIMSTYLE
  2
BIGT$SH
 70
     0
  3

  4

  5
OPEN
  6

  7

 40
1.0
 41
2.2299999999999991
 42
0.5
 43
7.0
 44
1.0
 45
0.0
 46
0.0
 47
0.0
 48
0.0
140
2.7999999999999989
141
0.0
142
0.0
143
25.399999999999999
144
1.0
145
0.0
146
1.0
147
1.0
 71
     0
 72
     0
 73
     0
 74
     0
 75
     0
 76
     0
 77
     3
 78
     9
170
     0
171
     2
172
     1
173
     0
174
     0
175
     0
176
   256
177
   256
178
    40
  0
DIMSTYLE
  2
AM_ISO
 70
     0
  3

  4
"
  5

  6

  7

 40
1.0
 41
2.5
 42
1.0
 43
10.0
 44
1.0
 45
0.0
 46
0.0
 47
0.1
 48
0.1
140
3.5
141
0.0
142
0.0
143
0.0393701
144
1.0
145
0.0
146
0.71
147
1.5
 71
     0
 72
     0
 73
     0
 74
     0
 75
     0
 76
     0
 77
     1
 78
     8
170
     0
171
     2
172
     1
173
     0
174
     0
175
     0
176
   256
177
   256
178
     2
  0
DIMSTYLE
  2
AM_ISO$3
 70
     0
  3

  4
"
  5

  6

  7

 40
1.0
 41
2.5
 42
1.0
 43
10.0
 44
1.0
 45
0.0
 46
0.0
 47
0.1
 48
0.1
140
3.5
141
0.0
142
0.0
143
0.0393701
144
1.0
145
0.0
146
0.71
147
1.5
 71
     0
 72
     0
 73
     0
 74
     1
 75
     0
 76
     0
 77
     1
 78
     8
170
     0
171
     2
172
     0
173
     0
174
     0
175
     0
176
   256
177
   256
178
     2
  0
DIMSTYLE
  2
AM_ISO$4
 70
     0
  3

  4
"
  5

  6

  7

 40
1.0
 41
2.5
 42
1.0
 43
10.0
 44
1.0
 45
0.0
 46
0.0
 47
0.1
 48
0.1
140
3.5
141
0.0
142
0.0
143
0.0393701
144
1.0
145
0.0
146
0.71
147
1.5
 71
     0
 72
     0
 73
     0
 74
     1
 75
     0
 76
     0
 77
     1
 78
     8
170
     0
171
     2
172
     0
173
     0
174
     0
175
     0
176
   256
177
   256
178
     2
  0
DIMSTYLE
  2
AM_ISO$6
 70
     0
  3

  4
"
  5

  6

  7

 40
1.0
 41
2.5
 42
1.0
 43
10.0
 44
1.0
 45
0.0
 46
0.0
 47
0.1
 48
0.1
140
3.5
141
0.0
142
0.0
143
0.0393701
144
1.0
145
0.0
146
0.71
147
1.5
 71
     0
 72
     0
 73
     0
 74
     0
 75
     0
 76
     0
 77
     0
 78
     8
170
     0
171
     2
172
     1
173
     0
174
     0
175
     0
176
   256
177
   256
178
     2
  0
DIMSTYLE
  2
AM_ISO$7
 70
     0
  3

  4
"
  5

  6

  7

 40
1.0
 41
2.5
 42
1.0
 43
10.0
 44
1.0
 45
0.0
 46
0.0
 47
0.1
 48
0.1
140
5.0
141
0.0
142
0.0
143
0.0393701
144
1.0
145
0.0
146
0.71
147
1.5
 71
     0
 72
     0
 73
     0
 74
     0
 75
     0
 76
     0
 77
     1
 78
     8
170
     0
171
     2
172
     1
173
     0
174
     0
175
     0
176
   256
177
   256
178
     2
  0
DIMSTYLE
  2
AM_ISO$SF
 70
     0
  3

  4
"
  5

  6

  7

 40
1.0
 41
2.5
 42
1.0
 43
10.0
 44
1.0
 45
0.0
 46
0.0
 47
0.1
 48
0.1
140
3.5
141
0.0
142
0.0
143
0.0393701
144
1.0
145
0.0
146
0.71
147
1.5
 71
     0
 72
     0
 73
     0
 74
     0
 75
     1
 76
     1
 77
     1
 78
     8
170
     0
171
     2
172
     1
173
     0
174
     0
175
     0
176
   256
177
   256
178
     2
  0
DIMSTYLE
  2
AM_ISO$SH
 70
     0
  3

  4
"
  5

  6
GENAXEH
  7

 40
1.0
 41
2.5
 42
1.0
 43
10.0
 44
1.0
 45
0.0
 46
0.0
 47
0.1
 48
0.1
140
3.5
141
0.0
142
0.0
143
0.0393701
144
2.0
145
0.0
146
0.71
147
1.5
 71
     0
 72
     0
 73
     0
 74
     0
 75
     1
 76
     1
 77
     1
 78
     8
170
     0
171
     2
172
     1
173
     1
174
     0
175
     0
176
   256
177
   256
178
     2
  0
DIMSTYLE
  2
TECHNICAL_OSAKA
 70
     0
  3

  4
"
  5
OPEN30
  6

  7

 40
1.0
 41
2.5
 42
1.0
 43
10.0
 44
1.0
 45
0.0
 46
0.0
 47
0.1
 48
0.1
140
2.7999999999999989
141
0.0
142
0.0
143
0.0393701
144
1.0
145
0.0
146
0.71
147
1.5
 71
     0
 72
     0
 73
     0
 74
     0
 75
     0
 76
     0
 77
     3
 78
     8
170
     0
171
     2
172
     1
173
     0
174
     0
175
     0
176
   256
177
   256
178
    40
  0
DIMSTYLE
  2
TECHNICAL_OSAKA$3
 70
     0
  3

  4
"
  5
OPEN30
  6

  7

 40
1.0
 41
2.5
 42
1.0
 43
10.0
 44
1.0
 45
0.0
 46
0.0
 47
0.1
 48
0.1
140
2.7999999999999989
141
0.0
142
0.0
143
0.0393701
144
1.0
145
0.0
146
0.71
147
1.5
 71
     0
 72
     0
 73
     0
 74
     1
 75
     0
 76
     0
 77
     3
 78
     8
170
     0
171
     2
172
     0
173
     0
174
     0
175
     0
176
   256
177
   256
178
    40
  0
DIMSTYLE
  2
TECHNICAL_OSAKA$4
 70
     0
  3

  4
"
  5
OPEN30
  6

  7

 40
1.0
 41
2.5
 42
1.0
 43
10.0
 44
1.0
 45
0.0
 46
0.0
 47
0.1
 48
0.1
140
2.7999999999999989
141
0.0
142
0.0
143
0.0393701
144
1.0
145
0.0
146
0.71
147
1.5
 71
     0
 72
     0
 73
     0
 74
     1
 75
     0
 76
     0
 77
     3
 78
     8
170
     0
171
     2
172
     0
173
     0
174
     0
175
     0
176
   256
177
   256
178
    40
  0
DIMSTYLE
  2
TECHNICAL_OSAKA$6
 70
     0
  3

  4
"
  5
OPEN30
  6

  7

 40
1.0
 41
2.5
 42
1.0
 43
10.0
 44
1.0
 45
0.0
 46
0.0
 47
0.1
 48
0.1
140
2.7999999999999989
141
0.0
142
0.0
143
0.0393701
144
1.0
145
0.0
146
0.71
147
1.5
 71
     0
 72
     0
 73
     0
 74
     0
 75
     0
 76
     0
 77
     0
 78
     8
170
     0
171
     2
172
     1
173
     0
174
     0
175
     0
176
   256
177
   256
178
    40
  0
DIMSTYLE
  2
TECHNICAL_OSAKA$7
 70
     0
  3

  4
"
  5
OPEN30
  6

  7

 40
1.0
 41
2.5
 42
1.0
 43
10.0
 44
1.0
 45
0.0
 46
0.0
 47
0.1
 48
0.1
140
2.7999999999999989
141
0.0
142
0.0
143
0.0393701
144
1.0
145
0.0
146
0.71
147
1.5
 71
     0
 72
     0
 73
     0
 74
     0
 75
     0
 76
     0
 77
     3
 78
     8
170
     0
171
     2
172
     1
173
     0
174
     0
175
     0
176
   256
177
   256
178
    40
  0
DIMSTYLE
  2
TECHNICAL_OSAKA$SF
 70
     0
  3

  4
"
  5
OPEN30
  6
OPEN30
  7
OPEN30
 40
1.0
 41
2.5
 42
1.0
 43
10.0
 44
1.0
 45
0.0
 46
0.0
 47
0.1
 48
0.1
140
3.5
141
0.0
142
0.0
143
0.0393701
144
1.0
145
0.0
146
0.71
147
1.5
 71
     0
 72
     0
 73
     0
 74
     0
 75
     1
 76
     1
 77
     3
 78
     8
170
     0
171
     2
172
     1
173
     0
174
     0
175
     0
176
   256
177
   256
178
    40
  0
DIMSTYLE
  2
TECHNICAL_OSAKA$SH
 70
     0
  3

  4
"
  5
OPEN30
  6
GENAXEH
  7
OPEN30
 40
1.0
 41
2.5
 42
1.0
 43
10.0
 44
1.0
 45
0.0
 46
0.0
 47
0.1
 48
0.1
140
3.5
141
0.0
142
0.0
143
0.0393701
144
2.0
145
0.0
146
0.71
147
1.5
 71
     0
 72
     0
 73
     0
 74
     0
 75
     1
 76
     1
 77
     3
 78
     8
170
     0
171
     2
172
     1
173
     1
174
     0
175
     0
176
   256
177
   256
178
    40
  0
DIMSTYLE
  2
AM_ANSI
 70
     0
  3

  4
mm
  5

  6

  7

 40
1.0
 41
0.1
 42
0.05
 43
0.5
 44
0.1
 45
0.0
 46
0.0
 47
0.1
 48
0.1
140
0.12
141
0.0
142
0.0
143
25.399999999999999
144
1.0
145
0.0
146
0.71
147
0.06
 71
     0
 72
     0
 73
     1
 74
     1
 75
     0
 76
     0
 77
     0
 78
     7
170
     0
171
     2
172
     0
173
     0
174
     0
175
     0
176
   256
177
   256
178
     2
  0
DIMSTYLE
  2
AM_ANSI$3
 70
     0
  3

  4
mm
  5

  6

  7

 40
1.0
 41
0.1
 42
0.05
 43
0.5
 44
0.1
 45
0.0
 46
0.0
 47
0.1
 48
0.1
140
0.12
141
0.0
142
0.0
143
25.399999999999999
144
1.0
145
0.0
146
0.71
147
0.06
 71
     0
 72
     0
 73
     1
 74
     1
 75
     0
 76
     0
 77
     0
 78
     7
170
     0
171
     2
172
     0
173
     0
174
     0
175
     0
176
   256
177
   256
178
     2
  0
DIMSTYLE
  2
AM_ANSI$4
 70
     0
  3

  4
mm
  5

  6

  7

 40
1.0
 41
0.1
 42
0.05
 43
0.5
 44
0.1
 45
0.0
 46
0.0
 47
0.1
 48
0.1
140
0.12
141
0.0
142
0.0
143
25.399999999999999
144
1.0
145
0.0
146
0.71
147
0.06
 71
     0
 72
     0
 73
     1
 74
     1
 75
     0
 76
     0
 77
     0
 78
     7
170
     0
171
     2
172
     0
173
     0
174
     0
175
     0
176
   256
177
   256
178
     2
  0
DIMSTYLE
  2
AM_ANSI$7
 70
     0
  3

  4
mm
  5

  6

  7

 40
1.0
 41
0.1
 42
0.05
 43
0.5
 44
0.1
 45
0.0
 46
0.0
 47
0.1
 48
0.1
140
0.24
141
0.0
142
0.0
143
25.399999999999999
144
1.0
145
0.0
146
0.71
147
0.06
 71
     0
 72
     0
 73
     1
 74
     1
 75
     0
 76
     0
 77
     0
 78
     7
170
     0
171
     2
172
     0
173
     0
174
     0
175
     0
176
   256
177
   256
178
     2
  0
DIMSTYLE
  2
AM_ANSI$SF
 70
     0
  3

  4
mm
  5

  6

  7

 40
1.0
 41
0.1
 42
0.05
 43
0.5
 44
0.1
 45
0.0
 46
0.0
 47
0.1
 48
0.1
140
0.12
141
0.0
142
0.0
143
25.399999999999999
144
1.0
145
0.0
146
0.71
147
0.06
 71
     0
 72
     0
 73
     1
 74
     1
 75
     1
 76
     1
 77
     0
 78
     7
170
     0
171
     2
172
     0
173
     0
174
     0
175
     0
176
   256
177
   256
178
     2
  0
DIMSTYLE
  2
AM_ANSI$SH
 70
     0
  3

  4
mm
  5

  6

  7

 40
1.0
 41
0.1
 42
0.05
 43
0.5
 44
0.1
 45
0.0
 46
0.0
 47
0.1
 48
0.1
140
0.12
141
0.0
142
0.0
143
25.399999999999999
144
1.0
145
0.0
146
0.71
147
0.06
 71
     0
 72
     0
 73
     1
 74
     1
 75
     1
 76
     1
 77
     0
 78
     7
170
     0
171
     2
172
     0
173
     1
174
     0
175
     0
176
   256
177
   256
178
     2
  0
ENDTAB
  0
ENDSEC
  0
SECTION
  2
BLOCKS
  0
BLOCK
  8
0
  2
$MODEL_SPACE
 70
     0
 10
0.0
 20
0.0
 30
0.0
  3
$MODEL_SPACE
  1

  0
ENDBLK
  5
1C
  8
0
  0
BLOCK
 67
     1
  8
0
  2
$PAPER_SPACE
 70
     0
 10
0.0
 20
0.0
 30
0.0
  3
$PAPER_SPACE
  1

  0
ENDBLK
  5
19
 67
     1
  8
0
  0
BLOCK
  8
0
  2
_OPEN
 70
     0
 10
0.0
 20
0.0
 30
0.0
  3
_OPEN
  1

  0
LINE
  5
C57
  8
0
  6
BYBLOCK
 62
     0
 10
-1.0
 20
0.1666666666666666
 30
0.0
 11
0.0
 21
0.0
 31
0.0
  0
LINE
  5
C58
  8
0
  6
BYBLOCK
 62
     0
 10
-1.0
 20
-0.1666666666666666
 30
0.0
 11
0.0
 21
0.0
 31
0.0
  0
LINE
  5
C59
  8
0
  6
BYBLOCK
 62
     0
 10
0.0
 20
0.0
 30
0.0
 11
-1.0
 21
0.0
 31
0.0
  0
ENDBLK
  5
C5A
  8
0
  0
BLOCK
  8
0
  2
矢印なし
 70
     0
 10
0.0
 20
0.0
 30
0.0
  3
矢印なし
  1

  0
ENDBLK
  5
6E5
  8
0
  0
BLOCK
  8
0
  2
GENAXEH
 70
     0
 10
0.0
 20
0.0
 30
0.0
  3
GENAXEH
  1

  0
LINE
  5
C82
  8
0
 10
-1.0
 20
0.0
 30
0.0
 11
1.0
 21
0.0
 31
0.0
  0
ENDBLK
  5
C83
  8
0
  0
BLOCK
  8
0
  2
_OPEN30
 70
     0
 10
0.0
 20
0.0
 30
0.0
  3
_OPEN30
  1

  0
LINE
  5
CA7
  8
0
  6
BYBLOCK
 62
     0
 10
-1.0
 20
0.26794919
 30
0.0
 11
0.0
 21
0.0
 31
0.0
  0
LINE
  5
CA8
  8
0
  6
BYBLOCK
 62
     0
 10
0.0
 20
0.0
 30
0.0
 11
-1.0
 21
-0.26794919
 31
0.0
  0
LINE
  5
CA9
  8
0
  6
BYBLOCK
 62
     0
 10
0.0
 20
0.0
 30
0.0
 11
-1.0
 21
0.0
 31
0.0
  0
ENDBLK
  5
CAA
  8
0
  0
BLOCK
  8
0
  2
*U12
 70
     1
 10
0.0
 20
0.0
 30
0.0
  3
*U12
  1

  0
TEXT
  5
E17
  8
250
 62
    40
 10
129.23333333333329
 20
22.0
 30
0.0
 40
2.7999999999999989
  1
9
  0
ENDBLK
  5
E19
  8
0
  0
BLOCK
  8
0
  2
*U13
 70
     1
 10
0.0
 20
0.0
 30
0.0
  3
*U13
  1

  0
TEXT
  5
E1B
  8
250
 62
    40
 10
146.0
 20
-3.399999999999999
 30
0.0
 40
2.7999999999999989
  1
\U+2205
 50
90.0
  0
TEXT
  5
E1C
  8
250
 62
    40
 10
146.0
 20
-0.8666666666666667
 30
0.0
 40
2.7999999999999989
  1
21
 50
90.0
  0
ENDBLK
  5
E1E
  8
0
  0
BLOCK
  8
0
  2
*U14
 70
     1
 10
0.0
 20
0.0
 30
0.0
  3
*U14
  1

  0
TEXT
  5
E20
  8
250
 62
    40
 10
63.299999999999997
 20
36.0
 30
0.0
 40
2.7999999999999989
  1
135
  0
ENDBLK
  5
E22
  8
0
  0
BLOCK
  8
0
  2
*U15
 70
     1
 10
0.0
 20
0.0
 30
0.0
  3
*U15
  1

  0
TEXT
  5
E24
  8
250
 62
    40
 10
-11.0
 20
-3.7999999999999989
 30
0.0
 40
2.7999999999999989
  1
\U+2205
 50
90.0
  0
TEXT
  5
E25
  8
250
 62
    40
 10
-11.0
 20
-1.2666666666666671
 30
0.0
 40
2.7999999999999989
  1
20
 50
90.0
  0
ENDBLK
  5
E27
  8
0
  0
BLOCK
  8
0
  2
*U16
 70
     1
 10
0.0
 20
0.0
 30
0.0
  3
*U16
  1

  0
TEXT
  5
E29
  8
250
 62
    40
 10
117.3333333333333
 20
29.0
 30
0.0
 40
2.7999999999999989
  1
30
  0
ENDBLK
  5
E2B
  8
0
  0
ENDSEC
  0
SECTION
  2
ENTITIES
  0
INSERT
  5
6E6
  8
245
  2
矢印なし
 10
175.62382697000001
 20
90.551235719999994
 30
0.0
  0
LINE
  5
939
  8
250
 10
7.5787339400000002
 20
-20.017036690000001
 30
0.0
 11
-7.3545993999999997
 21
-20.017036690000001
 31
0.0
1001
ITEMNAME
1000
LNSP2
  0
TEXT
  5
983
  8
241
 10
0.0
 20
49.0
 30
0.0
 40
5.0
  1
ST20-FCM21093-135
  7
YOKO
 11
0.0
 21
49.0
 31
0.0
 73
     1
  0
LINE
  5
CBD
  8
240
  6
CONTINUOUS
 10
104.49999999000001
 20
10.0
 30
0.0
 11
2.0000000099999991
 21
10.0
 31
0.0
  0
LINE
  5
CBE
  8
240
  6
CONTINUOUS
 10
104.5
 20
-10.0
 30
0.0
 11
2.0000000099999991
 21
-10.0
 31
0.0
  0
LINE
  5
CBF
  8
245
  6
CENTER2
 10
135.82745560000001
 20
0.0
 30
0.0
 11
-1.048868039999999
 21
0.0
 31
0.0
  0
LINE
  5
CC0
  8
240
  6
CONTINUOUS
 10
0.0
 20
8.8452994599999997
 30
0.0
 11
0.0
 21
0.0
 31
0.0
  0
LINE
  5
CC1
  8
241
  6
CONTINUOUS
 10
2.0
 20
10.0
 30
0.0
 11
2.0
 21
0.0
 31
0.0
  0
LINE
  5
CC2
  8
241
  6
CONTINUOUS
 10
2.0
 20
-10.0
 30
0.0
 11
2.0
 21
0.0
 31
0.0
  0
LINE
  5
CC3
  8
240
  6
CONTINUOUS
 10
0.0
 20
-8.8452994599999997
 30
0.0
 11
0.0
 21
0.0
 31
0.0
  0
LINE
  5
CC4
  8
240
  6
CONTINUOUS
 10
0.0
 20
-8.8452994599999997
 30
0.0
 11
2.0000000099999991
 21
-10.0
 31
0.0
  0
LINE
  5
CC5
  8
240
  6
CONTINUOUS
 10
0.0
 20
8.8452994599999997
 30
0.0
 11
2.0000000099999991
 21
10.0
 31
0.0
  0
LINE
  5
CCD
  8
240
  6
CONTINUOUS
 10
124.45050452000009
 20
-9.9000000000000004
 30
0.0
 11
104.67320506999999
 21
-9.9000000000000004
 31
0.0
  0
LINE
  5
CCE
  8
240
  6
CONTINUOUS
 10
124.1910527242016
 20
9.9000000000000004
 30
0.0
 11
104.67320506999999
 21
9.9000000000000004
 31
0.0
  0
LINE
  5
CD0
  8
241
  6
CONTINUOUS
 10
104.5
 20
10.0
 30
0.0
 11
104.5
 21
0.0
 31
0.0
  0
LINE
  5
CD1
  8
241
  6
CONTINUOUS
 10
106.5
 20
9.9000000000000004
 30
0.0
 11
106.5
 21
0.0
 31
0.0
  0
LINE
  5
CD2
  8
241
  6
CONTINUOUS
 10
106.5
 20
-9.9000000000000004
 30
0.0
 11
106.5
 21
0.0
 31
0.0
  0
LINE
  5
CD3
  8
241
  6
CONTINUOUS
 10
104.5
 20
-10.0
 30
0.0
 11
104.5
 21
0.0
 31
0.0
  0
LINE
  5
CD4
  8
240
  6
CONTINUOUS
 10
104.67320506999999
 20
-9.9000000000000004
 30
0.0
 11
104.49999999000001
 21
-10.0
 31
0.0
  0
LINE
  5
CD5
  8
240
  6
CONTINUOUS
 10
104.67320506999999
 20
9.9000000000000004
 30
0.0
 11
104.49999999000001
 21
10.0
 31
0.0
  0
LINE
  5
D3C
  8
241
 10
118.93626570511729
 20
-9.9000000000007056
 30
0.0
 11
118.77219615241791
 21
-9.8624336719828758
 31
0.0
  0
LINE
  5
D3D
  8
241
 10
118.77219615241791
 20
-9.8624336719828758
 30
0.0
 11
118.98524538553519
 21
-9.900000000000702
 31
0.0
  0
LINE
  5
D3E
  8
241
 10
123.8969238023605
 20
-4.3587968497066667
 30
0.0
 11
134.5
 21
-8.2180009773039515
 31
0.0
  0
ARC
  5
D3F
  8
241
 10
119.6591250866408
 20
-6.8301171377490846
 30
0.0
 40
3.1593648884149861
 50
78.502979801391305
 51
253.69621368140361
  0
LINE
  5
D40
  8
241
 10
123.89173645657171
 20
-4.3694324847053583
 30
0.0
 11
120.28883917503769
 21
-3.7341444852497139
 31
0.0
  0
LINE
  5
D41
  8
241
  6
CONTINUOUS
 10
124.94044396300021
 20
-2.2192634555811099
 30
0.0
 11
123.89173645657171
 21
-4.3694324847053583
 31
0.0
  0
LINE
  5
D42
  8
241
  6
CONTINUOUS
 10
134.5
 20
-3.9048711084986758
 30
0.0
 11
124.94044396300021
 21
-2.2192634555811099
 31
0.0
  0
LINE
  5
D43
  8
240
 10
134.52806448805919
 20
-3.9098196349432959
 30
0.0
 11
135.0
 21
-8.399986094437029
 31
0.0
  0
LINE
  5
D44
  8
240
 10
134.19999999999999
 20
4.0000000000000124
 30
0.0
 11
134.19999999999999
 21
3.618830808372659
 31
0.0
  0
LINE
  5
D45
  8
241
 10
133.72886073102899
 20
3.8781471407245149
 30
0.0
 11
118.0422785379421
 21
7.566070332054788
 31
0.0
  0
LINE
  5
D46
  8
240
 10
134.5
 20
-9.4603878356052977
 30
0.0
 11
134.5
 21
-8.2180009773039515
 31
0.0
  0
LINE
  5
D47
  8
240
 10
134.5
 20
-3.904871108498674
 30
0.0
 11
134.5
 21
2.904687965518439
 31
0.0
  0
ARC
  5
D48
  8
241
 10
118.5
 20
9.5129886824669363
 30
0.0
 40
2.0
 50
168.84255845510259
 51
256.7699924943239
  0
ARC
  5
D49
  8
240
 10
133.5
 20
2.904687965518443
 30
0.0
 40
1.0
 50
0.0
 51
45.572978399097167
  0
ARC
  5
D4A
  8
241
 10
133.5
 20
2.904687965518443
 30
0.0
 40
1.0
 50
45.572978399097167
 51
76.769992494323944
  0
LINE
  5
D4B
  8
245
  6
CONTINUOUS
 10
129.42099999999991
 20
9.5893574943768662
 30
0.0
 11
129.42099999999991
 21
4.5405589340130419
 31
0.0
  0
LINE
  5
D4C
  8
245
  6
CONTINUOUS
 10
126.75592832945
 20
7.115000000000002
 30
0.0
 11
132.25909819750191
 21
7.115000000000002
 31
0.0
  0
CIRCLE
  5
D4D
  8
241
 10
129.42099999999991
 20
7.115000000000002
 30
0.0
 40
2.0
  0
LINE
  5
D4E
  8
240
 10
124.1910527242016
 20
10.5
 30
0.0
 11
135.0
 21
10.5
 31
0.0
1001
GRPNAME
1000
PASTMD03
  0
LINE
  5
D4F
  8
240
 10
134.19999999999999
 20
4.0000000000000124
 30
0.0
 11
134.65094727579819
 21
4.0000000000000124
 31
0.0
1001
GRPNAME
1000
PASTMD03
  0
LINE
  5
D50
  8
240
 10
134.65094727579819
 20
3.9999999999999969
 30
0.0
 11
134.65094727579819
 21
8.2940151619277067
 31
0.0
1001
GRPNAME
1000
PASTMD03
  0
LINE
  5
D51
  8
240
 10
134.65094727579819
 20
8.2940151619277067
 30
0.0
 11
135.0
 21
8.7100000000000115
 31
0.0
1001
GRPNAME
1000
PASTMD03
  0
LINE
  5
D52
  8
240
 10
135.0
 20
8.7100000000000115
 30
0.0
 11
135.0
 21
10.5
 31
0.0
1001
GRPNAME
1000
PASTMD03
  0
LINE
  5
D53
  8
241
 10
124.1910527242016
 20
9.8750000000000266
 30
0.0
 11
124.1910527242016
 21
6.120490495692926
 31
0.0
1001
GRPNAME
1000
PASTMD03
  0
LINE
  5
D54
  8
241
 10
124.1910527242016
 20
10.5
 30
0.0
 11
129.17378183860961
 21
9.0996619814665731
 31
0.0
  0
LINE
  5
D55
  8
241
 10
130.66589920877149
 20
8.6803197628599023
 30
0.0
 11
134.65094727579819
 21
7.5603683896647471
 31
0.0
  0
LINE
  5
D56
  8
241
 10
124.1910527242016
 20
6.93963161033526
 30
0.0
 11
127.8167651362907
 21
5.9206673402857888
 31
0.0
  0
LINE
  5
D57
  8
241
 10
130.16820550065131
 20
5.259822396697194
 30
0.0
 11
134.65094727579819
 21
3.9999999999999969
 31
0.0
  0
LINE
  5
D58
  8
240
 10
124.1910527242016
 20
9.9000000000000004
 30
0.0
 11
124.1910527242016
 21
10.5
 31
0.0
  0
LINE
  5
D59
  8
241
 10
134.19999999999999
 20
4.0000000000000124
 30
0.0
 11
133.2105595644046
 21
4.0000000000000151
 31
0.0
  0
LINE
  5
D5A
  8
240
 10
134.5
 20
-8.2180009773039515
 30
0.0
 11
135.0
 21
-8.399986094437029
 31
0.0
  0
LINE
  5
D5B
  8
240
 10
134.52806448805919
 20
-3.9098196349432959
 30
0.0
 11
134.5
 21
-3.9048711084986758
 31
0.0
  0
LINE
  5
D5C
  8
240
  6
CONTINUOUS
 10
134.11052267283529
 20
-9.8602494033464367
 30
0.0
 11
125.0
 21
-10.1
 31
0.0
1001
GRPNAME
1000
PASTMD0B
  0
LINE
  5
D5D
  8
240
  6
CONTINUOUS
 10
124.45050452000009
 20
-9.9000000000000004
 30
0.0
 11
125.0
 21
-10.1
 31
0.0
1001
GRPNAME
1000
PASTMD0B
  0
ARC
  5
D5E
  8
240
 10
134.09999999999999
 20
-9.4603878356052977
 30
0.0
 40
0.4
 50
271.50743575877499
 51
0.0
1001
GENIUS_GENODEF_13
1002
{
1000
HIER
1070
     0
1002
}
1002
{
1000
MANEDIT
1070
     0
1002
}
1002
{
1000
NOSEL
1070
     0
1002
}
1002
{
1000
BEHIND
1070
     0
1002
}
1002
{
1000
OTHER
1070
     0
1002
}
1002
{
1000
REACTOR
1002
}
1001
GENIUS_GENOBJ-N-FIL_13
1002
{
1000
OWNER
1000
GEN
1002
}
  0
TEXT
  5
D61
  8
250
 10
-4.9545994000000011
 20
-19.017036690000001
 30
0.0
 40
2.7999999999999989
  1
ST20
  7
YOKO
1001
ITEMNAME
1000
LNSP3
1001
ACAD
1000
MTEXTBEGIN
1070
    73
1070
     1
1070
    44
1040
1.0
1070
    74
1070
     0
1000
MTEXTEND
1000
MTEXTBEGIN
1070
    73
1070
     1
1070
    44
1040
1.0
1070
    74
1070
     0
1000
MTEXTEND
1000
MTEXTBEGIN
1070
    73
1070
     1
1070
    44
1040
1.0
1070
    74
1070
     0
1000
MTEXTEND
1000
MTEXTBEGIN
1070
    73
1070
     1
1070
    44
1040
1.0
1070
    74
1070
     0
1000
MTEXTEND
1000
MTEXTBEGIN
1070
    73
1070
     1
1070
    44
1040
1.0
1070
    74
1070
     0
1000
MTEXTEND
  0
LINE
  5
D64
  8
250
 10
1.5
 20
-10.0
 30
0.0
 11
-11.0
 21
-10.0
 31
0.0
  0
LINE
  5
D65
  8
250
 10
1.5
 20
10.0
 30
0.0
 11
-11.0
 21
10.0
 31
0.0
  0
LINE
  5
D66
  8
250
 10
-10.0
 20
-7.7699999999999987
 30
0.0
 11
-10.0
 21
7.7699999999999987
 31
0.0
  0
LINE
  5
D6A
  8
250
 10
0.0
 20
9.3452994599999997
 30
0.0
 11
0.0
 21
36.0
 31
0.0
  0
LINE
  5
D6B
  8
250
 10
135.0
 20
11.0
 30
0.0
 11
135.0
 21
36.0
 31
0.0
  0
LINE
  5
D6C
  8
250
 10
2.2299999999999991
 20
35.0
 30
0.0
 11
132.77000000000001
 21
35.0
 31
0.0
  0
LINE
  5
D70
  8
250
 10
105.0
 20
10.4
 30
0.0
 11
105.0
 21
29.0
 31
0.0
  0
LINE
  5
D71
  8
250
 10
135.0
 20
11.0
 30
0.0
 11
135.0
 21
29.0
 31
0.0
  0
LINE
  5
D72
  8
250
 10
107.23
 20
28.0
 30
0.0
 11
132.77000000000001
 21
28.0
 31
0.0
  0
LINE
  5
D76
  8
250
 10
126.0
 20
11.0
 30
0.0
 11
126.0
 21
22.0
 31
0.0
  0
LINE
  5
D77
  8
250
 10
135.0
 20
11.0
 30
0.0
 11
135.0
 21
22.0
 31
0.0
  0
LINE
  5
D78
  8
250
 10
128.22999999999999
 20
21.0
 30
0.0
 11
132.77000000000001
 21
21.0
 31
0.0
  0
LINE
  5
D7D
  8
250
 10
135.5
 20
10.5
 30
0.0
 11
148.0
 21
10.5
 31
0.0
  0
LINE
  5
D7E
  8
250
 10
147.0
 20
-8.2699999999999996
 30
0.0
 11
147.0
 21
8.2699999999999996
 31
0.0
  0
LINE
  5
D82
  8
250
 10
12.247072769921029
 20
-11.9312366503937
 30
0.0
 11
7.5787339400000002
 21
-20.017036690000001
 31
0.0
1001
ACAD
1000
DSTYLE
1002
{
1070
     6
1000
OPEN
1070
   343
1005
594
1002
}
  0
LINE
  5
D83
  8
250
 10
11.92519999485541
 20
-11.745403317047209
 30
0.0
 11
13.362072769999999
 21
-10.0
 31
0.0
  0
LINE
  5
D84
  8
250
 10
12.56894554498664
 20
-12.117069983740199
 30
0.0
 11
13.362072769999999
 21
-10.0
 31
0.0
  0
LINE
  5
D85
  8
250
 10
13.362072769999999
 20
-10.0
 30
0.0
 11
12.247072769921029
 21
-11.9312366503937
 31
0.0
  0
TEXT
  5
D86
  8
250
 10
-11.0
 20
-3.7999999999999989
 30
0.0
 40
2.7999999999999989
  1
\U+2205
 50
90.0
1001
ACAD
1000
MTEXTBEGIN
1070
    73
1070
     1
1070
    44
1040
1.0
1070
    74
1070
     0
1000
MTEXTEND
  0
TEXT
  5
D87
  8
250
 10
-11.0
 20
-1.2666666666666671
 30
0.0
 40
2.7999999999999989
  1
20
 50
90.0
1001
ACAD
1000
MTEXTBEGIN
1070
    73
1070
     1
1070
    44
1040
1.0
1070
    74
1070
     0
1000
MTEXTEND
  0
LINE
  5
D88
  8
250
 10
-10.371666666666661
 20
7.7699999999999987
 30
0.0
 11
-10.0
 21
10.0
 31
0.0
  0
LINE
  5
D89
  8
250
 10
-9.6283333333333339
 20
7.7699999999999987
 30
0.0
 11
-10.0
 21
10.0
 31
0.0
  0
LINE
  5
D8A
  8
250
 10
-10.0
 20
10.0
 30
0.0
 11
-10.0
 21
7.7699999999999987
 31
0.0
  0
LINE
  5
D8B
  8
250
 10
-9.6283333333333339
 20
-7.7699999999999987
 30
0.0
 11
-10.0
 21
-10.0
 31
0.0
  0
LINE
  5
D8C
  8
250
 10
-10.371666666666661
 20
-7.7699999999999987
 30
0.0
 11
-10.0
 21
-10.0
 31
0.0
  0
LINE
  5
D8D
  8
250
 10
-10.0
 20
-10.0
 30
0.0
 11
-10.0
 21
-7.7699999999999987
 31
0.0
  0
TEXT
  5
D8E
  8
250
 10
63.299999999999997
 20
36.0
 30
0.0
 40
2.7999999999999989
  1
135
1001
ACAD
1000
MTEXTBEGIN
1070
    73
1070
     1
1070
    44
1040
1.0
1070
    74
1070
     0
1000
MTEXTEND
  0
LINE
  5
D8F
  8
250
 10
132.77000000000001
 20
35.37166666666667
 30
0.0
 11
135.0
 21
35.0
 31
0.0
  0
LINE
  5
D90
  8
250
 10
132.77000000000001
 20
34.62833333333333
 30
0.0
 11
135.0
 21
35.0
 31
0.0
  0
LINE
  5
D91
  8
250
 10
135.0
 20
35.0
 30
0.0
 11
132.77000000000001
 21
35.0
 31
0.0
  0
LINE
  5
D92
  8
250
 10
2.2299999999999991
 20
34.62833333333333
 30
0.0
 11
0.0
 21
35.0
 31
0.0
  0
LINE
  5
D93
  8
250
 10
2.2299999999999991
 20
35.37166666666667
 30
0.0
 11
0.0
 21
35.0
 31
0.0
  0
LINE
  5
D94
  8
250
 10
0.0
 20
35.0
 30
0.0
 11
2.2299999999999991
 21
35.0
 31
0.0
  0
TEXT
  5
D95
  8
250
 10
117.3333333333333
 20
29.0
 30
0.0
 40
2.7999999999999989
  1
30
1001
ACAD
1000
MTEXTBEGIN
1070
    73
1070
     1
1070
    44
1040
1.0
1070
    74
1070
     0
1000
MTEXTEND
  0
LINE
  5
D96
  8
250
 10
132.77000000000001
 20
28.371666666666659
 30
0.0
 11
135.0
 21
28.0
 31
0.0
  0
LINE
  5
D97
  8
250
 10
132.77000000000001
 20
27.62833333333333
 30
0.0
 11
135.0
 21
28.0
 31
0.0
  0
LINE
  5
D98
  8
250
 10
135.0
 20
28.0
 30
0.0
 11
132.77000000000001
 21
28.0
 31
0.0
  0
LINE
  5
D99
  8
250
 10
107.23
 20
27.62833333333333
 30
0.0
 11
105.0
 21
28.0
 31
0.0
  0
LINE
  5
D9A
  8
250
 10
107.23
 20
28.371666666666659
 30
0.0
 11
105.0
 21
28.0
 31
0.0
  0
LINE
  5
D9B
  8
250
 10
105.0
 20
28.0
 30
0.0
 11
107.23
 21
28.0
 31
0.0
  0
TEXT
  5
D9C
  8
250
 10
129.23333333333329
 20
22.0
 30
0.0
 40
2.7999999999999989
  1
9
1001
ACAD
1000
MTEXTBEGIN
1070
    73
1070
     1
1070
    44
1040
1.0
1070
    74
1070
     0
1000
MTEXTEND
1000
MTEXTBEGIN
1070
    73
1070
     1
1070
    44
1040
1.0
1070
    74
1070
     0
1000
MTEXTEND
  0
LINE
  5
D9D
  8
250
 10
132.77000000000001
 20
21.37166666666667
 30
0.0
 11
135.0
 21
21.0
 31
0.0
  0
LINE
  5
D9E
  8
250
 10
132.77000000000001
 20
20.62833333333333
 30
0.0
 11
135.0
 21
21.0
 31
0.0
  0
LINE
  5
D9F
  8
250
 10
135.0
 20
21.0
 30
0.0
 11
132.77000000000001
 21
21.0
 31
0.0
  0
LINE
  5
DA0
  8
250
 10
128.22999999999999
 20
20.62833333333333
 30
0.0
 11
126.0
 21
21.0
 31
0.0
  0
LINE
  5
DA1
  8
250
 10
128.22999999999999
 20
21.37166666666667
 30
0.0
 11
126.0
 21
21.0
 31
0.0
  0
LINE
  5
DA2
  8
250
 10
126.0
 20
21.0
 30
0.0
 11
128.22999999999999
 21
21.0
 31
0.0
  0
TEXT
  5
DA3
  8
250
 10
146.0
 20
-3.399999999999999
 30
0.0
 40
2.7999999999999989
  1
\U+2205
 50
90.0
1001
ACAD
1000
MTEXTBEGIN
1070
    73
1070
     1
1070
    44
1040
1.0
1070
    74
1070
     0
1000
MTEXTEND
  0
TEXT
  5
DA4
  8
250
 10
146.0
 20
-0.8666666666666667
 30
0.0
 40
2.7999999999999989
  1
21
 50
90.0
1001
ACAD
1000
MTEXTBEGIN
1070
    73
1070
     1
1070
    44
1040
1.0
1070
    74
1070
     0
1000
MTEXTEND
  0
LINE
  5
DA5
  8
250
 10
146.6283333333333
 20
8.2699999999999996
 30
0.0
 11
147.0
 21
10.5
 31
0.0
  0
LINE
  5
DA6
  8
250
 10
147.3716666666667
 20
8.2699999999999996
 30
0.0
 11
147.0
 21
10.5
 31
0.0
  0
LINE
  5
DA7
  8
250
 10
147.0
 20
10.5
 30
0.0
 11
147.0
 21
8.2699999999999996
 31
0.0
  0
VIEWPORT
  5
22
 67
     1
  8
0
 10
261.51769911999997
 20
148.5
 30
0.0
 40
523.03539823000006
 41
297.0
 68
     1
 69
     1
1001
ACAD
1000
MVIEW
1002
{
1070
    16
1010
0.0
1020
0.0
1030
0.0
1010
0.0
1020
0.0
1030
1.0
1040
0.0
1040
297.0
1040
261.51769911999997
1040
148.5
1040
50.0
1040
0.0
1040
0.0
1070
     0
1070
   100
1070
     1
1070
     1
1070
     0
1070
     0
1070
     0
1070
     0
1040
0.0
1040
0.0
1040
0.0
1040
1.0
1040
1.0
1040
10.0
1040
10.0
1070
     0
1002
{
1002
}
1002
}
1001
GENIUS_GENODEF_13
1002
{
1000
HIER
1070
     0
1002
}
1002
{
1000
MANEDIT
1070
     0
1002
}
1002
{
1000
NOSEL
1070
     0
1002
}
1002
{
1000
BEHIND
1070
     0
1002
}
1002
{
1000
OTHER
1070
     0
1002
}
1002
{
1000
REACTOR
1002
}
1001
GENIUS_GENOBJ-N-SDF_13
1002
{
1000
OWNER
1000
GEN
1002
}
1001
GENIUS_GENSCREG_15
1000
PF
1040
1.0
1000
DF
1040
1.0
1000
MIN
1011
0.0000000049999471
1021
-8.0611348173425179E+264
1031
-0.0
1021
0.0
1031
0.0
1000
MAX
1011
523.035398235
1021
-8.0611348173425179E+264
1031
-0.0
1021
297.0
1031
0.0
1000
FLAGS
1070
     2
  0
ENDSEC
  0
EOF
