  0
SECTION
  2
HEADER
  9
$ACADVER
  1
AC1009
  9
$INSBASE
 10
0.0
 20
0.0
 30
0.0
  9
$EXTMIN
 10
-14.806630673885021
 20
-20.021871177150501
 30
-0.0000000000074783
  9
$EXTMAX
 10
179.03274378372799
 20
54.017463678963168
 30
0.0000000000044428
  9
$LIMMIN
 10
0.0
 20
0.0
  9
$LIMMAX
 10
420.0
 20
297.0
  9
$ORTHOMODE
 70
     1
  9
$REGENMODE
 70
     1
  9
$FILLMODE
 70
     1
  9
$QTEXTMODE
 70
     0
  9
$MIRRTEXT
 70
     1
  9
$DRAGMODE
 70
     2
  9
$LTSCALE
 40
10.0
  9
$OSMODE
 70
    39
  9
$ATTMODE
 70
     1
  9
$TEXTSIZE
 40
3.0
  9
$TRACEWID
 40
1.0
  9
$TEXTSTYLE
  7
YOKO
  9
$CLAYER
  8
240
  9
$CELTYPE
  6
BYLAYER
  9
$CECOLOR
 62
   256
  9
$DIMSCALE
 40
1.0
  9
$DIMASZ
 40
2.2299999999999991
  9
$DIMEXO
 40
0.5
  9
$DIMDLI
 40
2.5
  9
$DIMRND
 40
0.0
  9
$DIMDLE
 40
0.0
  9
$DIMEXE
 40
1.0
  9
$DIMTP
 40
0.0
  9
$DIMTM
 40
0.0
  9
$DIMTXT
 40
2.799999999999998
  9
$DIMCEN
 40
0.0
  9
$DIMTSZ
 40
0.0
  9
$DIMTOL
 70
     0
  9
$DIMLIM
 70
     0
  9
$DIMTIH
 70
     0
  9
$DIMTOH
 70
     0
  9
$DIMSE1
 70
     0
  9
$DIMSE2
 70
     0
  9
$DIMTAD
 70
     3
  9
$DIMZIN
 70
     8
  9
$DIMBLK
  1

  9
$DIMASO
 70
     1
  9
$DIMSHO
 70
     1
  9
$DIMPOST
  1

  9
$DIMAPOST
  1

  9
$DIMALT
 70
     0
  9
$DIMALTD
 70
     2
  9
$DIMALTF
 40
25.399999999999999
  9
$DIMLFAC
 40
1.0
  9
$DIMTOFL
 70
     1
  9
$DIMTVP
 40
0.0
  9
$DIMTIX
 70
     1
  9
$DIMSOXD
 70
     0
  9
$DIMSAH
 70
     1
  9
$DIMBLK1
  1
OPEN
  9
$DIMBLK2
  1
OPEN
  9
$DIMSTYLE
  2
BIGT
  9
$DIMCLRD
 70
   256
  9
$DIMCLRE
 70
   256
  9
$DIMCLRT
 70
    40
  9
$DIMTFAC
 40
1.0
  9
$DIMGAP
 40
1.0
  9
$LUNITS
 70
     2
  9
$LUPREC
 70
     3
  9
$SKETCHINC
 40
1.0
  9
$FILLETRAD
 40
0.0
  9
$AUNITS
 70
     0
  9
$AUPREC
 70
     3
  9
$MENU
  1
.
  9
$ELEVATION
 40
0.0
  9
$PELEVATION
 40
0.0
  9
$THICKNESS
 40
0.0
  9
$LIMCHECK
 70
     0
  9
$BLIPMODE
 70
     0
  9
$CHAMFERA
 40
10.0
  9
$CHAMFERB
 40
10.0
  9
$SKPOLY
 70
     0
  9
$TDCREATE
 40
2455145.6856070948
  9
$TDUPDATE
 40
2456093.5973923379
  9
$TDINDWG
 40
0.0179001042
  9
$TDUSRTIMER
 40
0.0179001042
  9
$USRTIMER
 70
     1
  9
$ANGBASE
 50
0.0
  9
$ANGDIR
 70
     0
  9
$PDMODE
 70
     1
  9
$PDSIZE
 40
-5.0
  9
$PLINEWID
 40
0.0
  9
$COORDS
 70
     0
  9
$SPLFRAME
 70
     0
  9
$SPLINETYPE
 70
     6
  9
$SPLINESEGS
 70
     8
  9
$ATTDIA
 70
     1
  9
$ATTREQ
 70
     1
  9
$HANDLING
 70
     1
  9
$HANDSEED
  5
10D7
  9
$SURFTAB1
 70
     6
  9
$SURFTAB2
 70
     6
  9
$SURFTYPE
 70
     6
  9
$SURFU
 70
     6
  9
$SURFV
 70
     6
  9
$UCSNAME
  2

  9
$UCSORG
 10
0.0
 20
0.0
 30
0.0
  9
$UCSXDIR
 10
1.0
 20
0.0
 30
0.0
  9
$UCSYDIR
 10
0.0
 20
1.0
 30
0.0
  9
$PUCSNAME
  2

  9
$PUCSORG
 10
0.0
 20
0.0
 30
0.0
  9
$PUCSXDIR
 10
1.0
 20
0.0
 30
0.0
  9
$PUCSYDIR
 10
0.0
 20
1.0
 30
0.0
  9
$USERI1
 70
     1
  9
$USERI2
 70
     0
  9
$USERI3
 70
     0
  9
$USERI4
 70
     0
  9
$USERI5
 70
     0
  9
$USERR1
 40
0.0
  9
$USERR2
 40
0.0
  9
$USERR3
 40
0.0
  9
$USERR4
 40
0.0
  9
$USERR5
 40
0.0
  9
$WORLDVIEW
 70
     1
  9
$SHADEDGE
 70
     3
  9
$SHADEDIF
 70
    70
  9
$TILEMODE
 70
     1
  9
$MAXACTVP
 70
    16
  9
$PLIMCHECK
 70
     0
  9
$PEXTMIN
 10
1.0000000000000000E+020
 20
1.0000000000000000E+020
 30
1.0000000000000000E+020
  9
$PEXTMAX
 10
-1.0000000000000000E+020
 20
-1.0000000000000000E+020
 30
-1.0000000000000000E+020
  9
$PLIMMIN
 10
0.0
 20
0.0
  9
$PLIMMAX
 10
420.0
 20
297.0
  9
$UNITMODE
 70
     0
  9
$VISRETAIN
 70
     0
  9
$PLINEGEN
 70
     0
  9
$PSLTSCALE
 70
     1
  0
ENDSEC
  0
SECTION
  2
TABLES
  0
TABLE
  2
VPORT
 70
    27
  0
VPORT
  2
*ACTIVE
 70
     0
 10
0.0
 20
0.0
 11
1.0
 21
1.0
 12
82.113056554921513
 22
16.99779625090633
 13
0.0
 23
0.0
 14
7.0
 24
7.0
 15
7.0
 25
7.0
 16
0.0
 26
0.0
 36
1.0
 17
0.0
 27
0.0
 37
0.0
 40
140.3309868373214
 41
1.3877995642701519
 42
50.0
 43
0.0
 44
0.0
 50
0.0
 51
0.0
 71
     0
 72
  2000
 73
     1
 74
     0
 75
     0
 76
     0
 77
     0
 78
     0
  0
ENDTAB
  0
TABLE
  2
LTYPE
 70
    21
  0
LTYPE
  2
CONTINUOUS
 70
     0
  3
Solid line
 72
    65
 73
     0
 40
0.0
  0
LTYPE
  2
CENTER2
 70
     0
  3
___ _ ___ _ ___ _ ___ _ ___ _ ___ _ ___ _ ___ _
 72
    65
 73
     4
 40
1.125
 49
0.75
 49
-0.125
 49
0.125
 49
-0.125
  0
LTYPE
  2
PHANTOM2
 70
     0
  3
___ _ _ ___ _ _ ___ _ _ ___ _ _ ___ _ _ ___ _ _
 72
    65
 73
     6
 40
1.25
 49
0.625
 49
-0.125
 49
0.125
 49
-0.125
 49
0.125
 49
-0.125
  0
LTYPE
  2
HIDDEN2
 70
     0
  3
_ _ _ _ _ _ _ _ _ _ _ _ _ _ _ _ _ _ _ _ _ _ _ _
 72
    65
 73
     2
 40
0.1875
 49
0.125
 49
-0.0625
  0
LTYPE
  2
AMCONSTR
 70
     0
  3
_______________________
 72
    65
 73
     2
 40
9999.0
 49
9999.0
 49
0.0
  0
LTYPE
  2
HIDDEN
 70
     0
  3
Hidden __ __ __ __ __ __ __ __ __ __ __ __ __ _
 72
    65
 73
     2
 40
9.5249999999999986
 49
6.3499999999999979
 49
-3.174999999999998
  0
LTYPE
  2
CENTER
 70
     0
  3
____ _ ____ _ ____ _ ____ _ ____ _ ____ _ ____ 
 72
    65
 73
     4
 40
2.0
 49
1.25
 49
-0.25
 49
0.25
 49
-0.25
  0
LTYPE
  2
ACANSTGB
 70
     0
  3
__ . . __ . .
 72
    65
 73
     6
 40
0.35433070866
 49
0.15748031496
 49
-0.03937007874
 49
0.03937007874
 49
-0.03937007874
 49
0.03937007874
 49
-0.03937007874
  0
LTYPE
  2
ACANSTGL
 70
     0
  3
_ _ _ _ _
 72
    65
 73
     2
 40
0.11811023622
 49
0.07874015748
 49
-0.03937007874
  0
LTYPE
  2
AMZIGZAG2
 70
     0
  3
/\/-/\/-/\/-/\/-/\/-/\/
 72
    65
 73
     2
 40
0.4401
 49
0.0001
 49
-0.4400000000000001
  0
ENDTAB
  0
TABLE
  2
LAYER
 70
     8
  0
LAYER
  2
0
 70
     0
 62
     7
  6
CONTINUOUS
  0
LAYER
  2
240
 70
     0
 62
     4
  6
CONTINUOUS
  0
LAYER
  2
241
 70
     0
 62
   211
  6
CONTINUOUS
  0
LAYER
  2
245
 70
     0
 62
     2
  6
CENTER2
  0
LAYER
  2
250
 70
     0
 62
     3
  6
CONTINUOUS
  0
LAYER
  2
DEFPOINTS
 70
     0
 62
     7
  6
CONTINUOUS
  0
ENDTAB
  0
TABLE
  2
STYLE
 70
     9
  0
STYLE
  2
STANDARD
 70
     0
 40
0.0
 41
1.0
 50
0.0
 71
     0
 42
3.0
  3
romans.shx
  4
BIGFONT.SHX
  0
STYLE
  2
YOKO
 70
     0
 40
0.0
 41
1.0
 50
0.0
 71
     0
 42
3.0
  3
romans.shx
  4
extfont.shx
  0
STYLE
  2
ACANSTS
 70
     0
 40
1.0
 41
1.0
 50
0.0
 71
     0
 42
3.0
  3
romans.shx
  4
extfont.shx
  0
STYLE
  2
ACANSGDT
 70
     0
 40
0.0
 41
1.0
 50
0.0
 71
     0
 42
3.0
  3
amgdtans.shx
  4

  0
STYLE
  2

 70
     1
 40
0.0
 41
1.0
 50
0.0
 71
     0
 42
3.0
  3
ltypeshp.shx
  4

  0
ENDTAB
  0
TABLE
  2
VIEW
 70
     0
  0
ENDTAB
  0
TABLE
  2
UCS
 70
     0
  0
ENDTAB
  0
TABLE
  2
APPID
 70
    35
  0
APPID
  2
ACAD
 70
     0
  0
APPID
  2
GLOBAL
 70
     0
  0
APPID
  2
DETAIL
 70
     0
  0
APPID
  2
GRPNAME
 70
     0
  0
APPID
  2
GPARA
 70
     0
  0
APPID
  2
DCO15
 70
     0
  0
APPID
  2
ITEMNAME
 70
     0
  0
APPID
  2
GRADE_0
 70
     0
  0
APPID
  2
HATCH_TYPE
 70
     0
  0
APPID
  2
HATCH_DISPLAY
 70
     0
  0
APPID
  2
HATCH_DISTANCE
 70
     0
  0
APPID
  2
CONTENTBLOCKICON
 70
     0
  0
APPID
  2
MCAD_NO_VIS
 70
     0
  0
APPID
  2
ACAD_TEMP_GRAPHIC
 70
     0
  0
APPID
  2
ACATTRIBSERVICES
 70
     0
  0
APPID
  2
GENIUS_GENSCREG_15
 70
     0
  0
APPID
  2
GENIUS_GENODEF_13
 70
     0
  0
APPID
  2
GENIUS_GENOBJ-N-SDF_13
 70
     0
  0
APPID
  2
GENIUS_GENREC_14
 70
     0
  0
APPID
  2
GENIUS_GENOBJ-N-REC_13
 70
     0
  0
APPID
  2
GENIUS_GENDIMSH_14
 70
     0
  0
APPID
  2
GENIUS_GENOBJ-N-DIM_13
 70
     0
  0
APPID
  2
GENIUS_GENDIM_13
 70
     0
  0
APPID
  2
GENIUS_GENDTOL_13
 70
     0
  0
APPID
  2
GENIUS_GENOLIS_13
 70
     0
  0
APPID
  2
GENIUS_GENOENT_13
 70
     0
  0
APPID
  2
GENIUS_GENOBJ-F-FEM_13
 70
     0
  0
APPID
  2
GENIUS_GENOREF_13
 70
     0
  0
APPID
  2
GENIUS_GEFFEM_13
 70
     0
  0
APPID
  2
GENIUS_GEFFEMP_13
 70
     0
  0
APPID
  2
AD_DRAW
 70
     0
  0
APPID
  2
DESIGNERASSEMBLIES
 70
     0
  0
APPID
  2
ACADM_DIM_EDIT
 70
     0
  0
APPID
  2
AMDT_DM_ADJ
 70
     0
  0
APPID
  2
GENIUS_GENOBJ-N-FIL_13
 70
     0
  0
ENDTAB
  0
TABLE
  2
DIMSTYLE
 70
    29
  0
DIMSTYLE
  2
BIGT
 70
     0
  3

  4

  5

  6

  7

 40
1.0
 41
2.2299999999999991
 42
0.5
 43
7.0
 44
1.0
 45
0.0
 46
0.0
 47
0.0
 48
0.01
140
2.799999999999998
141
0.0
142
0.0
143
25.399999999999999
144
1.0
145
0.0
146
1.0
147
1.0
 71
     0
 72
     0
 73
     0
 74
     0
 75
     0
 76
     0
 77
     3
 78
     9
170
     0
171
     2
172
     1
173
     0
174
     1
175
     0
176
   256
177
   256
178
    40
  0
DIMSTYLE
  2
AM_ANSI
 70
     0
  3

  4
mm
  5

  6

  7

 40
1.0
 41
0.1
 42
0.05
 43
0.5
 44
0.1
 45
0.0
 46
0.0
 47
0.1
 48
0.1
140
0.12
141
0.0
142
0.0
143
25.399999999999999
144
1.0
145
0.0
146
0.71
147
0.06
 71
     0
 72
     0
 73
     1
 74
     1
 75
     0
 76
     0
 77
     0
 78
     7
170
     0
171
     2
172
     0
173
     0
174
     0
175
     0
176
   256
177
   256
178
     2
  0
DIMSTYLE
  2
AM_ANSI$3
 70
     0
  3

  4
mm
  5

  6

  7

 40
1.0
 41
0.1
 42
0.05
 43
0.5
 44
0.1
 45
0.0
 46
0.0
 47
0.1
 48
0.1
140
0.12
141
0.0
142
0.0
143
25.399999999999999
144
1.0
145
0.0
146
0.71
147
0.06
 71
     0
 72
     0
 73
     1
 74
     1
 75
     0
 76
     0
 77
     0
 78
     7
170
     0
171
     2
172
     0
173
     0
174
     0
175
     0
176
   256
177
   256
178
     2
  0
DIMSTYLE
  2
AM_ANSI$4
 70
     0
  3

  4
mm
  5

  6

  7

 40
1.0
 41
0.1
 42
0.05
 43
0.5
 44
0.1
 45
0.0
 46
0.0
 47
0.1
 48
0.1
140
0.12
141
0.0
142
0.0
143
25.399999999999999
144
1.0
145
0.0
146
0.71
147
0.06
 71
     0
 72
     0
 73
     1
 74
     1
 75
     0
 76
     0
 77
     0
 78
     7
170
     0
171
     2
172
     0
173
     0
174
     0
175
     0
176
   256
177
   256
178
     2
  0
DIMSTYLE
  2
AM_ANSI$7
 70
     0
  3

  4
mm
  5

  6

  7

 40
1.0
 41
0.1
 42
0.05
 43
0.5
 44
0.1
 45
0.0
 46
0.0
 47
0.1
 48
0.1
140
0.24
141
0.0
142
0.0
143
25.399999999999999
144
1.0
145
0.0
146
0.71
147
0.06
 71
     0
 72
     0
 73
     1
 74
     1
 75
     0
 76
     0
 77
     0
 78
     7
170
     0
171
     2
172
     0
173
     0
174
     0
175
     0
176
   256
177
   256
178
     2
  0
DIMSTYLE
  2
AM_ANSI$SF
 70
     0
  3

  4
mm
  5

  6

  7

 40
1.0
 41
0.1
 42
0.05
 43
0.5
 44
0.1
 45
0.0
 46
0.0
 47
0.1
 48
0.1
140
0.12
141
0.0
142
0.0
143
25.399999999999999
144
1.0
145
0.0
146
0.71
147
0.06
 71
     0
 72
     0
 73
     1
 74
     1
 75
     1
 76
     1
 77
     0
 78
     7
170
     0
171
     2
172
     0
173
     0
174
     0
175
     0
176
   256
177
   256
178
     2
  0
DIMSTYLE
  2
AM_ANSI$SH
 70
     0
  3

  4
mm
  5

  6

  7

 40
1.0
 41
0.1
 42
0.05
 43
0.5
 44
0.1
 45
0.0
 46
0.0
 47
0.1
 48
0.1
140
0.12
141
0.0
142
0.0
143
25.399999999999999
144
1.0
145
0.0
146
0.71
147
0.06
 71
     0
 72
     0
 73
     1
 74
     1
 75
     1
 76
     1
 77
     0
 78
     7
170
     0
171
     2
172
     0
173
     1
174
     0
175
     0
176
   256
177
   256
178
     2
  0
ENDTAB
  0
ENDSEC
  0
SECTION
  2
BLOCKS
  0
BLOCK
  8
0
  2
$MODEL_SPACE
 70
     0
 10
0.0
 20
0.0
 30
0.0
  3
$MODEL_SPACE
  1

  0
ENDBLK
  5
F5C
  8
0
  0
BLOCK
 67
     1
  8
0
  2
$PAPER_SPACE
 70
     0
 10
0.0
 20
0.0
 30
0.0
  3
$PAPER_SPACE
  1

  0
ENDBLK
  5
F58
 67
     1
  8
0
  0
BLOCK
  8
0
  2
_OPEN
 70
     0
 10
0.0
 20
0.0
 30
0.0
  3
_OPEN
  1

  0
LINE
  5
D57
  8
0
  6
BYBLOCK
 62
     0
 10
-1.0
 20
0.1666666666666666
 30
0.0
 11
0.0
 21
0.0
 31
0.0
  0
LINE
  5
D58
  8
0
  6
BYBLOCK
 62
     0
 10
-1.0
 20
-0.1666666666666666
 30
0.0
 11
0.0
 21
0.0
 31
0.0
  0
LINE
  5
D59
  8
0
  6
BYBLOCK
 62
     0
 10
0.0
 20
0.0
 30
0.0
 11
-1.0
 21
0.0
 31
0.0
  0
ENDBLK
  5
D5A
  8
0
  0
BLOCK
  8
0
  2
矢印なし
 70
     0
 10
0.0
 20
0.0
 30
0.0
  3
矢印なし
  1

  0
ENDBLK
  5
6E5
  8
0
  0
ENDSEC
  0
SECTION
  2
ENTITIES
  0
INSERT
  5
6E6
  8
245
  2
矢印なし
 10
175.62382697000001
 20
90.551235719999994
 30
0.0
  0
TEXT
  5
98A
  8
241
 10
0.0
 20
49.0
 30
0.0
 40
5.0
  1
ST20-FCM21092-165
  7
YOKO
 11
0.0
 21
49.0
 31
0.0
 73
     1
  0
LINE
  5
A73
  8
250
 10
7.5787339400000002
 20
-20.017036690000001
 30
0.0
 11
-7.3545993999999979
 21
-20.017036690000001
 31
0.0
1001
ITEMNAME
1000
LNSP2
  0
LINE
  5
DBD
  8
240
  6
CONTINUOUS
 10
134.49999998999999
 20
10.0
 30
0.0
 11
2.0000000099999991
 21
10.0
 31
0.0
  0
LINE
  5
DBE
  8
240
  6
CONTINUOUS
 10
134.49999998999999
 20
-10.0
 30
0.0
 11
2.0000000099999991
 21
-10.0
 31
0.0
  0
LINE
  5
DBF
  8
245
  6
CENTER2
 10
166.0
 20
0.0
 30
0.0
 11
-1.0
 21
0.0
 31
0.0
  0
LINE
  5
DC1
  8
240
  6
CONTINUOUS
 10
0.0
 20
8.8452994599999961
 30
0.0
 11
0.0
 21
0.0
 31
0.0
  0
LINE
  5
DC2
  8
241
  6
CONTINUOUS
 10
2.0
 20
10.0
 30
0.0
 11
2.0
 21
0.0
 31
0.0
  0
LINE
  5
DC3
  8
241
  6
CONTINUOUS
 10
2.0
 20
-10.0
 30
0.0
 11
2.0
 21
0.0
 31
0.0
  0
LINE
  5
DC4
  8
240
  6
CONTINUOUS
 10
0.0
 20
-8.8452994599999961
 30
0.0
 11
0.0
 21
0.0
 31
0.0
  0
LINE
  5
DC5
  8
240
  6
CONTINUOUS
 10
0.0
 20
-8.8452994599999961
 30
0.0
 11
2.0
 21
-10.0
 31
0.0
  0
LINE
  5
DC6
  8
240
  6
CONTINUOUS
 10
0.0
 20
8.8452994599999961
 30
0.0
 11
2.0000000099999991
 21
10.0
 31
0.0
  0
LINE
  5
DC7
  8
240
  6
CONTINUOUS
 10
134.67320506999999
 20
9.9000000000000004
 30
0.0
 11
134.49999998999999
 21
10.0
 31
0.0
  0
LINE
  5
DC8
  8
240
  6
CONTINUOUS
 10
134.67320506999999
 20
-9.9000000000000004
 30
0.0
 11
134.5
 21
-9.9999999899999992
 31
0.0
  0
LINE
  5
DC9
  8
241
  6
CONTINUOUS
 10
134.5
 20
9.9999999899999992
 30
0.0
 11
134.5
 21
0.0
 31
0.0
  0
LINE
  5
DCA
  8
241
  6
CONTINUOUS
 10
134.5
 20
-9.9999999899999992
 30
0.0
 11
134.5
 21
0.0
 31
0.0
  0
LINE
  5
DCD
  8
240
  6
CONTINUOUS
 10
154.1910527242016
 20
9.9000000000000004
 30
0.0
 11
134.67320506999999
 21
9.9000000000000004
 31
0.0
  0
LINE
  5
DCE
  8
240
  6
CONTINUOUS
 10
154.1910527242016
 20
-9.9000000000000004
 30
0.0
 11
134.67320506999999
 21
-9.9000000000000004
 31
0.0
  0
LINE
  5
DD1
  8
241
  6
CONTINUOUS
 10
136.5
 20
9.9000000000000004
 30
0.0
 11
136.5
 21
0.0
 31
0.0
  0
LINE
  5
DD2
  8
241
  6
CONTINUOUS
 10
136.5
 20
-9.9000000000000004
 30
0.0
 11
136.5
 21
0.0
 31
0.0
  0
LINE
  5
E46
  8
241
 10
163.72886073102899
 20
3.8781471407245132
 30
0.0
 11
148.04227853794211
 21
7.5660703320547871
 31
0.0
  0
LINE
  5
E48
  8
240
 10
164.5
 20
-4.0000000000000098
 30
0.0
 11
164.5
 21
4.0000000000000098
 31
0.0
  0
ARC
  5
E49
  8
241
 10
148.5
 20
9.5129886824669345
 30
0.0
 40
2.0
 50
168.84255845510259
 51
256.7699924943239
  0
ARC
  5
E4B
  8
241
 10
163.5
 20
2.9046879655184421
 30
0.0
 40
1.0
 50
0.0
 51
76.769992494323944
  0
LINE
  5
E4C
  8
245
  6
CONTINUOUS
 10
159.42099999999991
 20
9.5893574943768645
 30
0.0
 11
159.42099999999991
 21
4.540558934013041
 31
0.0
  0
LINE
  5
E4D
  8
245
  6
CONTINUOUS
 10
156.75592832945
 20
7.1150000000000011
 30
0.0
 11
162.25909819750191
 21
7.1150000000000011
 31
0.0
  0
CIRCLE
  5
E4E
  8
241
 10
159.42099999999991
 20
7.1150000000000011
 30
0.0
 40
2.0
  0
LINE
  5
E4F
  8
240
 10
154.1910527242016
 20
10.5
 30
0.0
 11
165.0
 21
10.5
 31
0.0
1001
GRPNAME
1000
PASTMD03
  0
LINE
  5
E50
  8
240
 10
164.5
 20
4.0000000000000098
 30
0.0
 11
164.65094727579819
 21
4.0000000000000089
 31
0.0
1001
GRPNAME
1000
PASTMD03
  0
LINE
  5
E51
  8
240
 10
164.65094727579819
 20
4.0000000000000089
 30
0.0
 11
164.65094727579819
 21
8.2940151619277032
 31
0.0
1001
GRPNAME
1000
PASTMD03
  0
LINE
  5
E52
  8
240
 10
164.65094727579819
 20
8.2940151619277032
 30
0.0
 11
165.0
 21
8.7100000000000097
 31
0.0
1001
GRPNAME
1000
PASTMD03
  0
LINE
  5
E53
  8
240
 10
165.0
 20
8.7100000000000097
 30
0.0
 11
165.0
 21
10.5
 31
0.0
1001
GRPNAME
1000
PASTMD03
  0
LINE
  5
E54
  8
241
 10
154.1910527242016
 20
9.8750000000000249
 30
0.0
 11
154.1910527242016
 21
6.1204904956929251
 31
0.0
1001
GRPNAME
1000
PASTMD03
  0
LINE
  5
E55
  8
241
 10
154.1910527242016
 20
10.5
 30
0.0
 11
159.17378183860961
 21
9.0996619814665731
 31
0.0
  0
LINE
  5
E56
  8
241
 10
160.66589920877141
 20
8.6803197628599005
 30
0.0
 11
164.65094727579819
 21
7.5603683896647453
 31
0.0
  0
LINE
  5
E57
  8
241
 10
154.1910527242016
 20
6.9396316103352591
 30
0.0
 11
157.81676513629071
 21
5.920667340285787
 31
0.0
  0
LINE
  5
E58
  8
241
 10
160.16820550065131
 20
5.2598223966971931
 30
0.0
 11
164.65094727579819
 21
3.999999999999996
 31
0.0
  0
LINE
  5
E59
  8
240
 10
154.1910527242016
 20
9.9000000000000004
 30
0.0
 11
154.1910527242016
 21
10.5
 31
0.0
  0
LINE
  5
E5A
  8
241
 10
164.5
 20
4.0000000000000098
 30
0.0
 11
163.2105595644046
 21
4.0000000000000142
 31
0.0
  0
LINE
  5
E5D
  8
241
 10
164.11052267283529
 20
-9.8602494033464385
 30
0.0
 11
155.0
 21
-10.1
 31
0.0
1001
GRPNAME
1000
PASTMD0B
  0
LINE
  5
E5E
  8
241
 10
154.45050452000009
 20
-9.9000000000000004
 30
0.0
 11
155.0
 21
-10.1
 31
0.0
1001
GRPNAME
1000
PASTMD0B
  0
ARC
  5
E5F
  8
241
 10
164.09999999999999
 20
-9.4603878356052995
 30
0.0
 40
0.4
 50
271.50743575877499
 51
0.0
1001
GENIUS_GENODEF_13
1002
{
1000
HIER
1070
     0
1002
}
1002
{
1000
MANEDIT
1070
     0
1002
}
1002
{
1000
NOSEL
1070
     0
1002
}
1002
{
1000
BEHIND
1070
     0
1002
}
1002
{
1000
OTHER
1070
     0
1002
}
1002
{
1000
REACTOR
1002
}
1001
GENIUS_GENOBJ-N-FIL_13
1002
{
1000
OWNER
1000
GEN
1002
}
  0
TEXT
  5
E64
  8
250
 10
-4.9545994000000011
 20
-19.017036690000001
 30
0.0
 40
2.799999999999998
  1
ST20
  7
YOKO
1001
ITEMNAME
1000
LNSP3
1001
ACAD
1000
MTEXTBEGIN
1070
    73
1070
     1
1070
    44
1040
1.0
1070
    74
1070
     0
1000
MTEXTEND
1000
MTEXTBEGIN
1070
    73
1070
     1
1070
    44
1040
1.0
1070
    74
1070
     0
1000
MTEXTEND
1000
MTEXTBEGIN
1070
    73
1070
     1
1070
    44
1040
1.0
1070
    74
1070
     0
1000
MTEXTEND
1000
MTEXTBEGIN
1070
    73
1070
     1
1070
    44
1040
1.0
1070
    74
1070
     0
1000
MTEXTEND
1000
MTEXTBEGIN
1070
    73
1070
     1
1070
    44
1040
1.0
1070
    74
1070
     0
1000
MTEXTEND
  0
LINE
  5
E65
  8
250
  6
CONTINUOUS
 10
1.5000000099999991
 20
-10.0
 30
0.0
 11
-12.0
 21
-10.0
 31
0.0
  0
LINE
  5
E66
  8
250
 10
1.5000000099999991
 20
10.0
 30
0.0
 11
-12.0
 21
10.0
 31
0.0
  0
LINE
  5
E67
  8
250
 10
-11.0
 20
-7.7699999999999978
 30
0.0
 11
-11.0
 21
7.7699999999999978
 31
0.0
  0
LINE
  5
E6B
  8
250
 10
0.0
 20
9.3452994599999997
 30
0.0
 11
0.0
 21
36.0
 31
0.0
  0
LINE
  5
E6C
  8
250
 10
165.0
 20
11.0
 30
0.0
 11
165.0
 21
36.0
 31
0.0
  0
LINE
  5
E6D
  8
250
 10
2.2299999999999991
 20
35.0
 30
0.0
 11
162.77000000000001
 21
35.0
 31
0.0
  0
LINE
  5
E71
  8
250
 10
135.0
 20
10.4
 30
0.0
 11
135.0
 21
29.0
 31
0.0
  0
LINE
  5
E72
  8
250
 10
165.0
 20
11.0
 30
0.0
 11
165.0
 21
29.0
 31
0.0
  0
LINE
  5
E73
  8
250
 10
137.22999999999999
 20
28.0
 30
0.0
 11
162.77000000000001
 21
28.0
 31
0.0
  0
LINE
  5
E77
  8
250
 10
156.0
 20
11.0
 30
0.0
 11
156.0
 21
22.0
 31
0.0
  0
LINE
  5
E78
  8
250
 10
165.0
 20
11.0
 30
0.0
 11
165.0
 21
22.0
 31
0.0
  0
LINE
  5
E79
  8
250
 10
158.22999999999999
 20
21.0
 30
0.0
 11
162.77000000000001
 21
21.0
 31
0.0
  0
LINE
  5
E7E
  8
250
 10
165.5
 20
10.5
 30
0.0
 11
179.0
 21
10.5
 31
0.0
  0
LINE
  5
E7F
  8
250
 10
178.0
 20
-8.2699999999999978
 30
0.0
 11
178.0
 21
8.2699999999999978
 31
0.0
  0
LINE
  5
E83
  8
250
 10
12.24707276992102
 20
-11.9312366503937
 30
0.0
 11
7.5787339400000002
 21
-20.017036690000001
 31
0.0
1001
ACAD
1000
DSTYLE
1002
{
1070
     6
1000
OPEN
1070
   343
1005
594
1002
}
  0
LINE
  5
E84
  8
250
 10
11.92519999485541
 20
-11.745403317047201
 30
0.0
 11
13.362072769999999
 21
-10.0
 31
0.0
  0
LINE
  5
E85
  8
250
 10
12.56894554498664
 20
-12.117069983740199
 30
0.0
 11
13.362072769999999
 21
-10.0
 31
0.0
  0
LINE
  5
E86
  8
250
 10
13.362072769999999
 20
-10.0
 30
0.0
 11
12.24707276992102
 21
-11.9312366503937
 31
0.0
  0
TEXT
  5
E87
  8
250
 10
-12.0
 20
-3.7999999999999989
 30
0.0
 40
2.799999999999998
  1
\U+2205
 50
90.0
1001
ACAD
1000
MTEXTBEGIN
1070
    73
1070
     1
1070
    44
1040
1.0
1070
    74
1070
     0
1000
MTEXTEND
  0
TEXT
  5
E88
  8
250
 10
-12.0
 20
-1.2666666666666671
 30
0.0
 40
2.799999999999998
  1
20
 50
90.0
1001
ACAD
1000
MTEXTBEGIN
1070
    73
1070
     1
1070
    44
1040
1.0
1070
    74
1070
     0
1000
MTEXTEND
  0
LINE
  5
E89
  8
250
 10
-11.371666666666661
 20
7.7699999999999978
 30
0.0
 11
-11.0
 21
10.0
 31
0.0
  0
LINE
  5
E8A
  8
250
 10
-10.62833333333333
 20
7.7699999999999978
 30
0.0
 11
-11.0
 21
10.0
 31
0.0
  0
LINE
  5
E8B
  8
250
 10
-11.0
 20
10.0
 30
0.0
 11
-11.0
 21
7.7699999999999978
 31
0.0
  0
LINE
  5
E8C
  8
250
 10
-10.62833333333333
 20
-7.7699999999999978
 30
0.0
 11
-11.0
 21
-10.0
 31
0.0
  0
LINE
  5
E8D
  8
250
 10
-11.371666666666661
 20
-7.7699999999999978
 30
0.0
 11
-11.0
 21
-10.0
 31
0.0
  0
LINE
  5
E8E
  8
250
 10
-11.0
 20
-10.0
 30
0.0
 11
-11.0
 21
-7.7699999999999978
 31
0.0
  0
TEXT
  5
E8F
  8
250
 10
78.299999999999983
 20
36.0
 30
0.0
 40
2.799999999999998
  1
165
1001
ACAD
1000
MTEXTBEGIN
1070
    73
1070
     1
1070
    44
1040
1.0
1070
    74
1070
     0
1000
MTEXTEND
  0
LINE
  5
E90
  8
250
 10
162.77000000000001
 20
35.37166666666667
 30
0.0
 11
165.0
 21
35.0
 31
0.0
  0
LINE
  5
E91
  8
250
 10
162.77000000000001
 20
34.62833333333333
 30
0.0
 11
165.0
 21
35.0
 31
0.0
  0
LINE
  5
E92
  8
250
 10
165.0
 20
35.0
 30
0.0
 11
162.77000000000001
 21
35.0
 31
0.0
  0
LINE
  5
E93
  8
250
 10
2.2299999999999991
 20
34.62833333333333
 30
0.0
 11
0.0
 21
35.0
 31
0.0
  0
LINE
  5
E94
  8
250
 10
2.2299999999999991
 20
35.37166666666667
 30
0.0
 11
0.0
 21
35.0
 31
0.0
  0
LINE
  5
E95
  8
250
 10
0.0
 20
35.0
 30
0.0
 11
2.2299999999999991
 21
35.0
 31
0.0
  0
TEXT
  5
E96
  8
250
 10
147.33333333333329
 20
29.0
 30
0.0
 40
2.799999999999998
  1
30
1001
ACAD
1000
MTEXTBEGIN
1070
    73
1070
     1
1070
    44
1040
1.0
1070
    74
1070
     0
1000
MTEXTEND
  0
LINE
  5
E97
  8
250
 10
162.77000000000001
 20
28.371666666666659
 30
0.0
 11
165.0
 21
28.0
 31
0.0
  0
LINE
  5
E98
  8
250
 10
162.77000000000001
 20
27.62833333333333
 30
0.0
 11
165.0
 21
28.0
 31
0.0
  0
LINE
  5
E99
  8
250
 10
165.0
 20
28.0
 30
0.0
 11
162.77000000000001
 21
28.0
 31
0.0
  0
LINE
  5
E9A
  8
250
 10
137.22999999999999
 20
27.62833333333333
 30
0.0
 11
135.0
 21
28.0
 31
0.0
  0
LINE
  5
E9B
  8
250
 10
137.22999999999999
 20
28.371666666666659
 30
0.0
 11
135.0
 21
28.0
 31
0.0
  0
LINE
  5
E9C
  8
250
 10
135.0
 20
28.0
 30
0.0
 11
137.22999999999999
 21
28.0
 31
0.0
  0
TEXT
  5
E9D
  8
250
 10
159.23333333333329
 20
22.0
 30
0.0
 40
2.799999999999998
  1
9
1001
ACAD
1000
MTEXTBEGIN
1070
    73
1070
     1
1070
    44
1040
1.0
1070
    74
1070
     0
1000
MTEXTEND
1000
MTEXTBEGIN
1070
    73
1070
     1
1070
    44
1040
1.0
1070
    74
1070
     0
1000
MTEXTEND
  0
LINE
  5
E9E
  8
250
 10
162.77000000000001
 20
21.37166666666667
 30
0.0
 11
165.0
 21
21.0
 31
0.0
  0
LINE
  5
E9F
  8
250
 10
162.77000000000001
 20
20.62833333333333
 30
0.0
 11
165.0
 21
21.0
 31
0.0
  0
LINE
  5
EA0
  8
250
 10
165.0
 20
21.0
 30
0.0
 11
162.77000000000001
 21
21.0
 31
0.0
  0
LINE
  5
EA1
  8
250
 10
158.22999999999999
 20
20.62833333333333
 30
0.0
 11
156.0
 21
21.0
 31
0.0
  0
LINE
  5
EA2
  8
250
 10
158.22999999999999
 20
21.37166666666667
 30
0.0
 11
156.0
 21
21.0
 31
0.0
  0
LINE
  5
EA3
  8
250
 10
156.0
 20
21.0
 30
0.0
 11
158.22999999999999
 21
21.0
 31
0.0
  0
TEXT
  5
EA4
  8
250
 10
177.0
 20
-3.399999999999999
 30
0.0
 40
2.799999999999998
  1
\U+2205
 50
90.0
1001
ACAD
1000
MTEXTBEGIN
1070
    73
1070
     1
1070
    44
1040
1.0
1070
    74
1070
     0
1000
MTEXTEND
1000
MTEXTBEGIN
1070
    73
1070
     1
1070
    44
1040
1.0
1070
    74
1070
     0
1000
MTEXTEND
  0
TEXT
  5
EA5
  8
250
 10
177.0
 20
-0.8666666666666667
 30
0.0
 40
2.799999999999998
  1
21
 50
90.0
1001
ACAD
1000
MTEXTBEGIN
1070
    73
1070
     1
1070
    44
1040
1.0
1070
    74
1070
     0
1000
MTEXTEND
1000
MTEXTBEGIN
1070
    73
1070
     1
1070
    44
1040
1.0
1070
    74
1070
     0
1000
MTEXTEND
  0
LINE
  5
EA6
  8
250
 10
177.6283333333333
 20
8.2699999999999978
 30
0.0
 11
178.0
 21
10.5
 31
0.0
  0
LINE
  5
EA7
  8
250
 10
178.3716666666667
 20
8.2699999999999978
 30
0.0
 11
178.0
 21
10.5
 31
0.0
  0
LINE
  5
EA8
  8
250
 10
178.0
 20
10.5
 30
0.0
 11
178.0
 21
8.2699999999999978
 31
0.0
  0
LINE
  5
1061
  8
240
 10
154.1910527242016
 20
-10.5
 30
0.0
 11
165.0
 21
-10.5
 31
0.0
1001
GRPNAME
1000
PASTMD03
  0
LINE
  5
1062
  8
240
 10
164.5
 20
-4.0000000000000098
 30
0.0
 11
164.65094727579819
 21
-4.0000000000000089
 31
0.0
1001
GRPNAME
1000
PASTMD03
  0
LINE
  5
1063
  8
240
 10
164.65094727579819
 20
-4.0000000000000089
 30
0.0
 11
164.65094727579819
 21
-8.2940151619277032
 31
0.0
1001
GRPNAME
1000
PASTMD03
  0
LINE
  5
1064
  8
240
 10
164.65094727579819
 20
-8.2940151619277032
 30
0.0
 11
165.0
 21
-8.7100000000000097
 31
0.0
1001
GRPNAME
1000
PASTMD03
  0
LINE
  5
1065
  8
240
 10
165.0
 20
-8.7100000000000097
 30
0.0
 11
165.0
 21
-10.5
 31
0.0
1001
GRPNAME
1000
PASTMD03
  0
LINE
  5
1066
  8
240
 10
154.1910527242016
 20
-9.9000000000000004
 30
0.0
 11
154.1910527242016
 21
-10.5
 31
0.0
  0
LINE
  5
1067
  8
250
 10
165.5
 20
-10.5
 30
0.0
 11
179.0
 21
-10.5
 31
0.0
  0
LINE
  5
1068
  8
250
 10
177.6283333333333
 20
-8.2699999999999978
 30
0.0
 11
178.0
 21
-10.5
 31
0.0
  0
LINE
  5
1069
  8
250
 10
178.3716666666667
 20
-8.2699999999999978
 30
0.0
 11
178.0
 21
-10.5
 31
0.0
  0
LINE
  5
106A
  8
250
 10
178.0
 20
-10.5
 30
0.0
 11
178.0
 21
-8.2699999999999978
 31
0.0
  0
LINE
  5
106B
  8
241
 10
154.45050452000009
 20
-9.9000000000000004
 30
0.0
 11
154.45050452000009
 21
6.0594932508514638
 31
0.0
  0
LINE
  5
106E
  8
241
 10
154.1910527242016
 20
-9.9000000000000004
 30
0.0
 11
154.45050452000009
 21
-9.9000000000000004
 31
0.0
  0
LINE
  5
106F
  8
241
 10
164.5
 20
-9.4603878356052995
 30
0.0
 11
164.5
 21
-4.0000000000000098
 31
0.0
  0
VIEWPORT
  5
22
 67
     1
  8
0
 10
261.51769911999997
 20
148.5
 30
0.0
 40
523.03539823000006
 41
297.0
 68
     1
 69
     1
1001
ACAD
1000
MVIEW
1002
{
1070
    16
1010
0.0
1020
0.0
1030
0.0
1010
0.0
1020
0.0
1030
1.0
1040
0.0
1040
297.0
1040
261.51769911999997
1040
148.5
1040
50.0
1040
0.0
1040
0.0
1070
     0
1070
   100
1070
     1
1070
     1
1070
     0
1070
     0
1070
     0
1070
     0
1040
0.0
1040
0.0
1040
0.0
1040
1.0
1040
1.0
1040
10.0
1040
10.0
1070
     0
1002
{
1002
}
1002
}
1001
GENIUS_GENOBJ-N-SDF_13
1002
{
1000
OWNER
1000
GEN
1002
}
1001
GENIUS_GENODEF_13
1002
{
1000
HIER
1070
     0
1002
}
1002
{
1000
MANEDIT
1070
     0
1002
}
1002
{
1000
NOSEL
1070
     0
1002
}
1002
{
1000
BEHIND
1070
     0
1002
}
1002
{
1000
OTHER
1070
     0
1002
}
1002
{
1000
REACTOR
1002
}
1001
GENIUS_GENSCREG_15
1000
PF
1040
1.0
1000
DF
1040
1.0
1000
MIN
1011
0.0000000049999471
1021
-1048576.00050354
1031
0.0
1021
0.0
1031
0.0
1000
MAX
1011
523.035398235
1021
-1048576.00050354
1031
0.0
1021
297.0
1031
0.0
1000
FLAGS
1070
     2
  0
ENDSEC
  0
EOF
