  0
SECTION
  2
HEADER
  9
$ACADVER
  1
AC1009
  9
$INSBASE
 10
0.0
 20
0.0
 30
0.0
  9
$EXTMIN
 10
-3.150847844432632
 20
-21.159710159999999
 30
0.0
  9
$EXTMAX
 10
134.0
 20
54.000000000000021
 30
0.0
  9
$LIMMIN
 10
0.0
 20
0.0
  9
$LIMMAX
 10
297.0
 20
210.0
  9
$ORTHOMODE
 70
     1
  9
$REGENMODE
 70
     1
  9
$FILLMODE
 70
     1
  9
$QTEXTMODE
 70
     0
  9
$MIRRTEXT
 70
     1
  9
$DRAGMODE
 70
     2
  9
$LTSCALE
 40
10.0
  9
$OSMODE
 70
  3071
  9
$ATTMODE
 70
     1
  9
$TEXTSIZE
 40
4.0
  9
$TRACEWID
 40
1.0
  9
$TEXTSTYLE
  7
YOKO
  9
$CLAYER
  8
240
  9
$CELTYPE
  6
BYLAYER
  9
$CECOLOR
 62
   256
  9
$DIMSCALE
 40
1.0
  9
$DIMASZ
 40
2.2299999999999991
  9
$DIMEXO
 40
0.5
  9
$DIMDLI
 40
7.0
  9
$DIMRND
 40
0.0
  9
$DIMDLE
 40
0.0
  9
$DIMEXE
 40
1.0
  9
$DIMTP
 40
0.0
  9
$DIMTM
 40
0.01
  9
$DIMTXT
 40
2.7999999999999989
  9
$DIMCEN
 40
0.0
  9
$DIMTSZ
 40
0.0
  9
$DIMTOL
 70
     0
  9
$DIMLIM
 70
     0
  9
$DIMTIH
 70
     0
  9
$DIMTOH
 70
     0
  9
$DIMSE1
 70
     0
  9
$DIMSE2
 70
     0
  9
$DIMTAD
 70
     3
  9
$DIMZIN
 70
     9
  9
$DIMBLK
  1
OPEN
  9
$DIMASO
 70
     1
  9
$DIMSHO
 70
     1
  9
$DIMPOST
  1

  9
$DIMAPOST
  1

  9
$DIMALT
 70
     0
  9
$DIMALTD
 70
     2
  9
$DIMALTF
 40
25.399999999999999
  9
$DIMLFAC
 40
1.0
  9
$DIMTOFL
 70
     1
  9
$DIMTVP
 40
0.0
  9
$DIMTIX
 70
     1
  9
$DIMSOXD
 70
     0
  9
$DIMSAH
 70
     0
  9
$DIMBLK1
  1

  9
$DIMBLK2
  1

  9
$DIMSTYLE
  2
BIGT
  9
$DIMCLRD
 70
   256
  9
$DIMCLRE
 70
   256
  9
$DIMCLRT
 70
    40
  9
$DIMTFAC
 40
1.0
  9
$DIMGAP
 40
1.0
  9
$LUNITS
 70
     2
  9
$LUPREC
 70
     6
  9
$SKETCHINC
 40
1.0
  9
$FILLETRAD
 40
0.6
  9
$AUNITS
 70
     0
  9
$AUPREC
 70
     6
  9
$MENU
  1
.
  9
$ELEVATION
 40
0.0
  9
$PELEVATION
 40
0.0
  9
$THICKNESS
 40
0.0
  9
$LIMCHECK
 70
     0
  9
$BLIPMODE
 70
     0
  9
$CHAMFERA
 40
0.2
  9
$CHAMFERB
 40
0.2
  9
$SKPOLY
 70
     0
  9
$TDCREATE
 40
2457779.408679815
  9
$TDUPDATE
 40
2457779.4389714929
  9
$TDINDWG
 40
0.0300171875
  9
$TDUSRTIMER
 40
0.0300171644
  9
$USRTIMER
 70
     1
  9
$ANGBASE
 50
0.0
  9
$ANGDIR
 70
     0
  9
$PDMODE
 70
     1
  9
$PDSIZE
 40
0.0
  9
$PLINEWID
 40
0.0
  9
$COORDS
 70
     1
  9
$SPLFRAME
 70
     0
  9
$SPLINETYPE
 70
     6
  9
$SPLINESEGS
 70
     4
  9
$ATTDIA
 70
     1
  9
$ATTREQ
 70
     1
  9
$HANDLING
 70
     1
  9
$HANDSEED
  5
4C91
  9
$SURFTAB1
 70
     6
  9
$SURFTAB2
 70
     6
  9
$SURFTYPE
 70
     6
  9
$SURFU
 70
     6
  9
$SURFV
 70
     6
  9
$UCSNAME
  2

  9
$UCSORG
 10
0.0
 20
0.0
 30
0.0
  9
$UCSXDIR
 10
1.0
 20
0.0
 30
0.0
  9
$UCSYDIR
 10
0.0
 20
1.0
 30
0.0
  9
$PUCSNAME
  2

  9
$PUCSORG
 10
0.0
 20
0.0
 30
0.0
  9
$PUCSXDIR
 10
1.0
 20
0.0
 30
0.0
  9
$PUCSYDIR
 10
0.0
 20
1.0
 30
0.0
  9
$USERI1
 70
     1
  9
$USERI2
 70
     0
  9
$USERI3
 70
     0
  9
$USERI4
 70
     0
  9
$USERI5
 70
     0
  9
$USERR1
 40
0.0
  9
$USERR2
 40
0.0
  9
$USERR3
 40
0.0
  9
$USERR4
 40
0.0
  9
$USERR5
 40
0.0
  9
$WORLDVIEW
 70
     1
  9
$SHADEDGE
 70
     3
  9
$SHADEDIF
 70
    70
  9
$TILEMODE
 70
     1
  9
$MAXACTVP
 70
    16
  9
$PLIMCHECK
 70
     0
  9
$PEXTMIN
 10
1.0000000000000000E+020
 20
1.0000000000000000E+020
 30
1.0000000000000000E+020
  9
$PEXTMAX
 10
-1.0000000000000000E+020
 20
-1.0000000000000000E+020
 30
-1.0000000000000000E+020
  9
$PLIMMIN
 10
0.0
 20
0.0
  9
$PLIMMAX
 10
420.0
 20
297.0
  9
$UNITMODE
 70
     0
  9
$VISRETAIN
 70
     1
  9
$PLINEGEN
 70
     0
  9
$PSLTSCALE
 70
     1
  0
ENDSEC
  0
SECTION
  2
TABLES
  0
TABLE
  2
VPORT
 70
     1
  0
VPORT
  2
*ACTIVE
 70
     0
 10
0.0
 20
0.0
 11
1.0
 21
1.0
 12
77.654522982132349
 22
7.7669331328516904
 13
0.0
 23
0.0
 14
7.0
 24
7.0
 15
7.0
 25
7.0
 16
0.0
 26
0.0
 36
1.0
 17
0.0
 27
0.0
 37
0.0
 40
139.77571596135181
 41
1.529542920847268
 42
50.0
 43
0.0
 44
0.0
 50
0.0
 51
0.0
 71
     0
 72
  2000
 73
     1
 74
     0
 75
     0
 76
     1
 77
     0
 78
     0
  0
ENDTAB
  0
TABLE
  2
LTYPE
 70
    18
  0
LTYPE
  2
CONTINUOUS
 70
     0
  3
Solid line
 72
    65
 73
     0
 40
0.0
  0
LTYPE
  2
CENTER2
 70
     0
  3
___ _ ___ _ ___ _ ___ _ ___ _ ___ _ ___ _ ___ _
 72
    65
 73
     4
 40
1.125
 49
0.75
 49
-0.125
 49
0.125
 49
-0.125
  0
LTYPE
  2
PHANTOM2
 70
     0
  3
___ _ _ ___ _ _ ___ _ _ ___ _ _ ___ _ _ ___ _ _
 72
    65
 73
     6
 40
1.25
 49
0.625
 49
-0.125
 49
0.125
 49
-0.125
 49
0.125
 49
-0.125
  0
LTYPE
  2
AM_ISO02W050
 70
     0
  3
__ __ __ __ __ __ __ __ __ __ __ __ __ __ __
 72
    65
 73
     2
 40
7.5
 49
6.0
 49
-1.5
  0
LTYPE
  2
AMCONSTR
 70
     0
  3
_______________________
 72
    65
 73
     2
 40
9999.0
 49
9999.0
 49
0.0
  0
LTYPE
  2
ACISOWELD
 70
     0
  3
_ _ _ _ _
 72
    65
 73
     2
 40
2.0
 49
2.0
 49
-1.0
  0
LTYPE
  2
ACISOTGB
 70
     0
  3
__ . . __ . .
 72
    65
 73
     6
 40
9.0
 49
4.0
 49
-1.0
 49
1.0
 49
-1.0
 49
1.0
 49
-1.0
  0
LTYPE
  2
ACISOTGL
 70
     0
  3
_ _ _ _ _
 72
    65
 73
     2
 40
3.0
 49
2.0
 49
-1.0
  0
LTYPE
  2
AM_ISO08W050
 70
     0
  3
____ . ____ . ____ . ____ . ____ . ____ . ____
 72
    65
 73
     4
 40
18.0
 49
12.0
 49
-1.5
 49
3.0
 49
-1.5
  0
LTYPE
  2
AM_ISO09W050
 70
     0
  3
_____ . . _____ . . _____ . . ____ .. ____
 72
    65
 73
     6
 40
22.5
 49
12.0
 49
-1.5
 49
3.0
 49
-1.5
 49
3.0
 49
-1.5
  0
LTYPE
  2
AM_ISO08W050X2
 70
     0
  3
__ . __ . __ . __ . __ . __
 72
    65
 73
     4
 40
9.0
 49
6.0
 49
-0.75
 49
1.5
 49
-0.75
  0
LTYPE
  2
AM_ISO02W050X2
 70
     0
  3
 _ _ _ _ _ _ _ _ _ _ _ _
 72
    65
 73
     2
 40
3.75
 49
3.0
 49
-0.75
  0
LTYPE
  2
AMZIGZAG
 70
     0
  3
/\/-/\/-/\/-/\/-/\/-/\/
 72
    65
 73
     2
 40
11.0001
 49
0.0001
 49
-11.0
  0
ENDTAB
  0
TABLE
  2
LAYER
 70
     8
  0
LAYER
  2
0
 70
     0
 62
     7
  6
CONTINUOUS
  0
LAYER
  2
DEFPOINTS
 70
     0
 62
     7
  6
CONTINUOUS
  0
LAYER
  2
245
 70
     0
 62
     2
  6
CENTER2
  0
LAYER
  2
240
 70
     0
 62
     4
  6
CONTINUOUS
  0
LAYER
  2
241
 70
     0
 62
   211
  6
CONTINUOUS
  0
LAYER
  2
246
 70
     0
 62
     3
  6
PHANTOM2
  0
LAYER
  2
247
 70
     0
 62
    60
  6
CONTINUOUS
  0
LAYER
  2
250
 70
     0
 62
     3
  6
CONTINUOUS
  0
ENDTAB
  0
TABLE
  2
STYLE
 70
     7
  0
STYLE
  2
STANDARD
 70
     0
 40
0.0
 41
1.0
 50
0.0
 71
     0
 42
3.0
  3
romans.shx
  4
extfont.shx
  0
STYLE
  2
ACISOGDT
 70
     0
 40
0.0
 41
1.0
 50
0.0
 71
     0
 42
3.0
  3
amgdt.shx
  4
extfont.shx
  0
STYLE
  2
YOKO
 70
     0
 40
0.0
 41
1.0
 50
0.0
 71
     0
 42
4.0
  3
romans.shx
  4
extfont.shx
  0
STYLE
  2

 70
     1
 40
0.0
 41
1.0
 50
0.0
 71
     0
 42
4.0
  3
genltshp.shx
  4

  0
ENDTAB
  0
TABLE
  2
VIEW
 70
     0
  0
ENDTAB
  0
TABLE
  2
UCS
 70
     0
  0
ENDTAB
  0
TABLE
  2
APPID
 70
    40
  0
APPID
  2
ACAD
 70
     0
  0
APPID
  2
GLOBAL
 70
     0
  0
APPID
  2
DETAIL
 70
     0
  0
APPID
  2
GRPNAME
 70
     0
  0
APPID
  2
GPARA
 70
     0
  0
APPID
  2
MCAD_NO_VIS
 70
     0
  0
APPID
  2
ACAD_TEMP_GRAPHIC
 70
     0
  0
APPID
  2
ACATTRIBSERVICES
 70
     0
  0
APPID
  2
GENIUS_GENSCREG_15
 70
     0
  0
APPID
  2
GENIUS_GENODEF_13
 70
     0
  0
APPID
  2
GENIUS_GENOBJ-N-SDF_13
 70
     0
  0
APPID
  2
GENIUS_GENREC_14
 70
     0
  0
APPID
  2
GENIUS_GENOBJ-N-REC_13
 70
     0
  0
APPID
  2
GENIUS_GENDIMSH_14
 70
     0
  0
APPID
  2
GENIUS_GENOBJ-N-DIM_13
 70
     0
  0
APPID
  2
GENIUS_GENDIM_13
 70
     0
  0
APPID
  2
GENIUS_GENDTOL_13
 70
     0
  0
APPID
  2
GENIUS_GENOLIS_13
 70
     0
  0
APPID
  2
GENIUS_GENOENT_13
 70
     0
  0
APPID
  2
GENIUS_GENOBJ-F-FEM_13
 70
     0
  0
APPID
  2
GENIUS_GENOREF_13
 70
     0
  0
APPID
  2
GENIUS_GEFFEM_13
 70
     0
  0
APPID
  2
GENIUS_GEFFEMP_13
 70
     0
  0
APPID
  2
AD_DRAW
 70
     0
  0
APPID
  2
DESIGNERASSEMBLIES
 70
     0
  0
APPID
  2
ACADM_DIM_EDIT
 70
     0
  0
APPID
  2
AMDT_DM_ADJ
 70
     0
  0
APPID
  2
ITEMNAME
 70
     0
  0
APPID
  2
GENIUS_GENOBJ-N-FIL_13
 70
     0
  0
APPID
  2
GENIUS_GENFIL_13
 70
     0
  0
APPID
  2
GENIUS_GENOBJ-N-CHA_13
 70
     0
  0
APPID
  2
ACAECLAYERSTANDARD
 70
     0
  0
APPID
  2
ACAD_NAV_VCDISPLAY
 70
     0
  0
APPID
  2
ACAD_DSTYLE_DIMJAG
 70
     0
  0
APPID
  2
ACAD_DSTYLE_DIMBREAK
 70
     0
  0
APPID
  2
ACAD_DSTYLE_DIMINSPECT
 70
     0
  0
APPID
  2
ACAD_EXEMPT_FROM_CAD_STANDARDS
 70
     0
  0
APPID
  2
ACAD_DSTYLE_DIMANGULAR_EXT
 70
     0
  0
APPID
  2
ACAD_DSTYLE_DIMRADIAL_EXTENSION
 70
     0
  0
APPID
  2
ACAD_MLEADERVER
 70
     0
  0
ENDTAB
  0
TABLE
  2
DIMSTYLE
 70
    23
  0
DIMSTYLE
  2
BIGT
 70
     0
  3

  4

  5
OPEN
  6

  7

 40
1.0
 41
2.2299999999999991
 42
0.5
 43
7.0
 44
1.0
 45
0.0
 46
0.0
 47
0.0
 48
0.01
140
2.7999999999999989
141
0.0
142
0.0
143
25.399999999999999
144
1.0
145
0.0
146
1.0
147
1.0
 71
     0
 72
     0
 73
     0
 74
     0
 75
     0
 76
     0
 77
     3
 78
     9
170
     0
171
     2
172
     1
173
     0
174
     1
175
     0
176
   256
177
   256
178
    40
  0
DIMSTYLE
  2
AM_ISO
 70
     0
  3

  4
"
  5

  6

  7

 40
1.0
 41
2.5
 42
1.0
 43
10.0
 44
1.0
 45
0.0
 46
0.0
 47
0.1
 48
0.1
140
3.5
141
0.0
142
0.0
143
0.0393701
144
1.0
145
0.0
146
0.71
147
1.5
 71
     0
 72
     0
 73
     0
 74
     0
 75
     0
 76
     0
 77
     1
 78
     8
170
     0
171
     2
172
     1
173
     0
174
     0
175
     0
176
   256
177
   256
178
     2
  0
DIMSTYLE
  2
AM_ISO$3
 70
     0
  3

  4
"
  5

  6

  7

 40
1.0
 41
2.5
 42
1.0
 43
10.0
 44
1.0
 45
0.0
 46
0.0
 47
0.1
 48
0.1
140
3.5
141
0.0
142
0.0
143
0.0393701
144
1.0
145
0.0
146
0.71
147
1.5
 71
     0
 72
     0
 73
     0
 74
     1
 75
     0
 76
     0
 77
     1
 78
     8
170
     0
171
     2
172
     0
173
     0
174
     0
175
     0
176
   256
177
   256
178
     2
  0
DIMSTYLE
  2
AM_ISO$4
 70
     0
  3

  4
"
  5

  6

  7

 40
1.0
 41
2.5
 42
1.0
 43
10.0
 44
1.0
 45
0.0
 46
0.0
 47
0.1
 48
0.1
140
3.5
141
0.0
142
0.0
143
0.0393701
144
1.0
145
0.0
146
0.71
147
1.5
 71
     0
 72
     0
 73
     0
 74
     1
 75
     0
 76
     0
 77
     1
 78
     8
170
     0
171
     2
172
     0
173
     0
174
     0
175
     0
176
   256
177
   256
178
     2
  0
DIMSTYLE
  2
AM_ISO$6
 70
     0
  3

  4
"
  5

  6

  7

 40
1.0
 41
2.5
 42
1.0
 43
10.0
 44
1.0
 45
0.0
 46
0.0
 47
0.1
 48
0.1
140
3.5
141
0.0
142
0.0
143
0.0393701
144
1.0
145
0.0
146
0.71
147
1.5
 71
     0
 72
     0
 73
     0
 74
     0
 75
     0
 76
     0
 77
     0
 78
     8
170
     0
171
     2
172
     1
173
     0
174
     0
175
     0
176
   256
177
   256
178
     2
  0
DIMSTYLE
  2
AM_ISO$7
 70
     0
  3

  4
"
  5

  6

  7

 40
1.0
 41
2.5
 42
1.0
 43
10.0
 44
1.0
 45
0.0
 46
0.0
 47
0.1
 48
0.1
140
5.0
141
0.0
142
0.0
143
0.0393701
144
1.0
145
0.0
146
0.71
147
1.5
 71
     0
 72
     0
 73
     0
 74
     0
 75
     0
 76
     0
 77
     1
 78
     8
170
     0
171
     2
172
     1
173
     0
174
     0
175
     0
176
   256
177
   256
178
     2
  0
DIMSTYLE
  2
AM_ISO$SF
 70
     0
  3

  4
"
  5

  6

  7

 40
1.0
 41
2.5
 42
1.0
 43
10.0
 44
1.0
 45
0.0
 46
0.0
 47
0.1
 48
0.1
140
3.5
141
0.0
142
0.0
143
0.0393701
144
1.0
145
0.0
146
0.71
147
1.5
 71
     0
 72
     0
 73
     0
 74
     0
 75
     1
 76
     1
 77
     1
 78
     8
170
     0
171
     2
172
     1
173
     0
174
     0
175
     0
176
   256
177
   256
178
     2
  0
DIMSTYLE
  2
AM_ISO$SH
 70
     0
  3

  4
"
  5

  6
GENAXEH
  7

 40
1.0
 41
2.5
 42
1.0
 43
10.0
 44
1.0
 45
0.0
 46
0.0
 47
0.1
 48
0.1
140
3.5
141
0.0
142
0.0
143
0.0393701
144
2.0
145
0.0
146
0.71
147
1.5
 71
     0
 72
     0
 73
     0
 74
     0
 75
     1
 76
     1
 77
     1
 78
     8
170
     0
171
     2
172
     1
173
     1
174
     0
175
     0
176
   256
177
   256
178
     2
  0
ENDTAB
  0
ENDSEC
  0
SECTION
  2
BLOCKS
  0
BLOCK
  8
0
  2
$MODEL_SPACE
 70
     0
 10
0.0
 20
0.0
 30
0.0
  3
$MODEL_SPACE
  1

  0
ENDBLK
  5
1C
  8
0
  0
BLOCK
 67
     1
  8
0
  2
$PAPER_SPACE
 70
     0
 10
0.0
 20
0.0
 30
0.0
  3
$PAPER_SPACE
  1

  0
ENDBLK
  5
19
 67
     1
  8
0
  0
BLOCK
  8
0
  2
_OPEN
 70
     0
 10
0.0
 20
0.0
 30
0.0
  3
_OPEN
  1

  0
LINE
  5
3E1A
  8
0
  6
BYBLOCK
 62
     0
 10
-1.0
 20
0.1666666666666666
 30
0.0
 11
0.0
 21
0.0
 31
0.0
  0
LINE
  5
3E1B
  8
0
  6
BYBLOCK
 62
     0
 10
-1.0
 20
-0.1666666666666666
 30
0.0
 11
0.0
 21
0.0
 31
0.0
  0
LINE
  5
3E1C
  8
0
  6
BYBLOCK
 62
     0
 10
0.0
 20
0.0
 30
0.0
 11
-1.0
 21
0.0
 31
0.0
  0
ENDBLK
  5
3E1D
  8
0
  0
BLOCK
  8
0
  2
GENAXEH
 70
     0
 10
0.0
 20
0.0
 30
0.0
  3
GENAXEH
  1

  0
LINE
  5
3E45
  8
0
 10
-1.0
 20
0.0
 30
0.0
 11
1.0
 21
0.0
 31
0.0
  0
ENDBLK
  5
3E46
  8
0
  0
BLOCK
  8
0
  2
*U5
 70
     1
 10
0.0
 20
0.0
 30
0.0
  3
*U5
  1

  0
TEXT
  5
4944
  8
250
 10
98.251001116876409
 20
20.455116555823292
 30
0.0
 40
2.7999999999999989
  1
45\U+00B0
 50
22.500000000000011
  0
ENDBLK
  5
4946
  8
0
  0
ENDSEC
  0
SECTION
  2
ENTITIES
  0
LINE
  5
42CE
  8
240
  6
CONTINUOUS
 10
83.000000000000014
 20
-10.699999999999999
 30
0.0
 11
99.100000000000037
 21
-10.699999999999999
 31
0.0
  0
LINE
  5
42CF
  8
240
  6
CONTINUOUS
 10
97.895753826885482
 20
10.69999999999999
 30
0.0
 11
83.0
 21
10.69999999999999
 31
0.0
  0
LINE
  5
42D2
  8
240
  6
CONTINUOUS
 10
83.0
 20
10.69999999999999
 30
0.0
 11
82.0
 21
9.6999999999999904
 31
0.0
  0
LINE
  5
42D3
  8
240
  6
CONTINUOUS
 10
82.0
 20
-9.6999999999999869
 30
0.0
 11
83.000000000000014
 21
-10.699999999999999
 31
0.0
  0
LINE
  5
42D4
  8
240
  6
CONTINUOUS
 10
0.0000000000000065
 20
-9.9999999999999911
 30
0.0
 11
79.700000000000017
 21
-9.9999999999999982
 31
0.0
  0
LINE
  5
42D5
  8
240
  6
CONTINUOUS
 10
79.700000000000017
 20
9.9999999999999876
 30
0.0
 11
0.0000000000000077
 21
9.9999999999999911
 31
0.0
  0
LINE
  5
42D6
  8
240
  6
CONTINUOUS
 10
79.700000000000017
 20
-9.9999999999999982
 30
0.0
 11
80.0
 21
-9.6999999999999869
 31
0.0
  0
LINE
  5
42D7
  8
240
  6
CONTINUOUS
 10
80.0
 20
9.6999999999999904
 30
0.0
 11
79.700000000000017
 21
9.9999999999999876
 31
0.0
  0
LINE
  5
42DA
  8
240
  6
CONTINUOUS
 10
82.0
 20
9.6999999999999904
 30
0.0
 11
80.0
 21
9.6999999999999904
 31
0.0
  0
LINE
  5
42DB
  8
240
  6
CONTINUOUS
 10
80.0
 20
-9.6999999999999869
 30
0.0
 11
82.0
 21
-9.6999999999999869
 31
0.0
  0
LINE
  5
42DC
  8
240
  6
CONTINUOUS
 10
99.100000000000037
 20
-10.699999999999999
 30
0.0
 11
108.8
 21
-1.000000000000014
 31
0.0
  0
POLYLINE
  5
4333
  8
241
  6
CONTINUOUS
 10
88.603847577293308
 20
8.4219950130595045
 30
0.0
 66
     1
 70
     8
  0
VERTEX
  8
241
  5
494B
 10
88.6038
 20
8.42200
 30
0.000000
  70
    32
  0
VERTEX
  8
241
  5
494C
 10
88.5354
 20
8.32771
 30
0.000000
  70
    32
  0
VERTEX
  8
241
  5
494D
 10
88.4677
 20
8.23176
 30
0.000000
  70
    32
  0
VERTEX
  8
241
  5
494E
 10
88.4008
 20
8.13416
 30
0.000000
  70
    32
  0
VERTEX
  8
241
  5
494F
 10
88.3347
 20
8.03493
 30
0.000000
  70
    32
  0
VERTEX
  8
241
  5
4950
 10
88.2695
 20
7.93409
 30
0.000000
  70
    32
  0
VERTEX
  8
241
  5
4951
 10
88.2050
 20
7.83165
 30
0.000000
  70
    32
  0
VERTEX
  8
241
  5
4952
 10
88.1414
 20
7.72765
 30
0.000000
  70
    32
  0
VERTEX
  8
241
  5
4953
 10
88.0787
 20
7.62210
 30
0.000000
  70
    32
  0
VERTEX
  8
241
  5
4954
 10
88.0168
 20
7.51502
 30
0.000000
  70
    32
  0
VERTEX
  8
241
  5
4955
 10
87.9559
 20
7.40644
 30
0.000000
  70
    32
  0
VERTEX
  8
241
  5
4956
 10
87.8958
 20
7.29637
 30
0.000000
  70
    32
  0
VERTEX
  8
241
  5
4957
 10
87.8366
 20
7.18483
 30
0.000000
  70
    32
  0
VERTEX
  8
241
  5
4958
 10
87.7783
 20
7.07186
 30
0.000000
  70
    32
  0
VERTEX
  8
241
  5
4959
 10
87.7210
 20
6.95747
 30
0.000000
  70
    32
  0
VERTEX
  8
241
  5
495A
 10
87.6646
 20
6.84169
 30
0.000000
  70
    32
  0
VERTEX
  8
241
  5
495B
 10
87.6091
 20
6.72453
 30
0.000000
  70
    32
  0
VERTEX
  8
241
  5
495C
 10
87.5546
 20
6.60603
 30
0.000000
  70
    32
  0
VERTEX
  8
241
  5
495D
 10
87.5011
 20
6.48620
 30
0.000000
  70
    32
  0
VERTEX
  8
241
  5
495E
 10
87.4486
 20
6.36507
 30
0.000000
  70
    32
  0
VERTEX
  8
241
  5
495F
 10
87.3971
 20
6.24267
 30
0.000000
  70
    32
  0
VERTEX
  8
241
  5
4960
 10
87.3466
 20
6.11901
 30
0.000000
  70
    32
  0
VERTEX
  8
241
  5
4961
 10
87.2971
 20
5.99413
 30
0.000000
  70
    32
  0
VERTEX
  8
241
  5
4962
 10
87.2486
 20
5.86805
 30
0.000000
  70
    32
  0
VERTEX
  8
241
  5
4963
 10
87.2011
 20
5.74079
 30
0.000000
  70
    32
  0
VERTEX
  8
241
  5
4964
 10
87.1547
 20
5.61238
 30
0.000000
  70
    32
  0
VERTEX
  8
241
  5
4965
 10
87.1094
 20
5.48284
 30
0.000000
  70
    32
  0
VERTEX
  8
241
  5
4966
 10
87.0651
 20
5.35221
 30
0.000000
  70
    32
  0
VERTEX
  8
241
  5
4967
 10
87.0219
 20
5.22050
 30
0.000000
  70
    32
  0
VERTEX
  8
241
  5
4968
 10
86.9798
 20
5.08775
 30
0.000000
  70
    32
  0
VERTEX
  8
241
  5
4969
 10
86.9387
 20
4.95398
 30
0.000000
  70
    32
  0
VERTEX
  8
241
  5
496A
 10
86.8988
 20
4.81921
 30
0.000000
  70
    32
  0
VERTEX
  8
241
  5
496B
 10
86.8599
 20
4.68348
 30
0.000000
  70
    32
  0
VERTEX
  8
241
  5
496C
 10
86.8222
 20
4.54681
 30
0.000000
  70
    32
  0
VERTEX
  8
241
  5
496D
 10
86.7856
 20
4.40923
 30
0.000000
  70
    32
  0
VERTEX
  8
241
  5
496E
 10
86.7501
 20
4.27076
 30
0.000000
  70
    32
  0
VERTEX
  8
241
  5
496F
 10
86.7158
 20
4.13144
 30
0.000000
  70
    32
  0
VERTEX
  8
241
  5
4970
 10
86.6826
 20
3.99129
 30
0.000000
  70
    32
  0
VERTEX
  8
241
  5
4971
 10
86.6505
 20
3.85034
 30
0.000000
  70
    32
  0
VERTEX
  8
241
  5
4972
 10
86.6196
 20
3.70862
 30
0.000000
  70
    32
  0
VERTEX
  8
241
  5
4973
 10
86.5899
 20
3.56616
 30
0.000000
  70
    32
  0
VERTEX
  8
241
  5
4974
 10
86.5613
 20
3.42298
 30
0.000000
  70
    32
  0
VERTEX
  8
241
  5
4975
 10
86.5340
 20
3.27911
 30
0.000000
  70
    32
  0
VERTEX
  8
241
  5
4976
 10
86.5077
 20
3.13459
 30
0.000000
  70
    32
  0
VERTEX
  8
241
  5
4977
 10
86.4827
 20
2.98944
 30
0.000000
  70
    32
  0
VERTEX
  8
241
  5
4978
 10
86.4589
 20
2.84369
 30
0.000000
  70
    32
  0
VERTEX
  8
241
  5
4979
 10
86.4362
 20
2.69737
 30
0.000000
  70
    32
  0
VERTEX
  8
241
  5
497A
 10
86.4148
 20
2.55051
 30
0.000000
  70
    32
  0
VERTEX
  8
241
  5
497B
 10
86.3945
 20
2.40313
 30
0.000000
  70
    32
  0
VERTEX
  8
241
  5
497C
 10
86.3755
 20
2.25528
 30
0.000000
  70
    32
  0
VERTEX
  8
241
  5
497D
 10
86.3577
 20
2.10697
 30
0.000000
  70
    32
  0
VERTEX
  8
241
  5
497E
 10
86.3410
 20
1.95825
 30
0.000000
  70
    32
  0
VERTEX
  8
241
  5
497F
 10
86.3257
 20
1.80912
 30
0.000000
  70
    32
  0
VERTEX
  8
241
  5
4980
 10
86.3115
 20
1.65964
 30
0.000000
  70
    32
  0
VERTEX
  8
241
  5
4981
 10
86.2985
 20
1.50983
 30
0.000000
  70
    32
  0
VERTEX
  8
241
  5
4982
 10
86.2868
 20
1.35971
 30
0.000000
  70
    32
  0
VERTEX
  8
241
  5
4983
 10
86.2763
 20
1.20932
 30
0.000000
  70
    32
  0
VERTEX
  8
241
  5
4984
 10
86.2670
 20
1.05868
 30
0.000000
  70
    32
  0
VERTEX
  8
241
  5
4985
 10
86.2590
 20
0.907836
 30
0.000000
  70
    32
  0
VERTEX
  8
241
  5
4986
 10
86.2522
 20
0.756808
 30
0.000000
  70
    32
  0
VERTEX
  8
241
  5
4987
 10
86.2466
 20
0.605629
 30
0.000000
  70
    32
  0
VERTEX
  8
241
  5
4988
 10
86.2423
 20
0.454328
 30
0.000000
  70
    32
  0
VERTEX
  8
241
  5
4989
 10
86.2392
 20
0.302936
 30
0.000000
  70
    32
  0
VERTEX
  8
241
  5
498A
 10
86.2373
 20
0.151483
 30
0.000000
  70
    32
  0
VERTEX
  8
241
  5
498B
 10
86.2367
 20
2.45933e-015
 30
0.000000
  70
    32
  0
VERTEX
  8
241
  5
498C
 10
86.2373
 20
-0.151483
 30
0.000000
  70
    32
  0
VERTEX
  8
241
  5
498D
 10
86.2392
 20
-0.302936
 30
0.000000
  70
    32
  0
VERTEX
  8
241
  5
498E
 10
86.2423
 20
-0.454328
 30
0.000000
  70
    32
  0
VERTEX
  8
241
  5
498F
 10
86.2466
 20
-0.605629
 30
0.000000
  70
    32
  0
VERTEX
  8
241
  5
4990
 10
86.2522
 20
-0.756808
 30
0.000000
  70
    32
  0
VERTEX
  8
241
  5
4991
 10
86.2590
 20
-0.907836
 30
0.000000
  70
    32
  0
VERTEX
  8
241
  5
4992
 10
86.2670
 20
-1.05868
 30
0.000000
  70
    32
  0
VERTEX
  8
241
  5
4993
 10
86.2763
 20
-1.20932
 30
0.000000
  70
    32
  0
VERTEX
  8
241
  5
4994
 10
86.2868
 20
-1.35971
 30
0.000000
  70
    32
  0
VERTEX
  8
241
  5
4995
 10
86.2985
 20
-1.50983
 30
0.000000
  70
    32
  0
VERTEX
  8
241
  5
4996
 10
86.3115
 20
-1.65964
 30
0.000000
  70
    32
  0
VERTEX
  8
241
  5
4997
 10
86.3257
 20
-1.80912
 30
0.000000
  70
    32
  0
VERTEX
  8
241
  5
4998
 10
86.3410
 20
-1.95825
 30
0.000000
  70
    32
  0
VERTEX
  8
241
  5
4999
 10
86.3577
 20
-2.10697
 30
0.000000
  70
    32
  0
VERTEX
  8
241
  5
499A
 10
86.3755
 20
-2.25528
 30
0.000000
  70
    32
  0
VERTEX
  8
241
  5
499B
 10
86.3945
 20
-2.40313
 30
0.000000
  70
    32
  0
VERTEX
  8
241
  5
499C
 10
86.4148
 20
-2.55051
 30
0.000000
  70
    32
  0
VERTEX
  8
241
  5
499D
 10
86.4362
 20
-2.69737
 30
0.000000
  70
    32
  0
VERTEX
  8
241
  5
499E
 10
86.4589
 20
-2.84369
 30
0.000000
  70
    32
  0
VERTEX
  8
241
  5
499F
 10
86.4827
 20
-2.98944
 30
0.000000
  70
    32
  0
VERTEX
  8
241
  5
49A0
 10
86.5077
 20
-3.13459
 30
0.000000
  70
    32
  0
VERTEX
  8
241
  5
49A1
 10
86.5340
 20
-3.27911
 30
0.000000
  70
    32
  0
VERTEX
  8
241
  5
49A2
 10
86.5613
 20
-3.42298
 30
0.000000
  70
    32
  0
VERTEX
  8
241
  5
49A3
 10
86.5899
 20
-3.56616
 30
0.000000
  70
    32
  0
VERTEX
  8
241
  5
49A4
 10
86.6196
 20
-3.70862
 30
0.000000
  70
    32
  0
VERTEX
  8
241
  5
49A5
 10
86.6505
 20
-3.85034
 30
0.000000
  70
    32
  0
VERTEX
  8
241
  5
49A6
 10
86.6826
 20
-3.99129
 30
0.000000
  70
    32
  0
VERTEX
  8
241
  5
49A7
 10
86.7158
 20
-4.13144
 30
0.000000
  70
    32
  0
VERTEX
  8
241
  5
49A8
 10
86.7501
 20
-4.27076
 30
0.000000
  70
    32
  0
VERTEX
  8
241
  5
49A9
 10
86.7856
 20
-4.40923
 30
0.000000
  70
    32
  0
VERTEX
  8
241
  5
49AA
 10
86.8222
 20
-4.54681
 30
0.000000
  70
    32
  0
VERTEX
  8
241
  5
49AB
 10
86.8599
 20
-4.68348
 30
0.000000
  70
    32
  0
VERTEX
  8
241
  5
49AC
 10
86.8988
 20
-4.81921
 30
0.000000
  70
    32
  0
VERTEX
  8
241
  5
49AD
 10
86.9387
 20
-4.95398
 30
0.000000
  70
    32
  0
VERTEX
  8
241
  5
49AE
 10
86.9798
 20
-5.08775
 30
0.000000
  70
    32
  0
VERTEX
  8
241
  5
49AF
 10
87.0219
 20
-5.22050
 30
0.000000
  70
    32
  0
VERTEX
  8
241
  5
49B0
 10
87.0651
 20
-5.35221
 30
0.000000
  70
    32
  0
VERTEX
  8
241
  5
49B1
 10
87.1094
 20
-5.48284
 30
0.000000
  70
    32
  0
VERTEX
  8
241
  5
49B2
 10
87.1547
 20
-5.61238
 30
0.000000
  70
    32
  0
VERTEX
  8
241
  5
49B3
 10
87.2011
 20
-5.74079
 30
0.000000
  70
    32
  0
VERTEX
  8
241
  5
49B4
 10
87.2486
 20
-5.86805
 30
0.000000
  70
    32
  0
VERTEX
  8
241
  5
49B5
 10
87.2971
 20
-5.99413
 30
0.000000
  70
    32
  0
VERTEX
  8
241
  5
49B6
 10
87.3466
 20
-6.11901
 30
0.000000
  70
    32
  0
VERTEX
  8
241
  5
49B7
 10
87.3971
 20
-6.24267
 30
0.000000
  70
    32
  0
VERTEX
  8
241
  5
49B8
 10
87.4486
 20
-6.36507
 30
0.000000
  70
    32
  0
VERTEX
  8
241
  5
49B9
 10
87.5011
 20
-6.48620
 30
0.000000
  70
    32
  0
VERTEX
  8
241
  5
49BA
 10
87.5546
 20
-6.60603
 30
0.000000
  70
    32
  0
VERTEX
  8
241
  5
49BB
 10
87.6091
 20
-6.72453
 30
0.000000
  70
    32
  0
VERTEX
  8
241
  5
49BC
 10
87.6646
 20
-6.84169
 30
0.000000
  70
    32
  0
VERTEX
  8
241
  5
49BD
 10
87.7210
 20
-6.95747
 30
0.000000
  70
    32
  0
VERTEX
  8
241
  5
49BE
 10
87.7783
 20
-7.07186
 30
0.000000
  70
    32
  0
VERTEX
  8
241
  5
49BF
 10
87.8366
 20
-7.18483
 30
0.000000
  70
    32
  0
VERTEX
  8
241
  5
49C0
 10
87.8958
 20
-7.29637
 30
0.000000
  70
    32
  0
VERTEX
  8
241
  5
49C1
 10
87.9559
 20
-7.40644
 30
0.000000
  70
    32
  0
VERTEX
  8
241
  5
49C2
 10
88.0168
 20
-7.51502
 30
0.000000
  70
    32
  0
VERTEX
  8
241
  5
49C3
 10
88.0787
 20
-7.62210
 30
0.000000
  70
    32
  0
VERTEX
  8
241
  5
49C4
 10
88.1414
 20
-7.72765
 30
0.000000
  70
    32
  0
VERTEX
  8
241
  5
49C5
 10
88.2050
 20
-7.83165
 30
0.000000
  70
    32
  0
VERTEX
  8
241
  5
49C6
 10
88.2695
 20
-7.93409
 30
0.000000
  70
    32
  0
VERTEX
  8
241
  5
49C7
 10
88.3347
 20
-8.03493
 30
0.000000
  70
    32
  0
VERTEX
  8
241
  5
49C8
 10
88.4008
 20
-8.13416
 30
0.000000
  70
    32
  0
VERTEX
  8
241
  5
49C9
 10
88.4677
 20
-8.23176
 30
0.000000
  70
    32
  0
VERTEX
  8
241
  5
49CA
 10
88.5354
 20
-8.32771
 30
0.000000
  70
    32
  0
VERTEX
  8
241
  5
49CB
 10
88.6038
 20
-8.42200
 30
0.000000
  70
    32
  0
SEQEND
  8
241
  5
49CC
  0
LINE
  5
4336
  8
241
  6
CONTINUOUS
 10
99.100000000000037
 20
-10.699999999999999
 30
0.0
 11
99.100000000000037
 21
-10.441129082020479
 31
0.0
  0
LINE
  5
4339
  8
241
  6
CONTINUOUS
 10
88.603847577293337
 20
-8.4219950130595276
 30
0.0
 11
88.603847577293337
 21
8.4219950130595151
 31
0.0
  0
LINE
  5
433A
  8
241
  6
CONTINUOUS
 10
82.0
 20
9.6999999999999762
 30
0.0
 11
82.0
 21
-9.6999999999999726
 31
0.0
  0
LINE
  5
433D
  8
241
  6
CONTINUOUS
 10
80.0
 20
9.6999999999999762
 30
0.0
 11
80.0
 21
-9.6999999999999726
 31
0.0
  0
LINE
  5
433E
  8
240
  6
CONTINUOUS
 10
0.0000000000000065
 20
-9.9999999999999911
 30
0.0
 11
0.0000000000000077
 21
9.9999999999999911
 31
0.0
  0
LINE
  5
433F
  8
241
  6
CONTINUOUS
 10
92.552529855093425
 20
2.9535034940586948
 30
0.0
 11
92.552529855093425
 21
10.028398943349201
 31
0.0
  0
POLYLINE
  8
241
  5
49CD
  66
     1
 10
0.000000
 20
0.000000
 30
0.000000
  70
     8
  0
VERTEX
  8
241
  5
49CE
 10
92.5525
 20
1.02857
 30
0.000000
  70
    32
  0
VERTEX
  8
241
  5
49CF
 10
92.5460
 20
1.02872
 30
0.000000
  70
    32
  0
VERTEX
  8
241
  5
49D0
 10
92.5394
 20
1.02887
 30
0.000000
  70
    32
  0
VERTEX
  8
241
  5
49D1
 10
92.5328
 20
1.02904
 30
0.000000
  70
    32
  0
VERTEX
  8
241
  5
49D2
 10
92.5262
 20
1.02921
 30
0.000000
  70
    32
  0
VERTEX
  8
241
  5
49D3
 10
92.5197
 20
1.02940
 30
0.000000
  70
    32
  0
VERTEX
  8
241
  5
49D4
 10
92.5131
 20
1.02959
 30
0.000000
  70
    32
  0
VERTEX
  8
241
  5
49D5
 10
92.5065
 20
1.02980
 30
0.000000
  70
    32
  0
VERTEX
  8
241
  5
49D6
 10
92.5000
 20
1.03001
 30
0.000000
  70
    32
  0
VERTEX
  8
241
  5
49D7
 10
92.4934
 20
1.03023
 30
0.000000
  70
    32
  0
VERTEX
  8
241
  5
49D8
 10
92.4869
 20
1.03046
 30
0.000000
  70
    32
  0
VERTEX
  8
241
  5
49D9
 10
92.4803
 20
1.03071
 30
0.000000
  70
    32
  0
VERTEX
  8
241
  5
49DA
 10
92.4738
 20
1.03096
 30
0.000000
  70
    32
  0
VERTEX
  8
241
  5
49DB
 10
92.4673
 20
1.03122
 30
0.000000
  70
    32
  0
VERTEX
  8
241
  5
49DC
 10
92.4607
 20
1.03149
 30
0.000000
  70
    32
  0
VERTEX
  8
241
  5
49DD
 10
92.4542
 20
1.03178
 30
0.000000
  70
    32
  0
VERTEX
  8
241
  5
49DE
 10
92.4477
 20
1.03207
 30
0.000000
  70
    32
  0
VERTEX
  8
241
  5
49DF
 10
92.4411
 20
1.03237
 30
0.000000
  70
    32
  0
VERTEX
  8
241
  5
49E0
 10
92.4346
 20
1.03269
 30
0.000000
  70
    32
  0
VERTEX
  8
241
  5
49E1
 10
92.4281
 20
1.03301
 30
0.000000
  70
    32
  0
VERTEX
  8
241
  5
49E2
 10
92.4216
 20
1.03335
 30
0.000000
  70
    32
  0
VERTEX
  8
241
  5
49E3
 10
92.4151
 20
1.03369
 30
0.000000
  70
    32
  0
VERTEX
  8
241
  5
49E4
 10
92.4085
 20
1.03405
 30
0.000000
  70
    32
  0
VERTEX
  8
241
  5
49E5
 10
92.4020
 20
1.03442
 30
0.000000
  70
    32
  0
VERTEX
  8
241
  5
49E6
 10
92.3955
 20
1.03480
 30
0.000000
  70
    32
  0
VERTEX
  8
241
  5
49E7
 10
92.3890
 20
1.03519
 30
0.000000
  70
    32
  0
VERTEX
  8
241
  5
49E8
 10
92.3825
 20
1.03559
 30
0.000000
  70
    32
  0
VERTEX
  8
241
  5
49E9
 10
92.3760
 20
1.03601
 30
0.000000
  70
    32
  0
VERTEX
  8
241
  5
49EA
 10
92.3696
 20
1.03643
 30
0.000000
  70
    32
  0
VERTEX
  8
241
  5
49EB
 10
92.3631
 20
1.03687
 30
0.000000
  70
    32
  0
VERTEX
  8
241
  5
49EC
 10
92.3566
 20
1.03732
 30
0.000000
  70
    32
  0
VERTEX
  8
241
  5
49ED
 10
92.3501
 20
1.03778
 30
0.000000
  70
    32
  0
VERTEX
  8
241
  5
49EE
 10
92.3436
 20
1.03825
 30
0.000000
  70
    32
  0
VERTEX
  8
241
  5
49EF
 10
92.3372
 20
1.03873
 30
0.000000
  70
    32
  0
VERTEX
  8
241
  5
49F0
 10
92.3307
 20
1.03923
 30
0.000000
  70
    32
  0
VERTEX
  8
241
  5
49F1
 10
92.3242
 20
1.03974
 30
0.000000
  70
    32
  0
VERTEX
  8
241
  5
49F2
 10
92.3178
 20
1.04026
 30
0.000000
  70
    32
  0
VERTEX
  8
241
  5
49F3
 10
92.3113
 20
1.04079
 30
0.000000
  70
    32
  0
VERTEX
  8
241
  5
49F4
 10
92.3049
 20
1.04134
 30
0.000000
  70
    32
  0
VERTEX
  8
241
  5
49F5
 10
92.2984
 20
1.04189
 30
0.000000
  70
    32
  0
VERTEX
  8
241
  5
49F6
 10
92.2920
 20
1.04247
 30
0.000000
  70
    32
  0
VERTEX
  8
241
  5
49F7
 10
92.2855
 20
1.04305
 30
0.000000
  70
    32
  0
VERTEX
  8
241
  5
49F8
 10
92.2791
 20
1.04364
 30
0.000000
  70
    32
  0
VERTEX
  8
241
  5
49F9
 10
92.2726
 20
1.04425
 30
0.000000
  70
    32
  0
VERTEX
  8
241
  5
49FA
 10
92.2662
 20
1.04488
 30
0.000000
  70
    32
  0
VERTEX
  8
241
  5
49FB
 10
92.2598
 20
1.04551
 30
0.000000
  70
    32
  0
VERTEX
  8
241
  5
49FC
 10
92.2534
 20
1.04616
 30
0.000000
  70
    32
  0
VERTEX
  8
241
  5
49FD
 10
92.2469
 20
1.04682
 30
0.000000
  70
    32
  0
VERTEX
  8
241
  5
49FE
 10
92.2405
 20
1.04750
 30
0.000000
  70
    32
  0
VERTEX
  8
241
  5
49FF
 10
92.2341
 20
1.04818
 30
0.000000
  70
    32
  0
VERTEX
  8
241
  5
4A00
 10
92.2277
 20
1.04889
 30
0.000000
  70
    32
  0
VERTEX
  8
241
  5
4A01
 10
92.2213
 20
1.04960
 30
0.000000
  70
    32
  0
VERTEX
  8
241
  5
4A02
 10
92.2149
 20
1.05033
 30
0.000000
  70
    32
  0
VERTEX
  8
241
  5
4A03
 10
92.2085
 20
1.05107
 30
0.000000
  70
    32
  0
VERTEX
  8
241
  5
4A04
 10
92.2021
 20
1.05183
 30
0.000000
  70
    32
  0
VERTEX
  8
241
  5
4A05
 10
92.1957
 20
1.05260
 30
0.000000
  70
    32
  0
VERTEX
  8
241
  5
4A06
 10
92.1893
 20
1.05339
 30
0.000000
  70
    32
  0
VERTEX
  8
241
  5
4A07
 10
92.1829
 20
1.05419
 30
0.000000
  70
    32
  0
VERTEX
  8
241
  5
4A08
 10
92.1766
 20
1.05500
 30
0.000000
  70
    32
  0
VERTEX
  8
241
  5
4A09
 10
92.1702
 20
1.05583
 30
0.000000
  70
    32
  0
VERTEX
  8
241
  5
4A0A
 10
92.1638
 20
1.05667
 30
0.000000
  70
    32
  0
VERTEX
  8
241
  5
4A0B
 10
92.1574
 20
1.05753
 30
0.000000
  70
    32
  0
VERTEX
  8
241
  5
4A0C
 10
92.1511
 20
1.05840
 30
0.000000
  70
    32
  0
VERTEX
  8
241
  5
4A0D
 10
92.1447
 20
1.05929
 30
0.000000
  70
    32
  0
VERTEX
  8
241
  5
4A0E
 10
92.1384
 20
1.06019
 30
0.000000
  70
    32
  0
VERTEX
  8
241
  5
4A0F
 10
92.1320
 20
1.06111
 30
0.000000
  70
    32
  0
VERTEX
  8
241
  5
4A10
 10
92.1257
 20
1.06204
 30
0.000000
  70
    32
  0
VERTEX
  8
241
  5
4A11
 10
92.1193
 20
1.06299
 30
0.000000
  70
    32
  0
VERTEX
  8
241
  5
4A12
 10
92.1130
 20
1.06395
 30
0.000000
  70
    32
  0
VERTEX
  8
241
  5
4A13
 10
92.1066
 20
1.06492
 30
0.000000
  70
    32
  0
VERTEX
  8
241
  5
4A14
 10
92.1003
 20
1.06592
 30
0.000000
  70
    32
  0
VERTEX
  8
241
  5
4A15
 10
92.0940
 20
1.06693
 30
0.000000
  70
    32
  0
VERTEX
  8
241
  5
4A16
 10
92.0876
 20
1.06795
 30
0.000000
  70
    32
  0
VERTEX
  8
241
  5
4A17
 10
92.0813
 20
1.06899
 30
0.000000
  70
    32
  0
VERTEX
  8
241
  5
4A18
 10
92.0750
 20
1.07005
 30
0.000000
  70
    32
  0
VERTEX
  8
241
  5
4A19
 10
92.0687
 20
1.07112
 30
0.000000
  70
    32
  0
VERTEX
  8
241
  5
4A1A
 10
92.0624
 20
1.07221
 30
0.000000
  70
    32
  0
VERTEX
  8
241
  5
4A1B
 10
92.0560
 20
1.07331
 30
0.000000
  70
    32
  0
VERTEX
  8
241
  5
4A1C
 10
92.0497
 20
1.07444
 30
0.000000
  70
    32
  0
VERTEX
  8
241
  5
4A1D
 10
92.0434
 20
1.07558
 30
0.000000
  70
    32
  0
VERTEX
  8
241
  5
4A1E
 10
92.0371
 20
1.07674
 30
0.000000
  70
    32
  0
VERTEX
  8
241
  5
4A1F
 10
92.0308
 20
1.07791
 30
0.000000
  70
    32
  0
VERTEX
  8
241
  5
4A20
 10
92.0245
 20
1.07910
 30
0.000000
  70
    32
  0
VERTEX
  8
241
  5
4A21
 10
92.0182
 20
1.08031
 30
0.000000
  70
    32
  0
VERTEX
  8
241
  5
4A22
 10
92.0119
 20
1.08154
 30
0.000000
  70
    32
  0
VERTEX
  8
241
  5
4A23
 10
92.0056
 20
1.08279
 30
0.000000
  70
    32
  0
VERTEX
  8
241
  5
4A24
 10
91.9993
 20
1.08405
 30
0.000000
  70
    32
  0
VERTEX
  8
241
  5
4A25
 10
91.9931
 20
1.08533
 30
0.000000
  70
    32
  0
VERTEX
  8
241
  5
4A26
 10
91.9868
 20
1.08663
 30
0.000000
  70
    32
  0
VERTEX
  8
241
  5
4A27
 10
91.9805
 20
1.08795
 30
0.000000
  70
    32
  0
VERTEX
  8
241
  5
4A28
 10
91.9742
 20
1.08929
 30
0.000000
  70
    32
  0
VERTEX
  8
241
  5
4A29
 10
91.9680
 20
1.09065
 30
0.000000
  70
    32
  0
VERTEX
  8
241
  5
4A2A
 10
91.9617
 20
1.09202
 30
0.000000
  70
    32
  0
VERTEX
  8
241
  5
4A2B
 10
91.9555
 20
1.09342
 30
0.000000
  70
    32
  0
VERTEX
  8
241
  5
4A2C
 10
91.9492
 20
1.09484
 30
0.000000
  70
    32
  0
VERTEX
  8
241
  5
4A2D
 10
91.9430
 20
1.09627
 30
0.000000
  70
    32
  0
VERTEX
  8
241
  5
4A2E
 10
91.9367
 20
1.09773
 30
0.000000
  70
    32
  0
VERTEX
  8
241
  5
4A2F
 10
91.9305
 20
1.09920
 30
0.000000
  70
    32
  0
VERTEX
  8
241
  5
4A30
 10
91.9243
 20
1.10069
 30
0.000000
  70
    32
  0
VERTEX
  8
241
  5
4A31
 10
91.9180
 20
1.10221
 30
0.000000
  70
    32
  0
VERTEX
  8
241
  5
4A32
 10
91.9118
 20
1.10375
 30
0.000000
  70
    32
  0
VERTEX
  8
241
  5
4A33
 10
91.9056
 20
1.10530
 30
0.000000
  70
    32
  0
VERTEX
  8
241
  5
4A34
 10
91.8994
 20
1.10688
 30
0.000000
  70
    32
  0
VERTEX
  8
241
  5
4A35
 10
91.8932
 20
1.10848
 30
0.000000
  70
    32
  0
VERTEX
  8
241
  5
4A36
 10
91.8870
 20
1.11010
 30
0.000000
  70
    32
  0
VERTEX
  8
241
  5
4A37
 10
91.8808
 20
1.11174
 30
0.000000
  70
    32
  0
VERTEX
  8
241
  5
4A38
 10
91.8747
 20
1.11340
 30
0.000000
  70
    32
  0
VERTEX
  8
241
  5
4A39
 10
91.8685
 20
1.11508
 30
0.000000
  70
    32
  0
VERTEX
  8
241
  5
4A3A
 10
91.8623
 20
1.11678
 30
0.000000
  70
    32
  0
VERTEX
  8
241
  5
4A3B
 10
91.8562
 20
1.11851
 30
0.000000
  70
    32
  0
VERTEX
  8
241
  5
4A3C
 10
91.8500
 20
1.12026
 30
0.000000
  70
    32
  0
VERTEX
  8
241
  5
4A3D
 10
91.8439
 20
1.12203
 30
0.000000
  70
    32
  0
VERTEX
  8
241
  5
4A3E
 10
91.8378
 20
1.12382
 30
0.000000
  70
    32
  0
VERTEX
  8
241
  5
4A3F
 10
91.8316
 20
1.12564
 30
0.000000
  70
    32
  0
VERTEX
  8
241
  5
4A40
 10
91.8255
 20
1.12748
 30
0.000000
  70
    32
  0
VERTEX
  8
241
  5
4A41
 10
91.8194
 20
1.12934
 30
0.000000
  70
    32
  0
VERTEX
  8
241
  5
4A42
 10
91.8133
 20
1.13122
 30
0.000000
  70
    32
  0
VERTEX
  8
241
  5
4A43
 10
91.8072
 20
1.13313
 30
0.000000
  70
    32
  0
VERTEX
  8
241
  5
4A44
 10
91.8011
 20
1.13506
 30
0.000000
  70
    32
  0
VERTEX
  8
241
  5
4A45
 10
91.7951
 20
1.13702
 30
0.000000
  70
    32
  0
VERTEX
  8
241
  5
4A46
 10
91.7890
 20
1.13900
 30
0.000000
  70
    32
  0
VERTEX
  8
241
  5
4A47
 10
91.7830
 20
1.14100
 30
0.000000
  70
    32
  0
VERTEX
  8
241
  5
4A48
 10
91.7769
 20
1.14302
 30
0.000000
  70
    32
  0
VERTEX
  8
241
  5
4A49
 10
91.7709
 20
1.14507
 30
0.000000
  70
    32
  0
VERTEX
  8
241
  5
4A4A
 10
91.7649
 20
1.14715
 30
0.000000
  70
    32
  0
VERTEX
  8
241
  5
4A4B
 10
91.7589
 20
1.14925
 30
0.000000
  70
    32
  0
VERTEX
  8
241
  5
4A4C
 10
91.7528
 20
1.15137
 30
0.000000
  70
    32
  0
VERTEX
  8
241
  5
4A4D
 10
91.7469
 20
1.15352
 30
0.000000
  70
    32
  0
VERTEX
  8
241
  5
4A4E
 10
91.7409
 20
1.15569
 30
0.000000
  70
    32
  0
VERTEX
  8
241
  5
4A4F
 10
91.7349
 20
1.15789
 30
0.000000
  70
    32
  0
VERTEX
  8
241
  5
4A50
 10
91.7289
 20
1.16011
 30
0.000000
  70
    32
  0
VERTEX
  8
241
  5
4A51
 10
91.7230
 20
1.16236
 30
0.000000
  70
    32
  0
VERTEX
  8
241
  5
4A52
 10
91.7171
 20
1.16464
 30
0.000000
  70
    32
  0
VERTEX
  8
241
  5
4A53
 10
91.7111
 20
1.16694
 30
0.000000
  70
    32
  0
VERTEX
  8
241
  5
4A54
 10
91.7052
 20
1.16926
 30
0.000000
  70
    32
  0
VERTEX
  8
241
  5
4A55
 10
91.6993
 20
1.17161
 30
0.000000
  70
    32
  0
VERTEX
  8
241
  5
4A56
 10
91.6934
 20
1.17399
 30
0.000000
  70
    32
  0
VERTEX
  8
241
  5
4A57
 10
91.6876
 20
1.17640
 30
0.000000
  70
    32
  0
VERTEX
  8
241
  5
4A58
 10
91.6817
 20
1.17883
 30
0.000000
  70
    32
  0
VERTEX
  8
241
  5
4A59
 10
91.6758
 20
1.18129
 30
0.000000
  70
    32
  0
VERTEX
  8
241
  5
4A5A
 10
91.6700
 20
1.18377
 30
0.000000
  70
    32
  0
VERTEX
  8
241
  5
4A5B
 10
91.6642
 20
1.18628
 30
0.000000
  70
    32
  0
VERTEX
  8
241
  5
4A5C
 10
91.6583
 20
1.18882
 30
0.000000
  70
    32
  0
VERTEX
  8
241
  5
4A5D
 10
91.6525
 20
1.19139
 30
0.000000
  70
    32
  0
VERTEX
  8
241
  5
4A5E
 10
91.6468
 20
1.19398
 30
0.000000
  70
    32
  0
VERTEX
  8
241
  5
4A5F
 10
91.6410
 20
1.19660
 30
0.000000
  70
    32
  0
VERTEX
  8
241
  5
4A60
 10
91.6352
 20
1.19925
 30
0.000000
  70
    32
  0
VERTEX
  8
241
  5
4A61
 10
91.6295
 20
1.20193
 30
0.000000
  70
    32
  0
VERTEX
  8
241
  5
4A62
 10
91.6237
 20
1.20464
 30
0.000000
  70
    32
  0
VERTEX
  8
241
  5
4A63
 10
91.6180
 20
1.20738
 30
0.000000
  70
    32
  0
VERTEX
  8
241
  5
4A64
 10
91.6123
 20
1.21014
 30
0.000000
  70
    32
  0
VERTEX
  8
241
  5
4A65
 10
91.6066
 20
1.21293
 30
0.000000
  70
    32
  0
VERTEX
  8
241
  5
4A66
 10
91.6009
 20
1.21576
 30
0.000000
  70
    32
  0
VERTEX
  8
241
  5
4A67
 10
91.5952
 20
1.21861
 30
0.000000
  70
    32
  0
VERTEX
  8
241
  5
4A68
 10
91.5896
 20
1.22149
 30
0.000000
  70
    32
  0
VERTEX
  8
241
  5
4A69
 10
91.5840
 20
1.22441
 30
0.000000
  70
    32
  0
VERTEX
  8
241
  5
4A6A
 10
91.5783
 20
1.22735
 30
0.000000
  70
    32
  0
VERTEX
  8
241
  5
4A6B
 10
91.5727
 20
1.23033
 30
0.000000
  70
    32
  0
VERTEX
  8
241
  5
4A6C
 10
91.5671
 20
1.23333
 30
0.000000
  70
    32
  0
VERTEX
  8
241
  5
4A6D
 10
91.5616
 20
1.23637
 30
0.000000
  70
    32
  0
VERTEX
  8
241
  5
4A6E
 10
91.5560
 20
1.23943
 30
0.000000
  70
    32
  0
VERTEX
  8
241
  5
4A6F
 10
91.5505
 20
1.24253
 30
0.000000
  70
    32
  0
VERTEX
  8
241
  5
4A70
 10
91.5450
 20
1.24566
 30
0.000000
  70
    32
  0
VERTEX
  8
241
  5
4A71
 10
91.5395
 20
1.24882
 30
0.000000
  70
    32
  0
VERTEX
  8
241
  5
4A72
 10
91.5340
 20
1.25202
 30
0.000000
  70
    32
  0
VERTEX
  8
241
  5
4A73
 10
91.5285
 20
1.25524
 30
0.000000
  70
    32
  0
VERTEX
  8
241
  5
4A74
 10
91.5231
 20
1.25850
 30
0.000000
  70
    32
  0
VERTEX
  8
241
  5
4A75
 10
91.5177
 20
1.26179
 30
0.000000
  70
    32
  0
VERTEX
  8
241
  5
4A76
 10
91.5123
 20
1.26512
 30
0.000000
  70
    32
  0
VERTEX
  8
241
  5
4A77
 10
91.5069
 20
1.26847
 30
0.000000
  70
    32
  0
VERTEX
  8
241
  5
4A78
 10
91.5016
 20
1.27186
 30
0.000000
  70
    32
  0
VERTEX
  8
241
  5
4A79
 10
91.4962
 20
1.27529
 30
0.000000
  70
    32
  0
VERTEX
  8
241
  5
4A7A
 10
91.4909
 20
1.27875
 30
0.000000
  70
    32
  0
VERTEX
  8
241
  5
4A7B
 10
91.4856
 20
1.28224
 30
0.000000
  70
    32
  0
VERTEX
  8
241
  5
4A7C
 10
91.4804
 20
1.28576
 30
0.000000
  70
    32
  0
VERTEX
  8
241
  5
4A7D
 10
91.4751
 20
1.28932
 30
0.000000
  70
    32
  0
VERTEX
  8
241
  5
4A7E
 10
91.4699
 20
1.29292
 30
0.000000
  70
    32
  0
VERTEX
  8
241
  5
4A7F
 10
91.4647
 20
1.29655
 30
0.000000
  70
    32
  0
VERTEX
  8
241
  5
4A80
 10
91.4595
 20
1.30021
 30
0.000000
  70
    32
  0
VERTEX
  8
241
  5
4A81
 10
91.4544
 20
1.30391
 30
0.000000
  70
    32
  0
VERTEX
  8
241
  5
4A82
 10
91.4493
 20
1.30765
 30
0.000000
  70
    32
  0
VERTEX
  8
241
  5
4A83
 10
91.4442
 20
1.31142
 30
0.000000
  70
    32
  0
VERTEX
  8
241
  5
4A84
 10
91.4391
 20
1.31523
 30
0.000000
  70
    32
  0
VERTEX
  8
241
  5
4A85
 10
91.4341
 20
1.31907
 30
0.000000
  70
    32
  0
VERTEX
  8
241
  5
4A86
 10
91.4290
 20
1.32295
 30
0.000000
  70
    32
  0
VERTEX
  8
241
  5
4A87
 10
91.4240
 20
1.32686
 30
0.000000
  70
    32
  0
VERTEX
  8
241
  5
4A88
 10
91.4191
 20
1.33082
 30
0.000000
  70
    32
  0
VERTEX
  8
241
  5
4A89
 10
91.4141
 20
1.33481
 30
0.000000
  70
    32
  0
VERTEX
  8
241
  5
4A8A
 10
91.4092
 20
1.33883
 30
0.000000
  70
    32
  0
VERTEX
  8
241
  5
4A8B
 10
91.4044
 20
1.34290
 30
0.000000
  70
    32
  0
VERTEX
  8
241
  5
4A8C
 10
91.3995
 20
1.34700
 30
0.000000
  70
    32
  0
VERTEX
  8
241
  5
4A8D
 10
91.3947
 20
1.35114
 30
0.000000
  70
    32
  0
VERTEX
  8
241
  5
4A8E
 10
91.3899
 20
1.35532
 30
0.000000
  70
    32
  0
VERTEX
  8
241
  5
4A8F
 10
91.3851
 20
1.35953
 30
0.000000
  70
    32
  0
VERTEX
  8
241
  5
4A90
 10
91.3804
 20
1.36379
 30
0.000000
  70
    32
  0
VERTEX
  8
241
  5
4A91
 10
91.3757
 20
1.36808
 30
0.000000
  70
    32
  0
VERTEX
  8
241
  5
4A92
 10
91.3710
 20
1.37241
 30
0.000000
  70
    32
  0
VERTEX
  8
241
  5
4A93
 10
91.3664
 20
1.37678
 30
0.000000
  70
    32
  0
VERTEX
  8
241
  5
4A94
 10
91.3618
 20
1.38119
 30
0.000000
  70
    32
  0
VERTEX
  8
241
  5
4A95
 10
91.3572
 20
1.38564
 30
0.000000
  70
    32
  0
VERTEX
  8
241
  5
4A96
 10
91.3526
 20
1.39013
 30
0.000000
  70
    32
  0
VERTEX
  8
241
  5
4A97
 10
91.3481
 20
1.39466
 30
0.000000
  70
    32
  0
VERTEX
  8
241
  5
4A98
 10
91.3436
 20
1.39923
 30
0.000000
  70
    32
  0
VERTEX
  8
241
  5
4A99
 10
91.3392
 20
1.40384
 30
0.000000
  70
    32
  0
VERTEX
  8
241
  5
4A9A
 10
91.3348
 20
1.40849
 30
0.000000
  70
    32
  0
VERTEX
  8
241
  5
4A9B
 10
91.3304
 20
1.41318
 30
0.000000
  70
    32
  0
VERTEX
  8
241
  5
4A9C
 10
91.3261
 20
1.41791
 30
0.000000
  70
    32
  0
VERTEX
  8
241
  5
4A9D
 10
91.3218
 20
1.42268
 30
0.000000
  70
    32
  0
VERTEX
  8
241
  5
4A9E
 10
91.3175
 20
1.42750
 30
0.000000
  70
    32
  0
VERTEX
  8
241
  5
4A9F
 10
91.3132
 20
1.43235
 30
0.000000
  70
    32
  0
VERTEX
  8
241
  5
4AA0
 10
91.3090
 20
1.43725
 30
0.000000
  70
    32
  0
VERTEX
  8
241
  5
4AA1
 10
91.3049
 20
1.44219
 30
0.000000
  70
    32
  0
VERTEX
  8
241
  5
4AA2
 10
91.3007
 20
1.44718
 30
0.000000
  70
    32
  0
VERTEX
  8
241
  5
4AA3
 10
91.2967
 20
1.45220
 30
0.000000
  70
    32
  0
VERTEX
  8
241
  5
4AA4
 10
91.2926
 20
1.45727
 30
0.000000
  70
    32
  0
VERTEX
  8
241
  5
4AA5
 10
91.2886
 20
1.46238
 30
0.000000
  70
    32
  0
VERTEX
  8
241
  5
4AA6
 10
91.2846
 20
1.46753
 30
0.000000
  70
    32
  0
VERTEX
  8
241
  5
4AA7
 10
91.2807
 20
1.47273
 30
0.000000
  70
    32
  0
VERTEX
  8
241
  5
4AA8
 10
91.2768
 20
1.47796
 30
0.000000
  70
    32
  0
VERTEX
  8
241
  5
4AA9
 10
91.2729
 20
1.48323
 30
0.000000
  70
    32
  0
VERTEX
  8
241
  5
4AAA
 10
91.2691
 20
1.48854
 30
0.000000
  70
    32
  0
VERTEX
  8
241
  5
4AAB
 10
91.2654
 20
1.49388
 30
0.000000
  70
    32
  0
VERTEX
  8
241
  5
4AAC
 10
91.2617
 20
1.49927
 30
0.000000
  70
    32
  0
VERTEX
  8
241
  5
4AAD
 10
91.2580
 20
1.50469
 30
0.000000
  70
    32
  0
VERTEX
  8
241
  5
4AAE
 10
91.2544
 20
1.51015
 30
0.000000
  70
    32
  0
VERTEX
  8
241
  5
4AAF
 10
91.2509
 20
1.51565
 30
0.000000
  70
    32
  0
VERTEX
  8
241
  5
4AB0
 10
91.2474
 20
1.52118
 30
0.000000
  70
    32
  0
VERTEX
  8
241
  5
4AB1
 10
91.2439
 20
1.52675
 30
0.000000
  70
    32
  0
VERTEX
  8
241
  5
4AB2
 10
91.2405
 20
1.53236
 30
0.000000
  70
    32
  0
VERTEX
  8
241
  5
4AB3
 10
91.2372
 20
1.53801
 30
0.000000
  70
    32
  0
VERTEX
  8
241
  5
4AB4
 10
91.2339
 20
1.54369
 30
0.000000
  70
    32
  0
VERTEX
  8
241
  5
4AB5
 10
91.2306
 20
1.54941
 30
0.000000
  70
    32
  0
VERTEX
  8
241
  5
4AB6
 10
91.2274
 20
1.55517
 30
0.000000
  70
    32
  0
VERTEX
  8
241
  5
4AB7
 10
91.2243
 20
1.56096
 30
0.000000
  70
    32
  0
VERTEX
  8
241
  5
4AB8
 10
91.2212
 20
1.56679
 30
0.000000
  70
    32
  0
VERTEX
  8
241
  5
4AB9
 10
91.2182
 20
1.57265
 30
0.000000
  70
    32
  0
VERTEX
  8
241
  5
4ABA
 10
91.2152
 20
1.57855
 30
0.000000
  70
    32
  0
VERTEX
  8
241
  5
4ABB
 10
91.2123
 20
1.58449
 30
0.000000
  70
    32
  0
VERTEX
  8
241
  5
4ABC
 10
91.2094
 20
1.59046
 30
0.000000
  70
    32
  0
VERTEX
  8
241
  5
4ABD
 10
91.2066
 20
1.59647
 30
0.000000
  70
    32
  0
VERTEX
  8
241
  5
4ABE
 10
91.2039
 20
1.60251
 30
0.000000
  70
    32
  0
VERTEX
  8
241
  5
4ABF
 10
91.2012
 20
1.60859
 30
0.000000
  70
    32
  0
VERTEX
  8
241
  5
4AC0
 10
91.1985
 20
1.61471
 30
0.000000
  70
    32
  0
VERTEX
  8
241
  5
4AC1
 10
91.1960
 20
1.62085
 30
0.000000
  70
    32
  0
VERTEX
  8
241
  5
4AC2
 10
91.1935
 20
1.62704
 30
0.000000
  70
    32
  0
VERTEX
  8
241
  5
4AC3
 10
91.1910
 20
1.63325
 30
0.000000
  70
    32
  0
VERTEX
  8
241
  5
4AC4
 10
91.1886
 20
1.63951
 30
0.000000
  70
    32
  0
VERTEX
  8
241
  5
4AC5
 10
91.1863
 20
1.64579
 30
0.000000
  70
    32
  0
VERTEX
  8
241
  5
4AC6
 10
91.1840
 20
1.65211
 30
0.000000
  70
    32
  0
VERTEX
  8
241
  5
4AC7
 10
91.1818
 20
1.65847
 30
0.000000
  70
    32
  0
VERTEX
  8
241
  5
4AC8
 10
91.1797
 20
1.66485
 30
0.000000
  70
    32
  0
VERTEX
  8
241
  5
4AC9
 10
91.1776
 20
1.67128
 30
0.000000
  70
    32
  0
VERTEX
  8
241
  5
4ACA
 10
91.1756
 20
1.67773
 30
0.000000
  70
    32
  0
VERTEX
  8
241
  5
4ACB
 10
91.1736
 20
1.68420
 30
0.000000
  70
    32
  0
VERTEX
  8
241
  5
4ACC
 10
91.1718
 20
1.69069
 30
0.000000
  70
    32
  0
VERTEX
  8
241
  5
4ACD
 10
91.1700
 20
1.69720
 30
0.000000
  70
    32
  0
VERTEX
  8
241
  5
4ACE
 10
91.1682
 20
1.70372
 30
0.000000
  70
    32
  0
VERTEX
  8
241
  5
4ACF
 10
91.1666
 20
1.71026
 30
0.000000
  70
    32
  0
VERTEX
  8
241
  5
4AD0
 10
91.1650
 20
1.71681
 30
0.000000
  70
    32
  0
VERTEX
  8
241
  5
4AD1
 10
91.1634
 20
1.72338
 30
0.000000
  70
    32
  0
VERTEX
  8
241
  5
4AD2
 10
91.1620
 20
1.72996
 30
0.000000
  70
    32
  0
VERTEX
  8
241
  5
4AD3
 10
91.1606
 20
1.73655
 30
0.000000
  70
    32
  0
VERTEX
  8
241
  5
4AD4
 10
91.1593
 20
1.74316
 30
0.000000
  70
    32
  0
VERTEX
  8
241
  5
4AD5
 10
91.1581
 20
1.74978
 30
0.000000
  70
    32
  0
VERTEX
  8
241
  5
4AD6
 10
91.1569
 20
1.75641
 30
0.000000
  70
    32
  0
VERTEX
  8
241
  5
4AD7
 10
91.1558
 20
1.76305
 30
0.000000
  70
    32
  0
VERTEX
  8
241
  5
4AD8
 10
91.1547
 20
1.76970
 30
0.000000
  70
    32
  0
VERTEX
  8
241
  5
4AD9
 10
91.1538
 20
1.77636
 30
0.000000
  70
    32
  0
VERTEX
  8
241
  5
4ADA
 10
91.1529
 20
1.78303
 30
0.000000
  70
    32
  0
VERTEX
  8
241
  5
4ADB
 10
91.1521
 20
1.78972
 30
0.000000
  70
    32
  0
VERTEX
  8
241
  5
4ADC
 10
91.1513
 20
1.79641
 30
0.000000
  70
    32
  0
VERTEX
  8
241
  5
4ADD
 10
91.1506
 20
1.80310
 30
0.000000
  70
    32
  0
VERTEX
  8
241
  5
4ADE
 10
91.1500
 20
1.80981
 30
0.000000
  70
    32
  0
VERTEX
  8
241
  5
4ADF
 10
91.1495
 20
1.81652
 30
0.000000
  70
    32
  0
VERTEX
  8
241
  5
4AE0
 10
91.1490
 20
1.82324
 30
0.000000
  70
    32
  0
VERTEX
  8
241
  5
4AE1
 10
91.1486
 20
1.82997
 30
0.000000
  70
    32
  0
VERTEX
  8
241
  5
4AE2
 10
91.1482
 20
1.83670
 30
0.000000
  70
    32
  0
VERTEX
  8
241
  5
4AE3
 10
91.1480
 20
1.84344
 30
0.000000
  70
    32
  0
VERTEX
  8
241
  5
4AE4
 10
91.1478
 20
1.85019
 30
0.000000
  70
    32
  0
VERTEX
  8
241
  5
4AE5
 10
91.1476
 20
1.85693
 30
0.000000
  70
    32
  0
VERTEX
  8
241
  5
4AE6
 10
91.1476
 20
1.86368
 30
0.000000
  70
    32
  0
VERTEX
  8
241
  5
4AE7
 10
91.1476
 20
1.87044
 30
0.000000
  70
    32
  0
VERTEX
  8
241
  5
4AE8
 10
91.1477
 20
1.87720
 30
0.000000
  70
    32
  0
VERTEX
  8
241
  5
4AE9
 10
91.1478
 20
1.88395
 30
0.000000
  70
    32
  0
VERTEX
  8
241
  5
4AEA
 10
91.1480
 20
1.89072
 30
0.000000
  70
    32
  0
VERTEX
  8
241
  5
4AEB
 10
91.1483
 20
1.89748
 30
0.000000
  70
    32
  0
VERTEX
  8
241
  5
4AEC
 10
91.1487
 20
1.90424
 30
0.000000
  70
    32
  0
VERTEX
  8
241
  5
4AED
 10
91.1491
 20
1.91101
 30
0.000000
  70
    32
  0
VERTEX
  8
241
  5
4AEE
 10
91.1496
 20
1.91777
 30
0.000000
  70
    32
  0
VERTEX
  8
241
  5
4AEF
 10
91.1501
 20
1.92452
 30
0.000000
  70
    32
  0
VERTEX
  8
241
  5
4AF0
 10
91.1508
 20
1.93126
 30
0.000000
  70
    32
  0
VERTEX
  8
241
  5
4AF1
 10
91.1515
 20
1.93798
 30
0.000000
  70
    32
  0
VERTEX
  8
241
  5
4AF2
 10
91.1522
 20
1.94469
 30
0.000000
  70
    32
  0
VERTEX
  8
241
  5
4AF3
 10
91.1531
 20
1.95138
 30
0.000000
  70
    32
  0
VERTEX
  8
241
  5
4AF4
 10
91.1540
 20
1.95806
 30
0.000000
  70
    32
  0
VERTEX
  8
241
  5
4AF5
 10
91.1549
 20
1.96472
 30
0.000000
  70
    32
  0
VERTEX
  8
241
  5
4AF6
 10
91.1559
 20
1.97137
 30
0.000000
  70
    32
  0
VERTEX
  8
241
  5
4AF7
 10
91.1570
 20
1.97800
 30
0.000000
  70
    32
  0
VERTEX
  8
241
  5
4AF8
 10
91.1582
 20
1.98462
 30
0.000000
  70
    32
  0
VERTEX
  8
241
  5
4AF9
 10
91.1594
 20
1.99122
 30
0.000000
  70
    32
  0
VERTEX
  8
241
  5
4AFA
 10
91.1607
 20
1.99780
 30
0.000000
  70
    32
  0
VERTEX
  8
241
  5
4AFB
 10
91.1620
 20
2.00437
 30
0.000000
  70
    32
  0
VERTEX
  8
241
  5
4AFC
 10
91.1634
 20
2.01092
 30
0.000000
  70
    32
  0
VERTEX
  8
241
  5
4AFD
 10
91.1649
 20
2.01745
 30
0.000000
  70
    32
  0
VERTEX
  8
241
  5
4AFE
 10
91.1664
 20
2.02397
 30
0.000000
  70
    32
  0
VERTEX
  8
241
  5
4AFF
 10
91.1680
 20
2.03046
 30
0.000000
  70
    32
  0
VERTEX
  8
241
  5
4B00
 10
91.1696
 20
2.03694
 30
0.000000
  70
    32
  0
VERTEX
  8
241
  5
4B01
 10
91.1713
 20
2.04340
 30
0.000000
  70
    32
  0
VERTEX
  8
241
  5
4B02
 10
91.1731
 20
2.04984
 30
0.000000
  70
    32
  0
VERTEX
  8
241
  5
4B03
 10
91.1749
 20
2.05627
 30
0.000000
  70
    32
  0
VERTEX
  8
241
  5
4B04
 10
91.1768
 20
2.06267
 30
0.000000
  70
    32
  0
VERTEX
  8
241
  5
4B05
 10
91.1787
 20
2.06905
 30
0.000000
  70
    32
  0
VERTEX
  8
241
  5
4B06
 10
91.1807
 20
2.07541
 30
0.000000
  70
    32
  0
VERTEX
  8
241
  5
4B07
 10
91.1828
 20
2.08176
 30
0.000000
  70
    32
  0
VERTEX
  8
241
  5
4B08
 10
91.1849
 20
2.08808
 30
0.000000
  70
    32
  0
VERTEX
  8
241
  5
4B09
 10
91.1870
 20
2.09438
 30
0.000000
  70
    32
  0
VERTEX
  8
241
  5
4B0A
 10
91.1892
 20
2.10066
 30
0.000000
  70
    32
  0
VERTEX
  8
241
  5
4B0B
 10
91.1915
 20
2.10692
 30
0.000000
  70
    32
  0
VERTEX
  8
241
  5
4B0C
 10
91.1938
 20
2.11316
 30
0.000000
  70
    32
  0
VERTEX
  8
241
  5
4B0D
 10
91.1962
 20
2.11938
 30
0.000000
  70
    32
  0
VERTEX
  8
241
  5
4B0E
 10
91.1986
 20
2.12557
 30
0.000000
  70
    32
  0
VERTEX
  8
241
  5
4B0F
 10
91.2011
 20
2.13174
 30
0.000000
  70
    32
  0
VERTEX
  8
241
  5
4B10
 10
91.2036
 20
2.13789
 30
0.000000
  70
    32
  0
VERTEX
  8
241
  5
4B11
 10
91.2061
 20
2.14402
 30
0.000000
  70
    32
  0
VERTEX
  8
241
  5
4B12
 10
91.2088
 20
2.15012
 30
0.000000
  70
    32
  0
VERTEX
  8
241
  5
4B13
 10
91.2114
 20
2.15620
 30
0.000000
  70
    32
  0
VERTEX
  8
241
  5
4B14
 10
91.2141
 20
2.16226
 30
0.000000
  70
    32
  0
VERTEX
  8
241
  5
4B15
 10
91.2169
 20
2.16829
 30
0.000000
  70
    32
  0
VERTEX
  8
241
  5
4B16
 10
91.2197
 20
2.17429
 30
0.000000
  70
    32
  0
VERTEX
  8
241
  5
4B17
 10
91.2226
 20
2.18028
 30
0.000000
  70
    32
  0
VERTEX
  8
241
  5
4B18
 10
91.2255
 20
2.18624
 30
0.000000
  70
    32
  0
VERTEX
  8
241
  5
4B19
 10
91.2284
 20
2.19217
 30
0.000000
  70
    32
  0
VERTEX
  8
241
  5
4B1A
 10
91.2314
 20
2.19808
 30
0.000000
  70
    32
  0
VERTEX
  8
241
  5
4B1B
 10
91.2345
 20
2.20396
 30
0.000000
  70
    32
  0
VERTEX
  8
241
  5
4B1C
 10
91.2376
 20
2.20981
 30
0.000000
  70
    32
  0
VERTEX
  8
241
  5
4B1D
 10
91.2407
 20
2.21564
 30
0.000000
  70
    32
  0
VERTEX
  8
241
  5
4B1E
 10
91.2439
 20
2.22145
 30
0.000000
  70
    32
  0
VERTEX
  8
241
  5
4B1F
 10
91.2471
 20
2.22722
 30
0.000000
  70
    32
  0
VERTEX
  8
241
  5
4B20
 10
91.2503
 20
2.23297
 30
0.000000
  70
    32
  0
VERTEX
  8
241
  5
4B21
 10
91.2536
 20
2.23869
 30
0.000000
  70
    32
  0
VERTEX
  8
241
  5
4B22
 10
91.2570
 20
2.24439
 30
0.000000
  70
    32
  0
VERTEX
  8
241
  5
4B23
 10
91.2604
 20
2.25005
 30
0.000000
  70
    32
  0
VERTEX
  8
241
  5
4B24
 10
91.2638
 20
2.25569
 30
0.000000
  70
    32
  0
VERTEX
  8
241
  5
4B25
 10
91.2673
 20
2.26130
 30
0.000000
  70
    32
  0
VERTEX
  8
241
  5
4B26
 10
91.2708
 20
2.26688
 30
0.000000
  70
    32
  0
VERTEX
  8
241
  5
4B27
 10
91.2743
 20
2.27243
 30
0.000000
  70
    32
  0
VERTEX
  8
241
  5
4B28
 10
91.2779
 20
2.27795
 30
0.000000
  70
    32
  0
VERTEX
  8
241
  5
4B29
 10
91.2815
 20
2.28345
 30
0.000000
  70
    32
  0
VERTEX
  8
241
  5
4B2A
 10
91.2851
 20
2.28891
 30
0.000000
  70
    32
  0
VERTEX
  8
241
  5
4B2B
 10
91.2888
 20
2.29434
 30
0.000000
  70
    32
  0
VERTEX
  8
241
  5
4B2C
 10
91.2925
 20
2.29975
 30
0.000000
  70
    32
  0
VERTEX
  8
241
  5
4B2D
 10
91.2963
 20
2.30512
 30
0.000000
  70
    32
  0
VERTEX
  8
241
  5
4B2E
 10
91.3001
 20
2.31046
 30
0.000000
  70
    32
  0
VERTEX
  8
241
  5
4B2F
 10
91.3039
 20
2.31577
 30
0.000000
  70
    32
  0
VERTEX
  8
241
  5
4B30
 10
91.3078
 20
2.32105
 30
0.000000
  70
    32
  0
VERTEX
  8
241
  5
4B31
 10
91.3117
 20
2.32629
 30
0.000000
  70
    32
  0
VERTEX
  8
241
  5
4B32
 10
91.3156
 20
2.33151
 30
0.000000
  70
    32
  0
VERTEX
  8
241
  5
4B33
 10
91.3195
 20
2.33669
 30
0.000000
  70
    32
  0
VERTEX
  8
241
  5
4B34
 10
91.3235
 20
2.34184
 30
0.000000
  70
    32
  0
VERTEX
  8
241
  5
4B35
 10
91.3276
 20
2.34695
 30
0.000000
  70
    32
  0
VERTEX
  8
241
  5
4B36
 10
91.3316
 20
2.35204
 30
0.000000
  70
    32
  0
VERTEX
  8
241
  5
4B37
 10
91.3357
 20
2.35709
 30
0.000000
  70
    32
  0
VERTEX
  8
241
  5
4B38
 10
91.3398
 20
2.36212
 30
0.000000
  70
    32
  0
VERTEX
  8
241
  5
4B39
 10
91.3439
 20
2.36711
 30
0.000000
  70
    32
  0
VERTEX
  8
241
  5
4B3A
 10
91.3481
 20
2.37208
 30
0.000000
  70
    32
  0
VERTEX
  8
241
  5
4B3B
 10
91.3523
 20
2.37702
 30
0.000000
  70
    32
  0
VERTEX
  8
241
  5
4B3C
 10
91.3565
 20
2.38192
 30
0.000000
  70
    32
  0
VERTEX
  8
241
  5
4B3D
 10
91.3608
 20
2.38680
 30
0.000000
  70
    32
  0
VERTEX
  8
241
  5
4B3E
 10
91.3650
 20
2.39165
 30
0.000000
  70
    32
  0
VERTEX
  8
241
  5
4B3F
 10
91.3693
 20
2.39648
 30
0.000000
  70
    32
  0
VERTEX
  8
241
  5
4B40
 10
91.3737
 20
2.40127
 30
0.000000
  70
    32
  0
VERTEX
  8
241
  5
4B41
 10
91.3780
 20
2.40603
 30
0.000000
  70
    32
  0
VERTEX
  8
241
  5
4B42
 10
91.3824
 20
2.41077
 30
0.000000
  70
    32
  0
VERTEX
  8
241
  5
4B43
 10
91.3868
 20
2.41548
 30
0.000000
  70
    32
  0
VERTEX
  8
241
  5
4B44
 10
91.3912
 20
2.42016
 30
0.000000
  70
    32
  0
VERTEX
  8
241
  5
4B45
 10
91.3957
 20
2.42481
 30
0.000000
  70
    32
  0
VERTEX
  8
241
  5
4B46
 10
91.4002
 20
2.42944
 30
0.000000
  70
    32
  0
VERTEX
  8
241
  5
4B47
 10
91.4047
 20
2.43404
 30
0.000000
  70
    32
  0
VERTEX
  8
241
  5
4B48
 10
91.4092
 20
2.43861
 30
0.000000
  70
    32
  0
VERTEX
  8
241
  5
4B49
 10
91.4138
 20
2.44315
 30
0.000000
  70
    32
  0
VERTEX
  8
241
  5
4B4A
 10
91.4184
 20
2.44766
 30
0.000000
  70
    32
  0
VERTEX
  8
241
  5
4B4B
 10
91.4230
 20
2.45215
 30
0.000000
  70
    32
  0
VERTEX
  8
241
  5
4B4C
 10
91.4276
 20
2.45661
 30
0.000000
  70
    32
  0
VERTEX
  8
241
  5
4B4D
 10
91.4322
 20
2.46105
 30
0.000000
  70
    32
  0
VERTEX
  8
241
  5
4B4E
 10
91.4369
 20
2.46546
 30
0.000000
  70
    32
  0
VERTEX
  8
241
  5
4B4F
 10
91.4416
 20
2.46984
 30
0.000000
  70
    32
  0
VERTEX
  8
241
  5
4B50
 10
91.4463
 20
2.47419
 30
0.000000
  70
    32
  0
VERTEX
  8
241
  5
4B51
 10
91.4511
 20
2.47852
 30
0.000000
  70
    32
  0
VERTEX
  8
241
  5
4B52
 10
91.4558
 20
2.48282
 30
0.000000
  70
    32
  0
VERTEX
  8
241
  5
4B53
 10
91.4606
 20
2.48709
 30
0.000000
  70
    32
  0
VERTEX
  8
241
  5
4B54
 10
91.4654
 20
2.49134
 30
0.000000
  70
    32
  0
VERTEX
  8
241
  5
4B55
 10
91.4703
 20
2.49556
 30
0.000000
  70
    32
  0
VERTEX
  8
241
  5
4B56
 10
91.4751
 20
2.49976
 30
0.000000
  70
    32
  0
VERTEX
  8
241
  5
4B57
 10
91.4800
 20
2.50393
 30
0.000000
  70
    32
  0
VERTEX
  8
241
  5
4B58
 10
91.4849
 20
2.50808
 30
0.000000
  70
    32
  0
VERTEX
  8
241
  5
4B59
 10
91.4898
 20
2.51220
 30
0.000000
  70
    32
  0
VERTEX
  8
241
  5
4B5A
 10
91.4947
 20
2.51629
 30
0.000000
  70
    32
  0
VERTEX
  8
241
  5
4B5B
 10
91.4997
 20
2.52036
 30
0.000000
  70
    32
  0
VERTEX
  8
241
  5
4B5C
 10
91.5046
 20
2.52441
 30
0.000000
  70
    32
  0
VERTEX
  8
241
  5
4B5D
 10
91.5096
 20
2.52843
 30
0.000000
  70
    32
  0
VERTEX
  8
241
  5
4B5E
 10
91.5146
 20
2.53242
 30
0.000000
  70
    32
  0
VERTEX
  8
241
  5
4B5F
 10
91.5197
 20
2.53639
 30
0.000000
  70
    32
  0
VERTEX
  8
241
  5
4B60
 10
91.5247
 20
2.54033
 30
0.000000
  70
    32
  0
VERTEX
  8
241
  5
4B61
 10
91.5298
 20
2.54425
 30
0.000000
  70
    32
  0
VERTEX
  8
241
  5
4B62
 10
91.5349
 20
2.54815
 30
0.000000
  70
    32
  0
VERTEX
  8
241
  5
4B63
 10
91.5400
 20
2.55202
 30
0.000000
  70
    32
  0
VERTEX
  8
241
  5
4B64
 10
91.5451
 20
2.55587
 30
0.000000
  70
    32
  0
VERTEX
  8
241
  5
4B65
 10
91.5502
 20
2.55969
 30
0.000000
  70
    32
  0
VERTEX
  8
241
  5
4B66
 10
91.5554
 20
2.56349
 30
0.000000
  70
    32
  0
VERTEX
  8
241
  5
4B67
 10
91.5605
 20
2.56727
 30
0.000000
  70
    32
  0
VERTEX
  8
241
  5
4B68
 10
91.5657
 20
2.57102
 30
0.000000
  70
    32
  0
VERTEX
  8
241
  5
4B69
 10
91.5709
 20
2.57475
 30
0.000000
  70
    32
  0
VERTEX
  8
241
  5
4B6A
 10
91.5762
 20
2.57845
 30
0.000000
  70
    32
  0
VERTEX
  8
241
  5
4B6B
 10
91.5814
 20
2.58213
 30
0.000000
  70
    32
  0
VERTEX
  8
241
  5
4B6C
 10
91.5866
 20
2.58579
 30
0.000000
  70
    32
  0
VERTEX
  8
241
  5
4B6D
 10
91.5919
 20
2.58942
 30
0.000000
  70
    32
  0
VERTEX
  8
241
  5
4B6E
 10
91.5972
 20
2.59304
 30
0.000000
  70
    32
  0
VERTEX
  8
241
  5
4B6F
 10
91.6025
 20
2.59662
 30
0.000000
  70
    32
  0
VERTEX
  8
241
  5
4B70
 10
91.6078
 20
2.60019
 30
0.000000
  70
    32
  0
VERTEX
  8
241
  5
4B71
 10
91.6131
 20
2.60373
 30
0.000000
  70
    32
  0
VERTEX
  8
241
  5
4B72
 10
91.6184
 20
2.60725
 30
0.000000
  70
    32
  0
VERTEX
  8
241
  5
4B73
 10
91.6238
 20
2.61075
 30
0.000000
  70
    32
  0
VERTEX
  8
241
  5
4B74
 10
91.6291
 20
2.61423
 30
0.000000
  70
    32
  0
VERTEX
  8
241
  5
4B75
 10
91.6345
 20
2.61768
 30
0.000000
  70
    32
  0
VERTEX
  8
241
  5
4B76
 10
91.6399
 20
2.62111
 30
0.000000
  70
    32
  0
VERTEX
  8
241
  5
4B77
 10
91.6453
 20
2.62452
 30
0.000000
  70
    32
  0
VERTEX
  8
241
  5
4B78
 10
91.6507
 20
2.62791
 30
0.000000
  70
    32
  0
VERTEX
  8
241
  5
4B79
 10
91.6561
 20
2.63128
 30
0.000000
  70
    32
  0
VERTEX
  8
241
  5
4B7A
 10
91.6616
 20
2.63462
 30
0.000000
  70
    32
  0
VERTEX
  8
241
  5
4B7B
 10
91.6670
 20
2.63795
 30
0.000000
  70
    32
  0
VERTEX
  8
241
  5
4B7C
 10
91.6725
 20
2.64125
 30
0.000000
  70
    32
  0
VERTEX
  8
241
  5
4B7D
 10
91.6780
 20
2.64453
 30
0.000000
  70
    32
  0
VERTEX
  8
241
  5
4B7E
 10
91.6834
 20
2.64779
 30
0.000000
  70
    32
  0
VERTEX
  8
241
  5
4B7F
 10
91.6889
 20
2.65103
 30
0.000000
  70
    32
  0
VERTEX
  8
241
  5
4B80
 10
91.6944
 20
2.65425
 30
0.000000
  70
    32
  0
VERTEX
  8
241
  5
4B81
 10
91.6999
 20
2.65745
 30
0.000000
  70
    32
  0
VERTEX
  8
241
  5
4B82
 10
91.7055
 20
2.66063
 30
0.000000
  70
    32
  0
VERTEX
  8
241
  5
4B83
 10
91.7110
 20
2.66379
 30
0.000000
  70
    32
  0
VERTEX
  8
241
  5
4B84
 10
91.7166
 20
2.66694
 30
0.000000
  70
    32
  0
VERTEX
  8
241
  5
4B85
 10
91.7221
 20
2.67006
 30
0.000000
  70
    32
  0
VERTEX
  8
241
  5
4B86
 10
91.7277
 20
2.67317
 30
0.000000
  70
    32
  0
VERTEX
  8
241
  5
4B87
 10
91.7333
 20
2.67625
 30
0.000000
  70
    32
  0
VERTEX
  8
241
  5
4B88
 10
91.7388
 20
2.67932
 30
0.000000
  70
    32
  0
VERTEX
  8
241
  5
4B89
 10
91.7444
 20
2.68237
 30
0.000000
  70
    32
  0
VERTEX
  8
241
  5
4B8A
 10
91.7501
 20
2.68540
 30
0.000000
  70
    32
  0
VERTEX
  8
241
  5
4B8B
 10
91.7557
 20
2.68841
 30
0.000000
  70
    32
  0
VERTEX
  8
241
  5
4B8C
 10
91.7613
 20
2.69140
 30
0.000000
  70
    32
  0
VERTEX
  8
241
  5
4B8D
 10
91.7670
 20
2.69437
 30
0.000000
  70
    32
  0
VERTEX
  8
241
  5
4B8E
 10
91.7726
 20
2.69733
 30
0.000000
  70
    32
  0
VERTEX
  8
241
  5
4B8F
 10
91.7783
 20
2.70027
 30
0.000000
  70
    32
  0
VERTEX
  8
241
  5
4B90
 10
91.7839
 20
2.70319
 30
0.000000
  70
    32
  0
VERTEX
  8
241
  5
4B91
 10
91.7896
 20
2.70609
 30
0.000000
  70
    32
  0
VERTEX
  8
241
  5
4B92
 10
91.7953
 20
2.70897
 30
0.000000
  70
    32
  0
VERTEX
  8
241
  5
4B93
 10
91.8010
 20
2.71183
 30
0.000000
  70
    32
  0
VERTEX
  8
241
  5
4B94
 10
91.8067
 20
2.71468
 30
0.000000
  70
    32
  0
VERTEX
  8
241
  5
4B95
 10
91.8124
 20
2.71751
 30
0.000000
  70
    32
  0
VERTEX
  8
241
  5
4B96
 10
91.8182
 20
2.72032
 30
0.000000
  70
    32
  0
VERTEX
  8
241
  5
4B97
 10
91.8239
 20
2.72312
 30
0.000000
  70
    32
  0
VERTEX
  8
241
  5
4B98
 10
91.8297
 20
2.72589
 30
0.000000
  70
    32
  0
VERTEX
  8
241
  5
4B99
 10
91.8354
 20
2.72865
 30
0.000000
  70
    32
  0
VERTEX
  8
241
  5
4B9A
 10
91.8412
 20
2.73140
 30
0.000000
  70
    32
  0
VERTEX
  8
241
  5
4B9B
 10
91.8470
 20
2.73412
 30
0.000000
  70
    32
  0
VERTEX
  8
241
  5
4B9C
 10
91.8528
 20
2.73683
 30
0.000000
  70
    32
  0
VERTEX
  8
241
  5
4B9D
 10
91.8586
 20
2.73952
 30
0.000000
  70
    32
  0
VERTEX
  8
241
  5
4B9E
 10
91.8644
 20
2.74219
 30
0.000000
  70
    32
  0
VERTEX
  8
241
  5
4B9F
 10
91.8702
 20
2.74485
 30
0.000000
  70
    32
  0
VERTEX
  8
241
  5
4BA0
 10
91.8760
 20
2.74749
 30
0.000000
  70
    32
  0
VERTEX
  8
241
  5
4BA1
 10
91.8818
 20
2.75011
 30
0.000000
  70
    32
  0
VERTEX
  8
241
  5
4BA2
 10
91.8877
 20
2.75272
 30
0.000000
  70
    32
  0
VERTEX
  8
241
  5
4BA3
 10
91.8935
 20
2.75531
 30
0.000000
  70
    32
  0
VERTEX
  8
241
  5
4BA4
 10
91.8994
 20
2.75788
 30
0.000000
  70
    32
  0
VERTEX
  8
241
  5
4BA5
 10
91.9053
 20
2.76044
 30
0.000000
  70
    32
  0
VERTEX
  8
241
  5
4BA6
 10
91.9111
 20
2.76298
 30
0.000000
  70
    32
  0
VERTEX
  8
241
  5
4BA7
 10
91.9170
 20
2.76550
 30
0.000000
  70
    32
  0
VERTEX
  8
241
  5
4BA8
 10
91.9229
 20
2.76801
 30
0.000000
  70
    32
  0
VERTEX
  8
241
  5
4BA9
 10
91.9288
 20
2.77050
 30
0.000000
  70
    32
  0
VERTEX
  8
241
  5
4BAA
 10
91.9347
 20
2.77298
 30
0.000000
  70
    32
  0
VERTEX
  8
241
  5
4BAB
 10
91.9407
 20
2.77544
 30
0.000000
  70
    32
  0
VERTEX
  8
241
  5
4BAC
 10
91.9466
 20
2.77789
 30
0.000000
  70
    32
  0
VERTEX
  8
241
  5
4BAD
 10
91.9525
 20
2.78031
 30
0.000000
  70
    32
  0
VERTEX
  8
241
  5
4BAE
 10
91.9585
 20
2.78273
 30
0.000000
  70
    32
  0
VERTEX
  8
241
  5
4BAF
 10
91.9644
 20
2.78513
 30
0.000000
  70
    32
  0
VERTEX
  8
241
  5
4BB0
 10
91.9704
 20
2.78751
 30
0.000000
  70
    32
  0
VERTEX
  8
241
  5
4BB1
 10
91.9764
 20
2.78988
 30
0.000000
  70
    32
  0
VERTEX
  8
241
  5
4BB2
 10
91.9823
 20
2.79223
 30
0.000000
  70
    32
  0
VERTEX
  8
241
  5
4BB3
 10
91.9883
 20
2.79456
 30
0.000000
  70
    32
  0
VERTEX
  8
241
  5
4BB4
 10
91.9943
 20
2.79689
 30
0.000000
  70
    32
  0
VERTEX
  8
241
  5
4BB5
 10
92.0003
 20
2.79919
 30
0.000000
  70
    32
  0
VERTEX
  8
241
  5
4BB6
 10
92.0063
 20
2.80148
 30
0.000000
  70
    32
  0
VERTEX
  8
241
  5
4BB7
 10
92.0124
 20
2.80376
 30
0.000000
  70
    32
  0
VERTEX
  8
241
  5
4BB8
 10
92.0184
 20
2.80602
 30
0.000000
  70
    32
  0
VERTEX
  8
241
  5
4BB9
 10
92.0244
 20
2.80827
 30
0.000000
  70
    32
  0
VERTEX
  8
241
  5
4BBA
 10
92.0305
 20
2.81050
 30
0.000000
  70
    32
  0
VERTEX
  8
241
  5
4BBB
 10
92.0365
 20
2.81272
 30
0.000000
  70
    32
  0
VERTEX
  8
241
  5
4BBC
 10
92.0426
 20
2.81493
 30
0.000000
  70
    32
  0
VERTEX
  8
241
  5
4BBD
 10
92.0486
 20
2.81711
 30
0.000000
  70
    32
  0
VERTEX
  8
241
  5
4BBE
 10
92.0547
 20
2.81929
 30
0.000000
  70
    32
  0
VERTEX
  8
241
  5
4BBF
 10
92.0608
 20
2.82145
 30
0.000000
  70
    32
  0
VERTEX
  8
241
  5
4BC0
 10
92.0669
 20
2.82360
 30
0.000000
  70
    32
  0
VERTEX
  8
241
  5
4BC1
 10
92.0730
 20
2.82573
 30
0.000000
  70
    32
  0
VERTEX
  8
241
  5
4BC2
 10
92.0791
 20
2.82785
 30
0.000000
  70
    32
  0
VERTEX
  8
241
  5
4BC3
 10
92.0852
 20
2.82996
 30
0.000000
  70
    32
  0
VERTEX
  8
241
  5
4BC4
 10
92.0913
 20
2.83205
 30
0.000000
  70
    32
  0
VERTEX
  8
241
  5
4BC5
 10
92.0974
 20
2.83413
 30
0.000000
  70
    32
  0
VERTEX
  8
241
  5
4BC6
 10
92.1035
 20
2.83619
 30
0.000000
  70
    32
  0
VERTEX
  8
241
  5
4BC7
 10
92.1097
 20
2.83824
 30
0.000000
  70
    32
  0
VERTEX
  8
241
  5
4BC8
 10
92.1158
 20
2.84028
 30
0.000000
  70
    32
  0
VERTEX
  8
241
  5
4BC9
 10
92.1220
 20
2.84230
 30
0.000000
  70
    32
  0
VERTEX
  8
241
  5
4BCA
 10
92.1281
 20
2.84432
 30
0.000000
  70
    32
  0
VERTEX
  8
241
  5
4BCB
 10
92.1343
 20
2.84631
 30
0.000000
  70
    32
  0
VERTEX
  8
241
  5
4BCC
 10
92.1404
 20
2.84830
 30
0.000000
  70
    32
  0
VERTEX
  8
241
  5
4BCD
 10
92.1466
 20
2.85027
 30
0.000000
  70
    32
  0
VERTEX
  8
241
  5
4BCE
 10
92.1528
 20
2.85223
 30
0.000000
  70
    32
  0
VERTEX
  8
241
  5
4BCF
 10
92.1590
 20
2.85418
 30
0.000000
  70
    32
  0
VERTEX
  8
241
  5
4BD0
 10
92.1652
 20
2.85611
 30
0.000000
  70
    32
  0
VERTEX
  8
241
  5
4BD1
 10
92.1714
 20
2.85803
 30
0.000000
  70
    32
  0
VERTEX
  8
241
  5
4BD2
 10
92.1776
 20
2.85994
 30
0.000000
  70
    32
  0
VERTEX
  8
241
  5
4BD3
 10
92.1838
 20
2.86184
 30
0.000000
  70
    32
  0
VERTEX
  8
241
  5
4BD4
 10
92.1900
 20
2.86372
 30
0.000000
  70
    32
  0
VERTEX
  8
241
  5
4BD5
 10
92.1962
 20
2.86559
 30
0.000000
  70
    32
  0
VERTEX
  8
241
  5
4BD6
 10
92.2025
 20
2.86745
 30
0.000000
  70
    32
  0
VERTEX
  8
241
  5
4BD7
 10
92.2087
 20
2.86930
 30
0.000000
  70
    32
  0
VERTEX
  8
241
  5
4BD8
 10
92.2149
 20
2.87114
 30
0.000000
  70
    32
  0
VERTEX
  8
241
  5
4BD9
 10
92.2212
 20
2.87296
 30
0.000000
  70
    32
  0
VERTEX
  8
241
  5
4BDA
 10
92.2274
 20
2.87477
 30
0.000000
  70
    32
  0
VERTEX
  8
241
  5
4BDB
 10
92.2337
 20
2.87657
 30
0.000000
  70
    32
  0
VERTEX
  8
241
  5
4BDC
 10
92.2400
 20
2.87836
 30
0.000000
  70
    32
  0
VERTEX
  8
241
  5
4BDD
 10
92.2462
 20
2.88014
 30
0.000000
  70
    32
  0
VERTEX
  8
241
  5
4BDE
 10
92.2525
 20
2.88190
 30
0.000000
  70
    32
  0
VERTEX
  8
241
  5
4BDF
 10
92.2588
 20
2.88365
 30
0.000000
  70
    32
  0
VERTEX
  8
241
  5
4BE0
 10
92.2651
 20
2.88540
 30
0.000000
  70
    32
  0
VERTEX
  8
241
  5
4BE1
 10
92.2714
 20
2.88713
 30
0.000000
  70
    32
  0
VERTEX
  8
241
  5
4BE2
 10
92.2777
 20
2.88885
 30
0.000000
  70
    32
  0
VERTEX
  8
241
  5
4BE3
 10
92.2840
 20
2.89056
 30
0.000000
  70
    32
  0
VERTEX
  8
241
  5
4BE4
 10
92.2903
 20
2.89226
 30
0.000000
  70
    32
  0
VERTEX
  8
241
  5
4BE5
 10
92.2966
 20
2.89394
 30
0.000000
  70
    32
  0
VERTEX
  8
241
  5
4BE6
 10
92.3029
 20
2.89562
 30
0.000000
  70
    32
  0
VERTEX
  8
241
  5
4BE7
 10
92.3092
 20
2.89729
 30
0.000000
  70
    32
  0
VERTEX
  8
241
  5
4BE8
 10
92.3156
 20
2.89894
 30
0.000000
  70
    32
  0
VERTEX
  8
241
  5
4BE9
 10
92.3219
 20
2.90059
 30
0.000000
  70
    32
  0
VERTEX
  8
241
  5
4BEA
 10
92.3282
 20
2.90222
 30
0.000000
  70
    32
  0
VERTEX
  8
241
  5
4BEB
 10
92.3346
 20
2.90384
 30
0.000000
  70
    32
  0
VERTEX
  8
241
  5
4BEC
 10
92.3409
 20
2.90546
 30
0.000000
  70
    32
  0
VERTEX
  8
241
  5
4BED
 10
92.3473
 20
2.90706
 30
0.000000
  70
    32
  0
VERTEX
  8
241
  5
4BEE
 10
92.3536
 20
2.90865
 30
0.000000
  70
    32
  0
VERTEX
  8
241
  5
4BEF
 10
92.3600
 20
2.91024
 30
0.000000
  70
    32
  0
VERTEX
  8
241
  5
4BF0
 10
92.3663
 20
2.91181
 30
0.000000
  70
    32
  0
VERTEX
  8
241
  5
4BF1
 10
92.3727
 20
2.91337
 30
0.000000
  70
    32
  0
VERTEX
  8
241
  5
4BF2
 10
92.3791
 20
2.91493
 30
0.000000
  70
    32
  0
VERTEX
  8
241
  5
4BF3
 10
92.3855
 20
2.91647
 30
0.000000
  70
    32
  0
VERTEX
  8
241
  5
4BF4
 10
92.3918
 20
2.91801
 30
0.000000
  70
    32
  0
VERTEX
  8
241
  5
4BF5
 10
92.3982
 20
2.91953
 30
0.000000
  70
    32
  0
VERTEX
  8
241
  5
4BF6
 10
92.4046
 20
2.92105
 30
0.000000
  70
    32
  0
VERTEX
  8
241
  5
4BF7
 10
92.4110
 20
2.92255
 30
0.000000
  70
    32
  0
VERTEX
  8
241
  5
4BF8
 10
92.4174
 20
2.92405
 30
0.000000
  70
    32
  0
VERTEX
  8
241
  5
4BF9
 10
92.4238
 20
2.92554
 30
0.000000
  70
    32
  0
VERTEX
  8
241
  5
4BFA
 10
92.4302
 20
2.92702
 30
0.000000
  70
    32
  0
VERTEX
  8
241
  5
4BFB
 10
92.4366
 20
2.92849
 30
0.000000
  70
    32
  0
VERTEX
  8
241
  5
4BFC
 10
92.4430
 20
2.92995
 30
0.000000
  70
    32
  0
VERTEX
  8
241
  5
4BFD
 10
92.4494
 20
2.93140
 30
0.000000
  70
    32
  0
VERTEX
  8
241
  5
4BFE
 10
92.4559
 20
2.93284
 30
0.000000
  70
    32
  0
VERTEX
  8
241
  5
4BFF
 10
92.4623
 20
2.93428
 30
0.000000
  70
    32
  0
VERTEX
  8
241
  5
4C00
 10
92.4687
 20
2.93570
 30
0.000000
  70
    32
  0
VERTEX
  8
241
  5
4C01
 10
92.4751
 20
2.93712
 30
0.000000
  70
    32
  0
VERTEX
  8
241
  5
4C02
 10
92.4816
 20
2.93853
 30
0.000000
  70
    32
  0
VERTEX
  8
241
  5
4C03
 10
92.4880
 20
2.93993
 30
0.000000
  70
    32
  0
VERTEX
  8
241
  5
4C04
 10
92.4944
 20
2.94132
 30
0.000000
  70
    32
  0
VERTEX
  8
241
  5
4C05
 10
92.5009
 20
2.94271
 30
0.000000
  70
    32
  0
VERTEX
  8
241
  5
4C06
 10
92.5073
 20
2.94409
 30
0.000000
  70
    32
  0
VERTEX
  8
241
  5
4C07
 10
92.5138
 20
2.94545
 30
0.000000
  70
    32
  0
VERTEX
  8
241
  5
4C08
 10
92.5202
 20
2.94681
 30
0.000000
  70
    32
  0
VERTEX
  8
241
  5
4C09
 10
92.5267
 20
2.94817
 30
0.000000
  70
    32
  0
VERTEX
  8
241
  5
4C0A
 10
92.5331
 20
2.94951
 30
0.000000
  70
    32
  0
VERTEX
  8
241
  5
4C0B
 10
92.5396
 20
2.95085
 30
0.000000
  70
    32
  0
VERTEX
  8
241
  5
4C0C
 10
92.5461
 20
2.95218
 30
0.000000
  70
    32
  0
VERTEX
  8
241
  5
4C0D
 10
92.5525
 20
2.95350
 30
0.000000
  70
    32
  0
SEQEND
  8
241
  5
4C0E
  0
LINE
  5
4341
  8
241
  6
CONTINUOUS
 10
92.552529855093425
 20
-10.02839894334921
 30
0.0
 11
92.552529855093425
 21
1.028570191305179
 31
0.0
  0
POLYLINE
  5
4342
  8
241
  6
CONTINUOUS
 10
92.552529855093397
 20
1.0285701913051843
 30
0.0
 66
     1
 70
     8
  0
VERTEX
  8
241
  5
4C0F
 10
92.5525
 20
1.02857
 30
0.000000
  70
    32
  0
VERTEX
  8
241
  5
4C10
 10
92.6270
 20
1.02740
 30
0.000000
  70
    32
  0
VERTEX
  8
241
  5
4C11
 10
92.7021
 20
1.02710
 30
0.000000
  70
    32
  0
VERTEX
  8
241
  5
4C12
 10
92.7777
 20
1.02767
 30
0.000000
  70
    32
  0
VERTEX
  8
241
  5
4C13
 10
92.8538
 20
1.02912
 30
0.000000
  70
    32
  0
VERTEX
  8
241
  5
4C14
 10
92.9302
 20
1.03144
 30
0.000000
  70
    32
  0
VERTEX
  8
241
  5
4C15
 10
93.0070
 20
1.03463
 30
0.000000
  70
    32
  0
VERTEX
  8
241
  5
4C16
 10
93.0840
 20
1.03869
 30
0.000000
  70
    32
  0
VERTEX
  8
241
  5
4C17
 10
93.1612
 20
1.04361
 30
0.000000
  70
    32
  0
VERTEX
  8
241
  5
4C18
 10
93.2386
 20
1.04939
 30
0.000000
  70
    32
  0
VERTEX
  8
241
  5
4C19
 10
93.3160
 20
1.05603
 30
0.000000
  70
    32
  0
VERTEX
  8
241
  5
4C1A
 10
93.3934
 20
1.06352
 30
0.000000
  70
    32
  0
VERTEX
  8
241
  5
4C1B
 10
93.4708
 20
1.07185
 30
0.000000
  70
    32
  0
VERTEX
  8
241
  5
4C1C
 10
93.5480
 20
1.08102
 30
0.000000
  70
    32
  0
VERTEX
  8
241
  5
4C1D
 10
93.6250
 20
1.09101
 30
0.000000
  70
    32
  0
VERTEX
  8
241
  5
4C1E
 10
93.7018
 20
1.10183
 30
0.000000
  70
    32
  0
VERTEX
  8
241
  5
4C1F
 10
93.7782
 20
1.11345
 30
0.000000
  70
    32
  0
VERTEX
  8
241
  5
4C20
 10
93.8543
 20
1.12588
 30
0.000000
  70
    32
  0
VERTEX
  8
241
  5
4C21
 10
93.9299
 20
1.13910
 30
0.000000
  70
    32
  0
VERTEX
  8
241
  5
4C22
 10
94.0049
 20
1.15310
 30
0.000000
  70
    32
  0
VERTEX
  8
241
  5
4C23
 10
94.0794
 20
1.16786
 30
0.000000
  70
    32
  0
VERTEX
  8
241
  5
4C24
 10
94.1533
 20
1.18338
 30
0.000000
  70
    32
  0
VERTEX
  8
241
  5
4C25
 10
94.2264
 20
1.19965
 30
0.000000
  70
    32
  0
VERTEX
  8
241
  5
4C26
 10
94.2988
 20
1.21664
 30
0.000000
  70
    32
  0
VERTEX
  8
241
  5
4C27
 10
94.3703
 20
1.23434
 30
0.000000
  70
    32
  0
VERTEX
  8
241
  5
4C28
 10
94.4409
 20
1.25274
 30
0.000000
  70
    32
  0
VERTEX
  8
241
  5
4C29
 10
94.5106
 20
1.27183
 30
0.000000
  70
    32
  0
VERTEX
  8
241
  5
4C2A
 10
94.5793
 20
1.29158
 30
0.000000
  70
    32
  0
VERTEX
  8
241
  5
4C2B
 10
94.6469
 20
1.31199
 30
0.000000
  70
    32
  0
VERTEX
  8
241
  5
4C2C
 10
94.7134
 20
1.33302
 30
0.000000
  70
    32
  0
VERTEX
  8
241
  5
4C2D
 10
94.7787
 20
1.35468
 30
0.000000
  70
    32
  0
VERTEX
  8
241
  5
4C2E
 10
94.8427
 20
1.37693
 30
0.000000
  70
    32
  0
VERTEX
  8
241
  5
4C2F
 10
94.9055
 20
1.39975
 30
0.000000
  70
    32
  0
VERTEX
  8
241
  5
4C30
 10
94.9669
 20
1.42314
 30
0.000000
  70
    32
  0
VERTEX
  8
241
  5
4C31
 10
95.0269
 20
1.44707
 30
0.000000
  70
    32
  0
VERTEX
  8
241
  5
4C32
 10
95.0855
 20
1.47151
 30
0.000000
  70
    32
  0
VERTEX
  8
241
  5
4C33
 10
95.1426
 20
1.49645
 30
0.000000
  70
    32
  0
VERTEX
  8
241
  5
4C34
 10
95.1981
 20
1.52187
 30
0.000000
  70
    32
  0
VERTEX
  8
241
  5
4C35
 10
95.2521
 20
1.54775
 30
0.000000
  70
    32
  0
VERTEX
  8
241
  5
4C36
 10
95.3044
 20
1.57406
 30
0.000000
  70
    32
  0
VERTEX
  8
241
  5
4C37
 10
95.3550
 20
1.60078
 30
0.000000
  70
    32
  0
VERTEX
  8
241
  5
4C38
 10
95.4039
 20
1.62789
 30
0.000000
  70
    32
  0
VERTEX
  8
241
  5
4C39
 10
95.4510
 20
1.65536
 30
0.000000
  70
    32
  0
VERTEX
  8
241
  5
4C3A
 10
95.4963
 20
1.68318
 30
0.000000
  70
    32
  0
VERTEX
  8
241
  5
4C3B
 10
95.5398
 20
1.71132
 30
0.000000
  70
    32
  0
VERTEX
  8
241
  5
4C3C
 10
95.5814
 20
1.73975
 30
0.000000
  70
    32
  0
VERTEX
  8
241
  5
4C3D
 10
95.6211
 20
1.76846
 30
0.000000
  70
    32
  0
VERTEX
  8
241
  5
4C3E
 10
95.6588
 20
1.79741
 30
0.000000
  70
    32
  0
VERTEX
  8
241
  5
4C3F
 10
95.6946
 20
1.82658
 30
0.000000
  70
    32
  0
VERTEX
  8
241
  5
4C40
 10
95.7283
 20
1.85595
 30
0.000000
  70
    32
  0
VERTEX
  8
241
  5
4C41
 10
95.7600
 20
1.88550
 30
0.000000
  70
    32
  0
VERTEX
  8
241
  5
4C42
 10
95.7896
 20
1.91519
 30
0.000000
  70
    32
  0
VERTEX
  8
241
  5
4C43
 10
95.8172
 20
1.94501
 30
0.000000
  70
    32
  0
VERTEX
  8
241
  5
4C44
 10
95.8426
 20
1.97492
 30
0.000000
  70
    32
  0
VERTEX
  8
241
  5
4C45
 10
95.8658
 20
2.00491
 30
0.000000
  70
    32
  0
VERTEX
  8
241
  5
4C46
 10
95.8870
 20
2.03494
 30
0.000000
  70
    32
  0
VERTEX
  8
241
  5
4C47
 10
95.9059
 20
2.06500
 30
0.000000
  70
    32
  0
VERTEX
  8
241
  5
4C48
 10
95.9227
 20
2.09505
 30
0.000000
  70
    32
  0
VERTEX
  8
241
  5
4C49
 10
95.9372
 20
2.12507
 30
0.000000
  70
    32
  0
VERTEX
  8
241
  5
4C4A
 10
95.9496
 20
2.15504
 30
0.000000
  70
    32
  0
VERTEX
  8
241
  5
4C4B
 10
95.9597
 20
2.18492
 30
0.000000
  70
    32
  0
VERTEX
  8
241
  5
4C4C
 10
95.9675
 20
2.21471
 30
0.000000
  70
    32
  0
VERTEX
  8
241
  5
4C4D
 10
95.9732
 20
2.24436
 30
0.000000
  70
    32
  0
VERTEX
  8
241
  5
4C4E
 10
95.9765
 20
2.27385
 30
0.000000
  70
    32
  0
VERTEX
  8
241
  5
4C4F
 10
95.9777
 20
2.30317
 30
0.000000
  70
    32
  0
VERTEX
  8
241
  5
4C50
 10
95.9765
 20
2.33228
 30
0.000000
  70
    32
  0
VERTEX
  8
241
  5
4C51
 10
95.9732
 20
2.36116
 30
0.000000
  70
    32
  0
VERTEX
  8
241
  5
4C52
 10
95.9675
 20
2.38979
 30
0.000000
  70
    32
  0
VERTEX
  8
241
  5
4C53
 10
95.9597
 20
2.41814
 30
0.000000
  70
    32
  0
VERTEX
  8
241
  5
4C54
 10
95.9496
 20
2.44618
 30
0.000000
  70
    32
  0
VERTEX
  8
241
  5
4C55
 10
95.9372
 20
2.47390
 30
0.000000
  70
    32
  0
VERTEX
  8
241
  5
4C56
 10
95.9227
 20
2.50127
 30
0.000000
  70
    32
  0
VERTEX
  8
241
  5
4C57
 10
95.9059
 20
2.52827
 30
0.000000
  70
    32
  0
VERTEX
  8
241
  5
4C58
 10
95.8870
 20
2.55487
 30
0.000000
  70
    32
  0
VERTEX
  8
241
  5
4C59
 10
95.8658
 20
2.58105
 30
0.000000
  70
    32
  0
VERTEX
  8
241
  5
4C5A
 10
95.8426
 20
2.60679
 30
0.000000
  70
    32
  0
VERTEX
  8
241
  5
4C5B
 10
95.8172
 20
2.63208
 30
0.000000
  70
    32
  0
VERTEX
  8
241
  5
4C5C
 10
95.7896
 20
2.65687
 30
0.000000
  70
    32
  0
VERTEX
  8
241
  5
4C5D
 10
95.7600
 20
2.68117
 30
0.000000
  70
    32
  0
VERTEX
  8
241
  5
4C5E
 10
95.7283
 20
2.70494
 30
0.000000
  70
    32
  0
VERTEX
  8
241
  5
4C5F
 10
95.6946
 20
2.72816
 30
0.000000
  70
    32
  0
VERTEX
  8
241
  5
4C60
 10
95.6588
 20
2.75082
 30
0.000000
  70
    32
  0
VERTEX
  8
241
  5
4C61
 10
95.6211
 20
2.77289
 30
0.000000
  70
    32
  0
VERTEX
  8
241
  5
4C62
 10
95.5814
 20
2.79436
 30
0.000000
  70
    32
  0
VERTEX
  8
241
  5
4C63
 10
95.5398
 20
2.81522
 30
0.000000
  70
    32
  0
VERTEX
  8
241
  5
4C64
 10
95.4963
 20
2.83543
 30
0.000000
  70
    32
  0
VERTEX
  8
241
  5
4C65
 10
95.4510
 20
2.85499
 30
0.000000
  70
    32
  0
VERTEX
  8
241
  5
4C66
 10
95.4039
 20
2.87387
 30
0.000000
  70
    32
  0
VERTEX
  8
241
  5
4C67
 10
95.3550
 20
2.89207
 30
0.000000
  70
    32
  0
VERTEX
  8
241
  5
4C68
 10
95.3044
 20
2.90957
 30
0.000000
  70
    32
  0
VERTEX
  8
241
  5
4C69
 10
95.2521
 20
2.92634
 30
0.000000
  70
    32
  0
VERTEX
  8
241
  5
4C6A
 10
95.1981
 20
2.94239
 30
0.000000
  70
    32
  0
VERTEX
  8
241
  5
4C6B
 10
95.1426
 20
2.95768
 30
0.000000
  70
    32
  0
VERTEX
  8
241
  5
4C6C
 10
95.0855
 20
2.97222
 30
0.000000
  70
    32
  0
VERTEX
  8
241
  5
4C6D
 10
95.0269
 20
2.98599
 30
0.000000
  70
    32
  0
VERTEX
  8
241
  5
4C6E
 10
94.9669
 20
2.99898
 30
0.000000
  70
    32
  0
VERTEX
  8
241
  5
4C6F
 10
94.9055
 20
3.01117
 30
0.000000
  70
    32
  0
VERTEX
  8
241
  5
4C70
 10
94.8427
 20
3.02256
 30
0.000000
  70
    32
  0
VERTEX
  8
241
  5
4C71
 10
94.7787
 20
3.03313
 30
0.000000
  70
    32
  0
VERTEX
  8
241
  5
4C72
 10
94.7134
 20
3.04288
 30
0.000000
  70
    32
  0
VERTEX
  8
241
  5
4C73
 10
94.6469
 20
3.05180
 30
0.000000
  70
    32
  0
VERTEX
  8
241
  5
4C74
 10
94.5793
 20
3.05989
 30
0.000000
  70
    32
  0
VERTEX
  8
241
  5
4C75
 10
94.5106
 20
3.06712
 30
0.000000
  70
    32
  0
VERTEX
  8
241
  5
4C76
 10
94.4409
 20
3.07351
 30
0.000000
  70
    32
  0
VERTEX
  8
241
  5
4C77
 10
94.3703
 20
3.07904
 30
0.000000
  70
    32
  0
VERTEX
  8
241
  5
4C78
 10
94.2988
 20
3.08370
 30
0.000000
  70
    32
  0
VERTEX
  8
241
  5
4C79
 10
94.2264
 20
3.08751
 30
0.000000
  70
    32
  0
VERTEX
  8
241
  5
4C7A
 10
94.1533
 20
3.09044
 30
0.000000
  70
    32
  0
VERTEX
  8
241
  5
4C7B
 10
94.0794
 20
3.09250
 30
0.000000
  70
    32
  0
VERTEX
  8
241
  5
4C7C
 10
94.0049
 20
3.09369
 30
0.000000
  70
    32
  0
VERTEX
  8
241
  5
4C7D
 10
93.9299
 20
3.09401
 30
0.000000
  70
    32
  0
VERTEX
  8
241
  5
4C7E
 10
93.8543
 20
3.09345
 30
0.000000
  70
    32
  0
VERTEX
  8
241
  5
4C7F
 10
93.7782
 20
3.09202
 30
0.000000
  70
    32
  0
VERTEX
  8
241
  5
4C80
 10
93.7018
 20
3.08971
 30
0.000000
  70
    32
  0
VERTEX
  8
241
  5
4C81
 10
93.6250
 20
3.08654
 30
0.000000
  70
    32
  0
VERTEX
  8
241
  5
4C82
 10
93.5480
 20
3.08249
 30
0.000000
  70
    32
  0
VERTEX
  8
241
  5
4C83
 10
93.4708
 20
3.07759
 30
0.000000
  70
    32
  0
VERTEX
  8
241
  5
4C84
 10
93.3934
 20
3.07182
 30
0.000000
  70
    32
  0
VERTEX
  8
241
  5
4C85
 10
93.3160
 20
3.06519
 30
0.000000
  70
    32
  0
VERTEX
  8
241
  5
4C86
 10
93.2386
 20
3.05772
 30
0.000000
  70
    32
  0
VERTEX
  8
241
  5
4C87
 10
93.1612
 20
3.04941
 30
0.000000
  70
    32
  0
VERTEX
  8
241
  5
4C88
 10
93.0840
 20
3.04025
 30
0.000000
  70
    32
  0
VERTEX
  8
241
  5
4C89
 10
93.0070
 20
3.03027
 30
0.000000
  70
    32
  0
VERTEX
  8
241
  5
4C8A
 10
92.9302
 20
3.01947
 30
0.000000
  70
    32
  0
VERTEX
  8
241
  5
4C8B
 10
92.8538
 20
3.00786
 30
0.000000
  70
    32
  0
VERTEX
  8
241
  5
4C8C
 10
92.7777
 20
2.99544
 30
0.000000
  70
    32
  0
VERTEX
  8
241
  5
4C8D
 10
92.7021
 20
2.98224
 30
0.000000
  70
    32
  0
VERTEX
  8
241
  5
4C8E
 10
92.6270
 20
2.96826
 30
0.000000
  70
    32
  0
VERTEX
  8
241
  5
4C8F
 10
92.5525
 20
2.95350
 30
0.000000
  70
    32
  0
SEQEND
  8
241
  5
4C90
  0
LINE
  5
4345
  8
241
  6
CONTINUOUS
 10
94.789742943764935
 20
-2.6103114155591931
 30
0.0
 11
95.219659520767706
 21
-2.1515351852227691
 31
0.0
  0
ARC
  5
4346
  8
241
  6
CONTINUOUS
 10
96.203852398094398
 20
-3.9923894616385791
 30
0.0
 40
1.9773328688611289
 50
135.65631658555711
 51
315.53431825978328
  0
LINE
  5
4347
  8
241
  6
CONTINUOUS
 10
99.870494209507115
 20
-2.9705901434112949
 30
0.0
 11
97.615015828272846
 21
-5.3774753967363003
 31
0.0
  0
LINE
  5
4348
  8
240
  6
CONTINUOUS
 10
108.8
 20
-0.5779362780397057
 30
0.0
 11
108.8
 21
-1.000000000000014
 31
0.0
  0
LINE
  5
43AD
  8
245
  6
CENTER2
 10
-3.150847844432632
 20
0.0
 30
0.0
 11
113.5527447256447
 21
0.0
 31
0.0
  0
ARC
  5
43AE
  8
241
  6
CONTINUOUS
 10
92.814393812160262
 20
3.7284079916520949
 30
0.0
 40
6.3054308911823087
 50
92.380172910096874
 51
131.894802057905
  0
LINE
  5
43C4
  8
241
  6
CONTINUOUS
 10
92.552529855093425
 20
10.028398943349201
 30
0.0
 11
98.45505532167283
 21
10.5408470548417
 31
0.0
  0
LINE
  5
43C5
  8
241
  6
CONTINUOUS
 10
99.100000000000037
 20
-10.441129082020479
 30
0.0
 11
92.552529855093425
 21
-10.02839894334921
 31
0.0
  0
LINE
  5
43C6
  8
240
  6
CONTINUOUS
 10
97.895753826885155
 20
10.699999999999999
 30
0.0
 11
98.45505532167283
 21
10.5408470548417
 31
0.0
  0
LINE
  5
43C7
  8
240
  6
CONTINUOUS
 10
98.45505532167283
 20
10.5408470548417
 30
0.0
 11
98.511447135093491
 21
10.133583439166991
 31
0.0
  0
ARC
  5
43C8
  8
241
  6
CONTINUOUS
 10
93.857002976750863
 20
-1.165582880692221
 30
0.0
 40
8.9583011048757086
 50
234.09798445754481
 51
261.62704057445399
  0
LINE
  5
4585
  8
241
  6
CONTINUOUS
 10
98.624443449891572
 20
10.55529142706151
 30
0.0
 11
94.892448046992058
 21
-3.372705030172968
 31
0.0
  0
ARC
  5
4586
  8
241
  6
CONTINUOUS
 10
95.472003542765506
 20
-3.5279964572344702
 30
0.0
 40
0.6000000000000042
 50
165.00000000000111
 51
285.00000000000131
  0
LINE
  5
4587
  8
241
  6
CONTINUOUS
 10
95.627294969827034
 20
-4.1075519530079152
 30
0.0
 11
109.5552914270615
 21
-0.3755565501084299
 31
0.0
  0
ARC
  5
4588
  8
241
  6
CONTINUOUS
 10
109.39999999999991
 20
0.2039989456650222
 30
0.0
 40
0.6000000000000147
 50
285.00000000000108
 51
45.000000000000689
  0
LINE
  5
4589
  8
241
  6
CONTINUOUS
 10
109.8242640687119
 20
0.6282630143769672
 30
0.0
 11
99.628263014376955
 21
10.824264068711919
 31
0.0
  0
ARC
  5
458A
  8
241
  6
CONTINUOUS
 10
99.20399894566502
 20
10.4
 30
0.0
 40
0.6000000000000039
 50
44.999999999999517
 51
164.9999999999994
  0
CIRCLE
  5
458B
  8
246
  6
PHANTOM2
 10
101.3586674961435
 20
2.3586674961434748
 30
0.0
 40
4.7625000000000313
  0
LINE
  5
466B
  8
250
  6
CONTINUOUS
 10
109.9999999999999
 20
0.7039989456650222
 30
0.0
 11
109.9999999999999
 21
15.0
 31
0.0
  0
LINE
  5
466C
  8
250
  6
CONTINUOUS
 10
109.7
 20
1.252527083088862
 30
0.0
 11
109.7
 21
15.0
 31
0.0
  0
LINE
  5
466D
  8
250
  6
CONTINUOUS
 10
112.23
 20
14.0
 30
0.0
 11
118.3941837415128
 21
14.0
 31
0.0
  0
LINE
  5
466E
  8
250
  6
CONTINUOUS
 10
107.47
 20
14.0
 30
0.0
 11
105.23999999999999
 21
14.0
 31
0.0
  0
LINE
  5
4670
  8
250
  6
CONTINUOUS
 10
109.9999999999999
 20
14.0
 30
0.0
 11
109.7
 21
14.0
 31
0.0
  0
LINE
  5
4673
  8
250
  6
CONTINUOUS
 10
109.9999999999999
 20
0.7039989456650222
 30
0.0
 11
109.9999999999999
 21
29.0
 31
0.0
  0
LINE
  5
4674
  8
250
  6
CONTINUOUS
 10
80.0
 20
10.199999999999971
 30
0.0
 11
80.0
 21
29.0
 31
0.0
  0
LINE
  5
4675
  8
250
  6
CONTINUOUS
 10
107.7699999999999
 20
28.0
 30
0.0
 11
82.230000000000004
 21
28.0
 31
0.0
  0
LINE
  5
4679
  8
250
  6
CONTINUOUS
 10
0.0000000000000077
 20
10.5
 30
0.0
 11
0.0000000000000093
 21
36.0
 31
0.0
  0
LINE
  5
467A
  8
250
  6
CONTINUOUS
 10
109.9999999999999
 20
0.7039989456650222
 30
0.0
 11
109.9999999999999
 21
36.0
 31
0.0
  0
LINE
  5
467B
  8
250
  6
CONTINUOUS
 10
2.2300000000000089
 20
35.0
 30
0.0
 11
107.7699999999999
 21
35.0
 31
0.0
  0
TEXT
  5
467F
  8
250
  6
CONTINUOUS
 10
92.333333333333314
 20
29.0
 30
0.0
 40
2.7999999999999989
  1
30
  0
LINE
  5
4680
  8
250
  6
CONTINUOUS
 10
82.230000000000004
 20
27.62833333333333
 30
0.0
 11
80.0
 21
28.0
 31
0.0
  0
LINE
  5
4681
  8
250
  6
CONTINUOUS
 10
82.230000000000004
 20
28.371666666666659
 30
0.0
 11
80.0
 21
28.0
 31
0.0
  0
LINE
  5
4682
  8
250
  6
CONTINUOUS
 10
80.0
 20
28.0
 30
0.0
 11
82.230000000000004
 21
28.0
 31
0.0
  0
LINE
  5
4683
  8
250
  6
CONTINUOUS
 10
107.7699999999999
 20
28.371666666666659
 30
0.0
 11
109.9999999999999
 21
28.0
 31
0.0
  0
LINE
  5
4684
  8
250
  6
CONTINUOUS
 10
107.7699999999999
 20
27.62833333333333
 30
0.0
 11
109.9999999999999
 21
28.0
 31
0.0
  0
LINE
  5
4685
  8
250
  6
CONTINUOUS
 10
109.9999999999999
 20
28.0
 30
0.0
 11
107.7699999999999
 21
28.0
 31
0.0
  0
TEXT
  5
4686
  8
250
  6
CONTINUOUS
 10
50.79999999999999
 20
36.0
 30
0.0
 40
2.7999999999999989
  1
110
  0
LINE
  5
4687
  8
250
  6
CONTINUOUS
 10
107.7699999999999
 20
35.37166666666667
 30
0.0
 11
109.9999999999999
 21
35.0
 31
0.0
  0
LINE
  5
4688
  8
250
  6
CONTINUOUS
 10
107.7699999999999
 20
34.62833333333333
 30
0.0
 11
109.9999999999999
 21
35.0
 31
0.0
  0
LINE
  5
4689
  8
250
  6
CONTINUOUS
 10
109.9999999999999
 20
35.0
 30
0.0
 11
107.7699999999999
 21
35.0
 31
0.0
  0
LINE
  5
468A
  8
250
  6
CONTINUOUS
 10
2.2300000000000089
 20
34.62833333333333
 30
0.0
 11
0.0000000000000092
 21
35.0
 31
0.0
  0
LINE
  5
468B
  8
250
  6
CONTINUOUS
 10
2.2300000000000089
 20
35.37166666666667
 30
0.0
 11
0.0000000000000092
 21
35.0
 31
0.0
  0
LINE
  5
468C
  8
250
  6
CONTINUOUS
 10
0.0000000000000092
 20
35.0
 30
0.0
 11
2.2300000000000089
 21
35.0
 31
0.0
  0
LINE
  5
468D
  8
250
  6
CONTINUOUS
 10
107.47
 20
14.371666666666661
 30
0.0
 11
109.7
 21
14.0
 31
0.0
  0
LINE
  5
468E
  8
250
  6
CONTINUOUS
 10
107.47
 20
13.62833333333333
 30
0.0
 11
109.7
 21
14.0
 31
0.0
  0
LINE
  5
468F
  8
250
  6
CONTINUOUS
 10
109.7
 20
14.0
 30
0.0
 11
107.47
 21
14.0
 31
0.0
  0
LINE
  5
4690
  8
250
  6
CONTINUOUS
 10
112.23
 20
13.62833333333333
 30
0.0
 11
109.9999999999999
 21
14.0
 31
0.0
  0
LINE
  5
4691
  8
250
  6
CONTINUOUS
 10
112.23
 20
14.371666666666661
 30
0.0
 11
109.9999999999999
 21
14.0
 31
0.0
  0
LINE
  5
4692
  8
250
  6
CONTINUOUS
 10
109.9999999999999
 20
14.0
 30
0.0
 11
112.23
 21
14.0
 31
0.0
  0
TEXT
  5
4693
  8
250
  6
CONTINUOUS
 10
111.068943707795
 20
15.4344915916449
 30
0.0
 40
2.7999999999999989
  1
0.3
  0
LINE
  5
4753
  8
250
  6
CONTINUOUS
 10
99.703998945665035
 20
11.0
 30
0.0
 11
134.0
 21
10.999999999999989
 31
0.0
  0
LINE
  5
4754
  8
250
  6
CONTINUOUS
 10
133.0
 20
8.7699999999999871
 30
0.0
 11
133.0
 21
-4.5333333333333421
 31
0.0
  0
LINE
  5
4757
  8
250
  6
CONTINUOUS
 10
100.9525270830889
 20
10.0
 30
0.0
 11
127.0
 21
9.9999999999999911
 31
0.0
  0
LINE
  5
4758
  8
250
  6
CONTINUOUS
 10
126.0
 20
7.7699999999999916
 30
0.0
 11
126.0
 21
-4.5333333333333403
 31
0.0
  0
LINE
  5
475B
  8
250
  6
CONTINUOUS
 10
109.9525270830888
 20
0.9999999999999998
 30
0.0
 11
120.0
 21
0.9999999999999968
 31
0.0
  0
LINE
  5
475C
  8
250
  6
CONTINUOUS
 10
119.0
 20
5.4599999999999973
 30
0.0
 11
119.0
 21
3.229999999999996
 31
0.0
  0
LINE
  5
475D
  8
250
  6
CONTINUOUS
 10
119.0
 20
0.9999999999999971
 30
0.0
 11
119.0
 21
-3.200000000000002
 31
0.0
  0
TEXT
  5
4760
  8
250
  6
CONTINUOUS
 10
132.0
 20
-3.9333333333333211
 30
0.0
 40
2.7999999999999989
  1
\U+220522
 50
90.0
  0
LINE
  5
4761
  8
250
  6
CONTINUOUS
 10
132.6283333333333
 20
8.7699999999999871
 30
0.0
 11
133.0
 21
10.999999999999989
 31
0.0
  0
LINE
  5
4762
  8
250
  6
CONTINUOUS
 10
133.37166666666661
 20
8.7699999999999871
 30
0.0
 11
133.0
 21
10.999999999999989
 31
0.0
  0
LINE
  5
4763
  8
250
  6
CONTINUOUS
 10
133.0
 20
10.999999999999989
 30
0.0
 11
133.0
 21
8.7699999999999871
 31
0.0
  0
TEXT
  5
4764
  8
250
  6
CONTINUOUS
 10
125.0
 20
-3.9333333333333189
 30
0.0
 40
2.7999999999999989
  1
\U+220520
 50
90.0
  0
LINE
  5
4765
  8
250
  6
CONTINUOUS
 10
125.6283333333333
 20
7.7699999999999916
 30
0.0
 11
126.0
 21
9.9999999999999911
 31
0.0
  0
LINE
  5
4766
  8
250
  6
CONTINUOUS
 10
126.3716666666667
 20
7.7699999999999916
 30
0.0
 11
126.0
 21
9.9999999999999911
 31
0.0
  0
LINE
  5
4767
  8
250
  6
CONTINUOUS
 10
126.0
 20
9.9999999999999911
 30
0.0
 11
126.0
 21
7.7699999999999916
 31
0.0
  0
TEXT
  5
4768
  8
250
  6
CONTINUOUS
 10
118.0
 20
-4.2953487694145061
 30
0.0
 40
2.7999999999999989
  1
\U+22052
 50
90.0
  0
LINE
  5
4769
  8
250
  6
CONTINUOUS
 10
119.3716666666666
 20
3.229999999999996
 30
0.0
 11
119.0
 21
0.9999999999999971
 31
0.0
  0
LINE
  5
476A
  8
250
  6
CONTINUOUS
 10
118.6283333333333
 20
3.229999999999996
 30
0.0
 11
119.0
 21
0.9999999999999971
 31
0.0
  0
LINE
  5
476B
  8
250
  6
CONTINUOUS
 10
119.0
 20
0.9999999999999971
 30
0.0
 11
119.0
 21
3.229999999999996
 31
0.0
  0
LINE
  5
476C
  8
250
  6
CONTINUOUS
 10
109.9999999999999
 20
15.5
 30
0.0
 11
109.9999999999999
 21
23.428657313621251
 31
0.0
  0
LINE
  5
476D
  8
250
  6
CONTINUOUS
 10
99.274709623783664
 20
11.17781745930519
 30
0.0
 11
93.753422508565308
 21
16.69910457452356
 31
0.0
  0
ARC
  5
476E
  8
250
  6
CONTINUOUS
 10
109.9999999999999
 20
0.4525270830888957
 30
0.0
 40
21.976130230532359
 50
95.816514036672629
 51
129.1834859633274
  0
INSERT
  5
4771
  8
240
  2
*U5
 10
0.0
 20
0.0
 30
0.0
  0
LINE
  5
4772
  8
250
  6
CONTINUOUS
 10
107.75401491337369
 20
22.686702080597009
 30
0.0
 11
109.9999999999999
 21
22.428657313621262
 31
0.0
  0
LINE
  5
4773
  8
250
  6
CONTINUOUS
 10
107.7917293179559
 20
21.94432611915196
 30
0.0
 11
109.9999999999999
 21
22.428657313621262
 31
0.0
  0
LINE
  5
4774
  8
250
  6
CONTINUOUS
 10
109.9999999999999
 20
22.428657313621262
 30
0.0
 11
107.7728721156648
 21
22.315514099874481
 31
0.0
  0
LINE
  5
4775
  8
250
  6
CONTINUOUS
 10
96.364486335670023
 20
17.211007095356351
 30
0.0
 11
94.460529289751847
 21
15.991997793337021
 31
0.0
  0
LINE
  5
4776
  8
250
  6
CONTINUOUS
 10
95.866215370370867
 20
17.762614283112551
 30
0.0
 11
94.460529289751847
 21
15.991997793337021
 31
0.0
  0
LINE
  5
4777
  8
250
  6
CONTINUOUS
 10
94.460529289751847
 20
15.991997793337021
 30
0.0
 11
96.115350853020445
 21
17.486810689234449
 31
0.0
  0
LINE
  5
47A7
  8
250
  6
CONTINUOUS
 10
18.303552575926389
 20
-11.565384141331259
 30
0.0
 11
19.59222771000001
 21
-10.0
 31
0.0
  0
LINE
  5
47A8
  8
250
  6
CONTINUOUS
 10
18.880902845226998
 20
-11.89871747447239
 30
0.0
 11
19.59222771000001
 21
-10.0
 31
0.0
  0
LINE
  5
47A9
  8
250
  6
CONTINUOUS
 10
19.59222771000001
 20
-10.0
 30
0.0
 11
18.592227710576701
 21
-11.73205080790183
 31
0.0
  0
LINE
  5
47AA
  8
250
  6
CONTINUOUS
 10
18.592227710576701
 20
-11.73205080790183
 30
0.0
 11
13.14916605
 21
-21.159710159999999
 31
0.0
1001
ACAD
1000
DSTYLE
1002
{
1070
     6
1000
OPEN
1070
    41
1040
2.0
1070
    42
1040
2.0
1070
    44
1040
2.0
1070
   140
1040
4.0
1070
   343
1005
594
1002
}
  0
TEXT
  5
47AB
  8
250
  6
CONTINUOUS
 10
0.6158327100000065
 20
-20.159710159999999
 30
0.0
 40
2.7999999999999989
  1
ST20
  7
YOKO
1001
ITEMNAME
1000
LNSP3
  0
LINE
  5
47AC
  8
250
  6
CONTINUOUS
 10
13.14916605
 20
-21.159710159999999
 30
0.0
 11
-1.7841672899999921
 21
-21.159710159999999
 31
0.0
1001
ITEMNAME
1000
LNSP2
  0
LINE
  5
47AD
  8
247
  6
CONTINUOUS
 10
6.7499999999300044
 20
-6.0
 30
0.0
 11
13.44230769197001
 21
-6.0
 31
0.0
  0
ARC
  5
47AE
  8
247
  6
CONTINUOUS
 10
6.7499999999300044
 20
-4.2500000000700311
 30
0.0
 40
1.7499999999299991
 50
90.0
 51
270.0
  0
ARC
  5
47AF
  8
247
  6
CONTINUOUS
 10
13.44230769197001
 20
-4.2500000000700311
 30
0.0
 40
1.7499999999299991
 50
270.0
 51
90.0
  0
LINE
  5
47B0
  8
247
  6
CONTINUOUS
 10
7.6153846152799991
 20
-2.5000000001400622
 30
0.0
 11
6.7551484580379997
 21
-5.500000000020008
 31
0.0
  0
LINE
  5
47B1
  8
247
  6
CONTINUOUS
 10
8.5150161816641852
 20
-3.9230769231598961
 30
0.0
 11
7.2073238740241896
 21
-3.9230769231598961
 31
0.0
  0
ARC
  5
47B2
  8
247
  6
CONTINUOUS
 10
8.854856183910222
 20
-3.0495986677028659
 30
0.0
 40
0.5538165441895349
 50
342.99788967529543
 51
82.924166218512795
  0
ARC
  5
47B3
  8
247
  6
CONTINUOUS
 10
8.4331216769712185
 20
-2.9360330444658298
 30
0.0
 40
0.9904354236226808
 50
274.74293685220141
 51
343.84922627326642
1001
GENIUS_GENOBJ-N-FIL_13
1002
{
1000
OWNER
1000
GEN
1002
}
1001
GENIUS_GENODEF_13
1002
{
1000
HIER
1070
     0
1002
}
1002
{
1000
MANEDIT
1070
     0
1002
}
1002
{
1000
NOSEL
1070
     0
1002
}
1002
{
1000
BEHIND
1070
     0
1002
}
1002
{
1000
OTHER
1070
     0
1002
}
1002
{
1000
REACTOR
1002
}
  0
LINE
  5
47B4
  8
247
  6
CONTINUOUS
 10
8.062840765677997
 20
-5.500000000020008
 30
0.0
 11
6.7551484580379997
 21
-5.500000000020008
 31
0.0
  0
LINE
  5
47B5
  8
247
  6
CONTINUOUS
 10
7.6153846152799991
 20
-2.5000000001400622
 30
0.0
 11
8.9230769229200106
 21
-2.5000000001400622
 31
0.0
  0
ARC
  5
47B6
  8
247
  6
CONTINUOUS
 10
8.4390803634530371
 20
-4.4820242326654798
 30
0.0
 40
0.5640818586791229
 50
335.99094165252171
 51
82.263443459069109
  0
ARC
  5
47B7
  8
247
  6
CONTINUOUS
 10
7.9617373146529431
 20
-4.4874290391865079
 30
0.0
 40
1.0176059446230981
 50
275.70198516425808
 51
347.27733843682228
1001
GENIUS_GENOBJ-N-FIL_13
1002
{
1000
OWNER
1000
GEN
1002
}
1001
GENIUS_GENODEF_13
1002
{
1000
HIER
1070
     0
1002
}
1002
{
1000
MANEDIT
1070
     0
1002
}
1002
{
1000
NOSEL
1070
     0
1002
}
1002
{
1000
BEHIND
1070
     0
1002
}
1002
{
1000
OTHER
1070
     0
1002
}
1002
{
1000
REACTOR
1002
}
  0
LINE
  5
47B8
  8
247
  6
CONTINUOUS
 10
9.7166869194580041
 20
-5.500000000020008
 30
0.0
 11
10.5769230767
 21
-2.5000000001400622
 31
0.0
  0
LINE
  5
47B9
  8
247
  6
CONTINUOUS
 10
12.99999999968
 20
-2.5000000001400622
 30
0.0
 11
12.434263380543401
 21
-2.5000000001400622
 31
0.0
  0
LINE
  5
47BA
  8
247
  6
CONTINUOUS
 10
11.538461538200011
 20
-5.500000000020008
 30
0.0
 11
12.15384615356
 21
-5.500000000020008
 31
0.0
  0
ARC
  5
47BB
  8
247
  6
CONTINUOUS
 10
13.291208790877141
 20
-4.5832851359733686
 30
0.0
 40
2.2526500823422122
 50
112.35948814152999
 51
164.99324854284609
  0
ARC
  5
47BC
  8
247
  6
CONTINUOUS
 10
12.62593052078677
 20
-3.3083126551946398
 30
0.0
 40
0.8906723995727782
 50
4.9945893190753656
 51
65.166328957300507
1001
GENIUS_GENOBJ-N-FIL_13
1002
{
1000
OWNER
1000
GEN
1002
}
1001
GENIUS_GENODEF_13
1002
{
1000
HIER
1070
     0
1002
}
1002
{
1000
MANEDIT
1070
     0
1002
}
1002
{
1000
NOSEL
1070
     0
1002
}
1002
{
1000
BEHIND
1070
     0
1002
}
1002
{
1000
OTHER
1070
     0
1002
}
1002
{
1000
REACTOR
1002
}
  0
ARC
  5
47BD
  8
247
  6
CONTINUOUS
 10
11.77354111378742
 20
-4.1601458886677838
 30
0.0
 40
1.392781735586712
 50
285.84609655578078
 51
352.32513700416251
  0
ARC
  5
47BE
  8
247
  6
CONTINUOUS
 10
12.357787274159641
 20
-4.4592434315272831
 30
0.0
 40
1.324563662670287
 50
159.71360167049011
 51
231.78874565641229
1001
GENIUS_GENOBJ-N-FIL_13
1002
{
1000
OWNER
1000
GEN
1002
}
1001
GENIUS_GENODEF_13
1002
{
1000
HIER
1070
     0
1002
}
1002
{
1000
MANEDIT
1070
     0
1002
}
1002
{
1000
NOSEL
1070
     0
1002
}
1002
{
1000
BEHIND
1070
     0
1002
}
1002
{
1000
OTHER
1070
     0
1002
}
1002
{
1000
REACTOR
1002
}
  0
LINE
  5
47BF
  8
247
  6
CONTINUOUS
 10
12.46153846124
 20
-4.346153846219976
 30
0.0
 11
13.15384615352
 21
-4.346153846219976
 31
0.0
  0
LINE
  5
47C0
  8
247
  6
CONTINUOUS
 10
6.749999999929976
 20
-2.5000000001400622
 30
0.0
 11
7.4230769229799369
 21
-2.5000000001400622
 31
0.0
  0
TEXT
  5
47C2
  8
241
  6
CONTINUOUS
 10
0.0
 20
49.0
 30
0.0
 40
5.0
  1
ST20-CN0220-45-110
  7
YOKO
  0
VIEWPORT
  5
22
 67
     1
  8
0
 10
261.51769911504419
 20
148.5
 30
0.0
 40
523.0353982300885
 41
297.0
 68
     1
 69
     1
1001
ACAD
1000
MVIEW
1002
{
1070
    16
1010
0.0
1020
0.0
1030
0.0
1010
0.0
1020
0.0
1030
1.0
1040
0.0
1040
297.0
1040
261.51769911504419
1040
148.5
1040
50.0
1040
0.0
1040
0.0
1070
     0
1070
   100
1070
     1
1070
     1
1070
     0
1070
     0
1070
     0
1070
     0
1040
0.0
1040
0.0
1040
0.0
1040
1.0
1040
1.0
1040
10.0
1040
10.0
1070
     0
1002
{
1002
}
1002
}
1001
GENIUS_GENODEF_13
1002
{
1000
HIER
1070
     0
1002
}
1002
{
1000
MANEDIT
1070
     0
1002
}
1002
{
1000
NOSEL
1070
     0
1002
}
1002
{
1000
BEHIND
1070
     0
1002
}
1002
{
1000
OTHER
1070
     0
1002
}
1002
{
1000
REACTOR
1002
}
1001
GENIUS_GENOBJ-N-SDF_13
1002
{
1000
OWNER
1000
GEN
1002
}
1001
GENIUS_GENSCREG_15
1000
PF
1040
1.0
1000
DF
1040
1.0
1000
MIN
1011
0.0
1021
0.0
1031
0.0
1021
0.0
1031
0.0
1000
MAX
1011
523.0353982300885
1021
0.0
1031
0.0
1021
297.0
1031
0.0
1000
FLAGS
1070
     4
  0
ENDSEC
  0
EOF
