  0
SECTION
  2
HEADER
  9
$ACADVER
  1
AC1009
  9
$INSBASE
 10
0.0
 20
0.0
 30
0.0
  9
$EXTMIN
 10
-184.58438394117189
 20
-32.78315868031325
 30
-0.0000000000112498
  9
$EXTMAX
 10
21.327056835521489
 20
24.10322521838793
 30
0.0000000000002956
  9
$LIMMIN
 10
0.0
 20
0.0
  9
$LIMMAX
 10
297.0
 20
210.0
  9
$ORTHOMODE
 70
     1
  9
$REGENMODE
 70
     1
  9
$FILLMODE
 70
     1
  9
$QTEXTMODE
 70
     0
  9
$MIRRTEXT
 70
     1
  9
$DRAGMODE
 70
     2
  9
$LTSCALE
 40
10.0
  9
$OSMODE
 70
    39
  9
$ATTMODE
 70
     1
  9
$TEXTSIZE
 40
3.0
  9
$TRACEWID
 40
1.0
  9
$TEXTSTYLE
  7
YOKO
  9
$CLAYER
  8
240
  9
$CELTYPE
  6
BYLAYER
  9
$CECOLOR
 62
   256
  9
$DIMSCALE
 40
1.0
  9
$DIMASZ
 40
2.2299999999999991
  9
$DIMEXO
 40
0.5
  9
$DIMDLI
 40
7.0
  9
$DIMRND
 40
0.0
  9
$DIMDLE
 40
0.0
  9
$DIMEXE
 40
1.0
  9
$DIMTP
 40
0.0
  9
$DIMTM
 40
0.01
  9
$DIMTXT
 40
2.799999999999998
  9
$DIMCEN
 40
0.0
  9
$DIMTSZ
 40
0.0
  9
$DIMTOL
 70
     0
  9
$DIMLIM
 70
     0
  9
$DIMTIH
 70
     0
  9
$DIMTOH
 70
     0
  9
$DIMSE1
 70
     0
  9
$DIMSE2
 70
     0
  9
$DIMTAD
 70
     3
  9
$DIMZIN
 70
     9
  9
$DIMBLK
  1
OPEN
  9
$DIMASO
 70
     1
  9
$DIMSHO
 70
     1
  9
$DIMPOST
  1

  9
$DIMAPOST
  1

  9
$DIMALT
 70
     0
  9
$DIMALTD
 70
     2
  9
$DIMALTF
 40
25.399999999999999
  9
$DIMLFAC
 40
1.0
  9
$DIMTOFL
 70
     1
  9
$DIMTVP
 40
0.0
  9
$DIMTIX
 70
     1
  9
$DIMSOXD
 70
     0
  9
$DIMSAH
 70
     0
  9
$DIMBLK1
  1

  9
$DIMBLK2
  1

  9
$DIMSTYLE
  2
BIGT
  9
$DIMCLRD
 70
   256
  9
$DIMCLRE
 70
   256
  9
$DIMCLRT
 70
    40
  9
$DIMTFAC
 40
1.0
  9
$DIMGAP
 40
1.0
  9
$LUNITS
 70
     2
  9
$LUPREC
 70
     3
  9
$SKETCHINC
 40
1.0
  9
$FILLETRAD
 40
0.2
  9
$AUNITS
 70
     0
  9
$AUPREC
 70
     3
  9
$MENU
  1
.
  9
$ELEVATION
 40
0.0
  9
$PELEVATION
 40
0.0
  9
$THICKNESS
 40
0.0
  9
$LIMCHECK
 70
     0
  9
$BLIPMODE
 70
     0
  9
$CHAMFERA
 40
0.25
  9
$CHAMFERB
 40
0.25
  9
$SKPOLY
 70
     0
  9
$TDCREATE
 40
2454678.7654406251
  9
$TDUPDATE
 40
2456343.4323729048
  9
$TDINDWG
 40
0.0112563426
  9
$TDUSRTIMER
 40
0.0112563426
  9
$USRTIMER
 70
     1
  9
$ANGBASE
 50
0.0
  9
$ANGDIR
 70
     0
  9
$PDMODE
 70
     1
  9
$PDSIZE
 40
0.0
  9
$PLINEWID
 40
0.0
  9
$COORDS
 70
     0
  9
$SPLFRAME
 70
     0
  9
$SPLINETYPE
 70
     6
  9
$SPLINESEGS
 70
     4
  9
$ATTDIA
 70
     1
  9
$ATTREQ
 70
     1
  9
$HANDLING
 70
     1
  9
$HANDSEED
  5
1B36
  9
$SURFTAB1
 70
     6
  9
$SURFTAB2
 70
     6
  9
$SURFTYPE
 70
     6
  9
$SURFU
 70
     6
  9
$SURFV
 70
     6
  9
$UCSNAME
  2

  9
$UCSORG
 10
0.0
 20
0.0
 30
0.0
  9
$UCSXDIR
 10
1.0
 20
0.0
 30
0.0
  9
$UCSYDIR
 10
0.0
 20
1.0
 30
0.0
  9
$PUCSNAME
  2

  9
$PUCSORG
 10
0.0
 20
0.0
 30
0.0
  9
$PUCSXDIR
 10
1.0
 20
0.0
 30
0.0
  9
$PUCSYDIR
 10
0.0
 20
1.0
 30
0.0
  9
$USERI1
 70
     1
  9
$USERI2
 70
     0
  9
$USERI3
 70
     0
  9
$USERI4
 70
     0
  9
$USERI5
 70
     0
  9
$USERR1
 40
0.0
  9
$USERR2
 40
0.0
  9
$USERR3
 40
0.0
  9
$USERR4
 40
0.0
  9
$USERR5
 40
0.0
  9
$WORLDVIEW
 70
     1
  9
$SHADEDGE
 70
     3
  9
$SHADEDIF
 70
    70
  9
$TILEMODE
 70
     1
  9
$MAXACTVP
 70
    16
  9
$PLIMCHECK
 70
     0
  9
$PEXTMIN
 10
1.0000000000000000E+020
 20
1.0000000000000000E+020
 30
1.0000000000000000E+020
  9
$PEXTMAX
 10
-1.0000000000000000E+020
 20
-1.0000000000000000E+020
 30
-1.0000000000000000E+020
  9
$PLIMMIN
 10
0.0
 20
0.0
  9
$PLIMMAX
 10
420.0
 20
297.0
  9
$UNITMODE
 70
     0
  9
$VISRETAIN
 70
     1
  9
$PLINEGEN
 70
     0
  9
$PSLTSCALE
 70
     1
  0
ENDSEC
  0
SECTION
  2
TABLES
  0
TABLE
  2
VPORT
 70
     3
  0
VPORT
  2
*ACTIVE
 70
     0
 10
0.0
 20
0.0
 11
1.0
 21
1.0
 12
-81.628663552825216
 22
-4.3399667309626571
 13
0.0
 23
0.0
 14
7.0
 24
7.0
 15
7.0
 25
7.0
 16
0.0
 26
0.0
 36
1.0
 17
0.0
 27
0.0
 37
0.0
 40
142.77431339120631
 41
1.4489795918367341
 42
50.0
 43
0.0
 44
0.0
 50
0.0
 51
0.0
 71
     0
 72
  2000
 73
     1
 74
     0
 75
     0
 76
     0
 77
     0
 78
     0
  0
ENDTAB
  0
TABLE
  2
LTYPE
 70
    16
  0
LTYPE
  2
CONTINUOUS
 70
     0
  3
Solid line
 72
    65
 73
     0
 40
0.0
  0
LTYPE
  2
CENTER2
 70
     0
  3
___ _ ___ _ ___ _ ___ _ ___ _ ___ _ ___ _ ___ _
 72
    65
 73
     4
 40
1.125
 49
0.75
 49
-0.125
 49
0.125
 49
-0.125
  0
LTYPE
  2
HIDDEN2
 70
     0
  3
_ _ _ _ _ _ _ _ _ _ _ _ _ _ _ _ _ _ _ _ _ _ _ _
 72
    65
 73
     2
 40
0.1875
 49
0.125
 49
-0.0625
  0
LTYPE
  2
PHANTOM2
 70
     0
  3
___ _ _ ___ _ _ ___ _ _ ___ _ _ ___ _ _ ___ _ _
 72
    65
 73
     6
 40
1.25
 49
0.625
 49
-0.125
 49
0.125
 49
-0.125
 49
0.125
 49
-0.125
  0
LTYPE
  2
CENTER
 70
     0
  3
____ _ ____ _ ____ _ ____ _ ____ _ ____ _ ____ 
 72
    65
 73
     4
 40
2.0
 49
1.25
 49
-0.25
 49
0.25
 49
-0.25
  0
LTYPE
  2
AMCONSTR
 70
     0
  3
_______________________
 72
    65
 73
     2
 40
9999.0
 49
9999.0
 49
0.0
  0
LTYPE
  2
HIDDEN
 70
     0
  3
Hidden __ __ __ __ __ __ __ __ __ __ __ __ __ _
 72
    65
 73
     2
 40
9.5249999999999986
 49
6.349999999999997
 49
-3.174999999999998
  0
LTYPE
  2
AMZIGZAG2
 70
     0
  3
/\/-/\/-/\/-/\/-/\/-/\/
 72
    65
 73
     2
 40
0.4401
 49
0.0001
 49
-0.4400000000000002
  0
LTYPE
  2
ACANSTGB
 70
     0
  3
__ . . __ . .
 72
    65
 73
     6
 40
0.35433070866
 49
0.15748031496
 49
-0.03937007874
 49
0.03937007874
 49
-0.03937007874
 49
0.03937007874
 49
-0.03937007874
  0
LTYPE
  2
ACANSTGL
 70
     0
  3
_ _ _ _ _
 72
    65
 73
     2
 40
0.11811023622
 49
0.07874015748
 49
-0.03937007874
  0
LTYPE
  2
AM_ISO02W050
 70
     0
  3
__ __ __ __ __ __ __ __ __ __ __ __ __ __ __
 72
    65
 73
     2
 40
7.5
 49
6.0
 49
-1.5
  0
LTYPE
  2
AM_ISO08W050
 70
     0
  3
____ . ____ . ____ . ____ . ____ . ____ . ____
 72
    65
 73
     4
 40
18.0
 49
12.0
 49
-1.5
 49
3.0
 49
-1.5
  0
LTYPE
  2
AM_ISO09W050
 70
     0
  3
_____ . . _____ . . _____ . . ____ .. ____
 72
    65
 73
     6
 40
22.5
 49
12.0
 49
-1.5
 49
3.0
 49
-1.5
 49
3.0
 49
-1.5
  0
LTYPE
  2
AM_ISO08W050X2
 70
     0
  3
__ . __ . __ . __ . __ . __
 72
    65
 73
     4
 40
9.0
 49
6.0
 49
-0.75
 49
1.5
 49
-0.75
  0
LTYPE
  2
AM_ISO02W050X2
 70
     0
  3
 _ _ _ _ _ _ _ _ _ _ _ _
 72
    65
 73
     2
 40
3.75
 49
3.0
 49
-0.75
  0
LTYPE
  2
AMZIGZAG
 70
     0
  3
/\/-/\/-/\/-/\/-/\/-/\/
 72
    65
 73
     2
 40
11.0001
 49
0.0001
 49
-11.0
  0
ENDTAB
  0
TABLE
  2
LAYER
 70
     8
  0
LAYER
  2
0
 70
     0
 62
     7
  6
CONTINUOUS
  0
LAYER
  2
240
 70
     0
 62
     4
  6
CONTINUOUS
  0
LAYER
  2
DEFPOINTS
 70
     0
 62
     7
  6
CONTINUOUS
  0
LAYER
  2
245
 70
     0
 62
     2
  6
CENTER2
  0
LAYER
  2
241
 70
     0
 62
   211
  6
CONTINUOUS
  0
LAYER
  2
246
 70
     0
 62
     3
  6
PHANTOM2
  0
LAYER
  2
247
 70
     0
 62
    60
  6
CONTINUOUS
  0
LAYER
  2
250
 70
     0
 62
     3
  6
CONTINUOUS
  0
ENDTAB
  0
TABLE
  2
STYLE
 70
     5
  0
STYLE
  2
STANDARD
 70
     0
 40
0.0
 41
1.0
 50
0.0
 71
     0
 42
3.0
  3
romans.shx
  4
extfont.shx
  0
STYLE
  2
YOKO
 70
     0
 40
0.0
 41
1.0
 50
0.0
 71
     0
 42
3.0
  3
romans.shx
  4
extfont.shx
  0
STYLE
  2

 70
     1
 40
0.0
 41
1.0
 50
0.0
 71
     0
 42
3.0
  3
ltypeshp.shx
  4

  0
STYLE
  2
ACANSTS
 70
     0
 40
1.0
 41
1.0
 50
0.0
 71
     0
 42
3.0
  3
romans.shx
  4
extfont.shx
  0
STYLE
  2
ACANSGDT
 70
     0
 40
0.0
 41
1.0
 50
0.0
 71
     0
 42
3.0
  3
amgdtans.shx
  4

  0
ENDTAB
  0
TABLE
  2
VIEW
 70
     0
  0
ENDTAB
  0
TABLE
  2
UCS
 70
     0
  0
ENDTAB
  0
TABLE
  2
APPID
 70
    31
  0
APPID
  2
ACAD
 70
     0
  0
APPID
  2
GLOBAL
 70
     0
  0
APPID
  2
DETAIL
 70
     0
  0
APPID
  2
GRPNAME
 70
     0
  0
APPID
  2
GPARA
 70
     0
  0
APPID
  2
MCAD_NO_VIS
 70
     0
  0
APPID
  2
ACAD_TEMP_GRAPHIC
 70
     0
  0
APPID
  2
ACATTRIBSERVICES
 70
     0
  0
APPID
  2
GENIUS_GENSCREG_15
 70
     0
  0
APPID
  2
GENIUS_GENODEF_13
 70
     0
  0
APPID
  2
GENIUS_GENOBJ-N-SDF_13
 70
     0
  0
APPID
  2
GENIUS_GENREC_14
 70
     0
  0
APPID
  2
GENIUS_GENOBJ-N-REC_13
 70
     0
  0
APPID
  2
GENIUS_GENDIMSH_14
 70
     0
  0
APPID
  2
GENIUS_GENOBJ-N-DIM_13
 70
     0
  0
APPID
  2
GENIUS_GENDIM_13
 70
     0
  0
APPID
  2
GENIUS_GENDTOL_13
 70
     0
  0
APPID
  2
GENIUS_GENOLIS_13
 70
     0
  0
APPID
  2
GENIUS_GENOENT_13
 70
     0
  0
APPID
  2
GENIUS_GENOBJ-F-FEM_13
 70
     0
  0
APPID
  2
GENIUS_GENOREF_13
 70
     0
  0
APPID
  2
GENIUS_GEFFEM_13
 70
     0
  0
APPID
  2
GENIUS_GEFFEMP_13
 70
     0
  0
APPID
  2
AD_DRAW
 70
     0
  0
APPID
  2
DESIGNERASSEMBLIES
 70
     0
  0
APPID
  2
ACADM_DIM_EDIT
 70
     0
  0
APPID
  2
AMDT_DM_ADJ
 70
     0
  0
APPID
  2
GENIUS_GENOBJ-N-FIL_13
 70
     0
  0
APPID
  2
HATCH_TYPE
 70
     0
  0
APPID
  2
HATCH_DISPLAY
 70
     0
  0
APPID
  2
HATCH_DISTANCE
 70
     0
  0
ENDTAB
  0
TABLE
  2
DIMSTYLE
 70
     7
  0
DIMSTYLE
  2
BIGT
 70
     0
  3

  4

  5

  6

  7

 40
1.0
 41
2.2299999999999991
 42
0.5
 43
7.0
 44
1.0
 45
0.0
 46
0.0
 47
0.0
 48
0.01
140
2.799999999999998
141
0.0
142
0.0
143
25.399999999999999
144
1.0
145
0.0
146
1.0
147
1.0
 71
     0
 72
     0
 73
     0
 74
     0
 75
     0
 76
     0
 77
     3
 78
     9
170
     0
171
     2
172
     1
173
     0
174
     1
175
     0
176
   256
177
   256
178
    40
  0
DIMSTYLE
  2
AM_ANSI
 70
     0
  3

  4
mm
  5

  6

  7

 40
1.0
 41
0.1
 42
0.05
 43
0.5
 44
0.1
 45
0.0
 46
0.0
 47
0.1
 48
0.1
140
0.12
141
0.0
142
0.0
143
25.399999999999999
144
1.0
145
0.0
146
0.71
147
0.06
 71
     0
 72
     0
 73
     1
 74
     1
 75
     0
 76
     0
 77
     0
 78
     7
170
     0
171
     2
172
     0
173
     0
174
     0
175
     0
176
   256
177
   256
178
     2
  0
DIMSTYLE
  2
AM_ANSI$3
 70
     0
  3

  4
mm
  5

  6

  7

 40
1.0
 41
0.1
 42
0.05
 43
0.5
 44
0.1
 45
0.0
 46
0.0
 47
0.1
 48
0.1
140
0.12
141
0.0
142
0.0
143
25.399999999999999
144
1.0
145
0.0
146
0.71
147
0.06
 71
     0
 72
     0
 73
     1
 74
     1
 75
     0
 76
     0
 77
     0
 78
     7
170
     0
171
     2
172
     0
173
     0
174
     0
175
     0
176
   256
177
   256
178
     2
  0
DIMSTYLE
  2
AM_ANSI$4
 70
     0
  3

  4
mm
  5

  6

  7

 40
1.0
 41
0.1
 42
0.05
 43
0.5
 44
0.1
 45
0.0
 46
0.0
 47
0.1
 48
0.1
140
0.12
141
0.0
142
0.0
143
25.399999999999999
144
1.0
145
0.0
146
0.71
147
0.06
 71
     0
 72
     0
 73
     1
 74
     1
 75
     0
 76
     0
 77
     0
 78
     7
170
     0
171
     2
172
     0
173
     0
174
     0
175
     0
176
   256
177
   256
178
     2
  0
DIMSTYLE
  2
AM_ANSI$7
 70
     0
  3

  4
mm
  5

  6

  7

 40
1.0
 41
0.1
 42
0.05
 43
0.5
 44
0.1
 45
0.0
 46
0.0
 47
0.1
 48
0.1
140
0.24
141
0.0
142
0.0
143
25.399999999999999
144
1.0
145
0.0
146
0.71
147
0.06
 71
     0
 72
     0
 73
     1
 74
     1
 75
     0
 76
     0
 77
     0
 78
     7
170
     0
171
     2
172
     0
173
     0
174
     0
175
     0
176
   256
177
   256
178
     2
  0
DIMSTYLE
  2
AM_ANSI$SF
 70
     0
  3

  4
mm
  5

  6

  7

 40
1.0
 41
0.1
 42
0.05
 43
0.5
 44
0.1
 45
0.0
 46
0.0
 47
0.1
 48
0.1
140
0.12
141
0.0
142
0.0
143
25.399999999999999
144
1.0
145
0.0
146
0.71
147
0.06
 71
     0
 72
     0
 73
     1
 74
     1
 75
     1
 76
     1
 77
     0
 78
     7
170
     0
171
     2
172
     0
173
     0
174
     0
175
     0
176
   256
177
   256
178
     2
  0
DIMSTYLE
  2
AM_ANSI$SH
 70
     0
  3

  4
mm
  5

  6

  7

 40
1.0
 41
0.1
 42
0.05
 43
0.5
 44
0.1
 45
0.0
 46
0.0
 47
0.1
 48
0.1
140
0.12
141
0.0
142
0.0
143
25.399999999999999
144
1.0
145
0.0
146
0.71
147
0.06
 71
     0
 72
     0
 73
     1
 74
     1
 75
     1
 76
     1
 77
     0
 78
     7
170
     0
171
     2
172
     0
173
     1
174
     0
175
     0
176
   256
177
   256
178
     2
  0
ENDTAB
  0
ENDSEC
  0
SECTION
  2
BLOCKS
  0
BLOCK
  8
0
  2
$MODEL_SPACE
 70
     0
 10
0.0
 20
0.0
 30
0.0
  3
$MODEL_SPACE
  1

  0
ENDBLK
  5
19C5
  8
0
  0
BLOCK
 67
     1
  8
0
  2
$PAPER_SPACE
 70
     0
 10
0.0
 20
0.0
 30
0.0
  3
$PAPER_SPACE
  1

  0
ENDBLK
  5
19C1
 67
     1
  8
0
  0
BLOCK
  8
0
  2
_OPEN
 70
     0
 10
0.0
 20
0.0
 30
0.0
  3
_OPEN
  1

  0
LINE
  5
595
  8
0
  6
BYBLOCK
 62
     0
 10
-1.0
 20
0.1666666666666666
 30
0.0
 11
0.0
 21
0.0
 31
0.0
  0
LINE
  5
596
  8
0
  6
BYBLOCK
 62
     0
 10
-1.0
 20
-0.1666666666666666
 30
0.0
 11
0.0
 21
0.0
 31
0.0
  0
LINE
  5
597
  8
0
  6
BYBLOCK
 62
     0
 10
0.0
 20
0.0
 30
0.0
 11
-1.0
 21
0.0
 31
0.0
  0
ENDBLK
  5
599
  8
0
  0
BLOCK
  8
0
  2
GENAXEH
 70
     0
 10
0.0
 20
0.0
 30
0.0
  3
GENAXEH
  1

  0
LINE
  5
6E8
  8
0
 10
-1.0
 20
0.0
 30
0.0
 11
1.0
 21
0.0
 31
0.0
  0
ENDBLK
  5
6EA
  8
0
  0
BLOCK
  8
0
  2
*X4
 70
     1
 10
0.0
 20
0.0
 30
0.0
  3
*X4
  1

  0
LINE
  5
16BF
  8
0
 62
     0
 10
4.273162646078692
 20
-5.8571670211471281
 30
0.0
 11
3.510115154589633
 21
-5.094119529658065
 31
0.0
  0
LINE
  5
16C0
  8
0
 62
     0
 10
3.4940719416106631
 20
-5.3367076929658772
 30
0.0
 11
3.1883917659253971
 21
-5.03102751728062
 31
0.0
  0
LINE
  5
16C1
  8
0
 62
     0
 10
4.3362546584561441
 20
-6.1788904098113671
 30
0.0
 11
4.030574482770878
 21
-5.8732102341260974
 31
0.0
  0
LINE
  5
16C2
  8
0
 62
     0
 10
3.161466872339401
 20
-5.2627339999814282
 30
0.0
 11
2.940339387738502
 21
-5.0416065153805283
 31
0.0
  0
LINE
  5
16C3
  8
0
 62
     0
 10
4.3383903626899851
 20
-6.4396574903320083
 30
0.0
 11
4.1045481757553324
 21
-6.2058153033973564
 31
0.0
  0
LINE
  5
16C4
  8
0
 62
     0
 10
2.9211994892945912
 20
-5.281097993223403
 30
0.0
 11
2.731205010965883
 21
-5.091103514894697
 31
0.0
  0
LINE
  5
16C5
  8
0
 62
     0
 10
4.338390362689978
 20
-6.6982888666187872
 30
0.0
 11
4.105585681181485
 21
-6.4654841851102951
 31
0.0
  0
LINE
  5
16C6
  8
0
 62
     0
 10
2.7241461983551192
 20
-5.342676078570725
 30
0.0
 11
2.549611000613679
 21
-5.1681408808292844
 31
0.0
  0
LINE
  5
16C7
  8
0
 62
     0
 10
4.338390362689978
 20
-6.9569202429055821
 30
0.0
 11
4.105585681181485
 21
-6.7241155613970891
 31
0.0
  0
LINE
  5
16C8
  8
0
 62
     0
 10
2.5574155323842751
 20
-5.4345767888866652
 30
0.0
 11
2.3904879894348241
 21
-5.2676492459372142
 31
0.0
  0
LINE
  5
16C9
  8
0
 62
     0
 10
4.3383903626899851
 20
-7.2155516191923699
 30
0.0
 11
4.105585681181485
 21
-6.9827469376838751
 31
0.0
  0
LINE
  5
16CA
  8
0
 62
     0
 10
2.4161255819181502
 20
-5.5519182147073352
 30
0.0
 11
2.251507783582793
 21
-5.3873004163719713
 31
0.0
  0
LINE
  5
16CB
  8
0
 62
     0
 10
4.3383903626899851
 20
-7.4741829954791603
 30
0.0
 11
4.105585681181493
 21
-7.2413783139706691
 31
0.0
  0
LINE
  5
16CC
  8
0
 62
     0
 10
2.2989457159389901
 20
-5.6933697250149731
 30
0.0
 11
2.1319866093836382
 21
-5.526410618459618
 31
0.0
  0
LINE
  5
16CD
  8
0
 62
     0
 10
4.3383903626899851
 20
-7.7328143717659659
 30
0.0
 11
4.105585681181477
 21
-7.5000096902574622
 31
0.0
  0
LINE
  5
16CE
  8
0
 62
     0
 10
2.2072252078153931
 20
-5.8602805931781683
 30
0.0
 11
2.03261766024983
 21
-5.6856730456126012
 31
0.0
  0
LINE
  5
16CF
  8
0
 62
     0
 10
4.338390362689978
 20
-7.9914457480527474
 30
0.0
 11
4.105585681181485
 21
-7.7586410665442571
 31
0.0
  0
LINE
  5
16D0
  8
0
 62
     0
 10
2.1458777492053511
 20
-6.0575645108549052
 30
0.0
 11
1.955742399326019
 21
-5.8674291609755747
 31
0.0
  0
LINE
  5
16D1
  8
0
 62
     0
 10
4.338390362689978
 20
-8.2500771243395317
 30
0.0
 11
4.105585681181485
 21
-8.0172724428310431
 31
0.0
  0
LINE
  5
16D2
  8
0
 62
     0
 10
2.127884606905837
 20
-6.298202744842186
 30
0.0
 11
1.9064556573934901
 21
-6.0767737953298466
 31
0.0
  0
LINE
  5
16D3
  8
0
 62
     0
 10
4.3383903626899851
 20
-8.5087085006263337
 30
0.0
 11
4.105585681181485
 21
-8.2759038191178362
 31
0.0
  0
LINE
  5
16D4
  8
0
 62
     0
 10
2.0859571237484991
 20
-6.514906637971646
 30
0.0
 11
1.896203437136684
 21
-6.325152951359831
 31
0.0
  0
LINE
  5
16D5
  8
0
 62
     0
 10
4.338390362689978
 20
-8.7673398769131232
 30
0.0
 11
4.105585681181485
 21
-8.5345351954046365
 31
0.0
  0
LINE
  5
16D6
  8
0
 62
     0
 10
4.338390362689978
 20
-9.0259712531999199
 30
0.0
 11
4.105585681181485
 21
-8.7931665716914225
 31
0.0
  0
LINE
  5
16D7
  8
0
 62
     0
 10
4.338390362689978
 20
-9.2846026294867023
 30
0.0
 11
4.105585681181485
 21
-9.0517979479782156
 31
0.0
  0
LINE
  5
16D8
  8
0
 62
     0
 10
4.338390362689978
 20
-9.5432340057735008
 30
0.0
 11
4.105585681181485
 21
-9.3104293242649998
 31
0.0
  0
LINE
  5
16D9
  8
0
 62
     0
 10
4.3383903626899851
 20
-9.8018653820602886
 30
0.0
 11
4.105585681181485
 21
-9.5690607005517911
 31
0.0
  0
LINE
  5
16DA
  8
0
 62
     0
 10
4.3383903626899851
 20
-10.06049675834708
 30
0.0
 11
4.105585681181493
 21
-9.8276920768385896
 31
0.0
  0
LINE
  5
16DB
  8
0
 62
     0
 10
4.338390362689978
 20
-10.31912813463388
 30
0.0
 11
4.105585681181485
 21
-10.086323453125379
 31
0.0
  0
LINE
  5
16DC
  8
0
 62
     0
 10
4.338390362689978
 20
-10.577759510920661
 30
0.0
 11
4.105585681181485
 21
-10.34495482941217
 31
0.0
  0
LINE
  5
16DD
  8
0
 62
     0
 10
4.338390362689978
 20
-10.836390887207459
 30
0.0
 11
4.105585681181485
 21
-10.60358620569896
 31
0.0
  0
LINE
  5
16DE
  8
0
 62
     0
 10
4.3331743680063184
 20
-11.08980626881058
 30
0.0
 11
4.105585681181485
 21
-10.862217581985741
 31
0.0
  0
LINE
  5
16DF
  8
0
 62
     0
 10
4.2927234683474307
 20
-11.30798674543848
 30
0.0
 11
4.0963826280125364
 21
-11.11164590510359
 31
0.0
  0
LINE
  5
16E0
  8
0
 62
     0
 10
4.2225300722551111
 20
-11.496424725632959
 30
0.0
 11
4.044737971761033
 21
-11.31863262513888
 31
0.0
  0
LINE
  5
16E1
  8
0
 62
     0
 10
4.1288343457024572
 20
-11.661360375367099
 30
0.0
 11
3.960418835935497
 21
-11.492944865600141
 31
0.0
  0
LINE
  5
16E2
  8
0
 62
     0
 10
4.0145495478446014
 20
-11.80570695379603
 30
0.0
 11
3.849766277175481
 21
-11.640923683126911
 31
0.0
  0
LINE
  5
16E3
  8
0
 62
     0
 10
3.8807570971702972
 20
-11.93054587940852
 30
0.0
 11
3.7149104705198961
 21
-11.76469925275811
 31
0.0
  0
LINE
  5
16E4
  8
0
 62
     0
 10
3.7271431977453031
 20
-12.03556335627032
 30
0.0
 11
3.555244829520197
 21
-11.86366498804521
 31
0.0
  0
LINE
  5
16E5
  8
0
 62
     0
 10
2.1267631408982761
 20
-10.69381467571009
 30
0.0
 11
1.9433546960822801
 21
-10.51040623089408
 31
0.0
  0
LINE
  5
16E6
  8
0
 62
     0
 10
3.551878254361716
 20
-12.11892978917353
 30
0.0
 11
3.367040741413724
 21
-11.93409227622552
 31
0.0
  0
LINE
  5
16E7
  8
0
 62
     0
 10
2.1267631408982761
 20
-10.95244605199688
 30
0.0
 11
1.8939584533982801
 21
-10.719641364496891
 31
0.0
  0
LINE
  5
16E8
  8
0
 62
     0
 10
3.3508120748548631
 20
-12.17649498595347
 30
0.0
 11
3.140443698089034
 21
-11.96612660918764
 31
0.0
  0
LINE
  5
16E9
  8
0
 62
     0
 10
2.164960234068348
 20
-11.24927452145374
 30
0.0
 11
1.893959103096269
 21
-10.978273390481659
 31
0.0
  0
LINE
  5
16EA
  8
0
 62
     0
 10
3.1149140586925621
 20
-12.19922834607795
 30
0.0
 11
2.8439129277204782
 21
-11.928227215105871
 31
0.0
  0
LINE
  5
16EB
  8
0
 62
     0
 10
2.8198068968923562
 20
-12.162752560564529
 30
0.0
 11
1.930434888609696
 21
-11.27338055228187
 31
0.0
  0
ENDBLK
  5
16EC
  8
0
  0
BLOCK
  8
0
  2
*X5
 70
     1
 10
0.0
 20
0.0
 30
0.0
  3
*X5
  1

  0
LINE
  5
16EF
  8
0
 62
     0
 10
3.9891833374314549
 20
-8.6767642279413888
 30
0.0
 11
3.9699999022341181
 21
-8.6575807927440565
 31
0.0
  0
LINE
  5
16F0
  8
0
 62
     0
 10
3.9891833374314549
 20
-8.9353956042281784
 30
0.0
 11
3.6073930521298831
 21
-8.5536053189266141
 31
0.0
  0
LINE
  5
16F1
  8
0
 62
     0
 10
3.9748178468112911
 20
-9.179661489894805
 30
0.0
 11
3.2447862020256362
 21
-8.4496298451091505
 31
0.0
  0
LINE
  5
16F2
  8
0
 62
     0
 10
3.6122095777595682
 20
-9.0756845971298823
 30
0.0
 11
2.882179351921391
 21
-8.3456543712917011
 31
0.0
  0
LINE
  5
16F3
  8
0
 62
     0
 10
3.249601308707851
 20
-8.9717077043649454
 30
0.0
 11
2.5195725018171511
 21
-8.2416788974742428
 31
0.0
  0
LINE
  5
16F4
  8
0
 62
     0
 10
2.8869930396561161
 20
-8.8677308116000084
 30
0.0
 11
2.156965651712897
 21
-8.1377034236567951
 31
0.0
  0
LINE
  5
16F5
  8
0
 62
     0
 10
2.52438477060439
 20
-8.763753918835075
 30
0.0
 11
1.8939584533982801
 21
-8.1333276016289702
 31
0.0
  0
LINE
  5
16F6
  8
0
 62
     0
 10
2.1617765015526582
 20
-8.659777026070131
 30
0.0
 11
1.8939584533982901
 21
-8.3919589779157633
 31
0.0
  0
LINE
  5
16F7
  8
0
 62
     0
 10
1.918015068738405
 20
-8.674646969542664
 30
0.0
 11
1.8939584533982801
 21
-8.6505903542025422
 31
0.0
  0
ENDBLK
  5
16F8
  8
0
  0
BLOCK
  8
0
  2
*X6
 70
     1
 10
0.0
 20
0.0
 30
0.0
  3
*X6
  1

  0
LINE
  5
16FB
  8
0
 62
     0
 10
3.868211204180473
 20
-7.0040038369696571
 30
0.0
 11
3.649960323505288
 21
-6.7857529562944654
 31
0.0
  0
LINE
  5
16FC
  8
0
 62
     0
 10
3.9856529491582968
 20
-7.380076958234282
 30
0.0
 11
3.2873524678243831
 21
-6.6817764769003682
 31
0.0
  0
LINE
  5
16FD
  8
0
 62
     0
 10
3.617185728354428
 20
-7.2702411137172014
 30
0.0
 11
2.924744612143483
 21
-6.5777999975062524
 31
0.0
  0
LINE
  5
16FE
  8
0
 62
     0
 10
3.9698966386926511
 20
-7.6229520240554223
 30
0.0
 11
3.6965801245195551
 21
-7.3496355098823214
 31
0.0
  0
LINE
  5
16FF
  8
0
 62
     0
 10
3.2412377906756031
 20
-7.1529245523251603
 30
0.0
 11
2.8018861877732841
 21
-6.7135729494228391
 31
0.0
  0
LINE
  5
1700
  8
0
 62
     0
 10
3.8992580266775021
 20
-7.8109447883270624
 30
0.0
 11
3.6959786603753511
 21
-7.6076654220249154
 31
0.0
  0
LINE
  5
1701
  8
0
 62
     0
 10
3.034690875273276
 20
-7.2050090132096241
 30
0.0
 11
2.8018861877732761
 21
-6.9722043257096251
 31
0.0
  0
LINE
  5
1702
  8
0
 62
     0
 10
3.792131315773708
 20
-7.9624494537100619
 30
0.0
 11
3.5455738235496872
 21
-7.7158919614860322
 31
0.0
  0
LINE
  5
1703
  8
0
 62
     0
 10
2.202988506504409
 20
-6.6319380207275582
 30
0.0
 11
2.1787499076577741
 21
-6.6076994218809197
 31
0.0
  0
LINE
  5
1704
  8
0
 62
     0
 10
3.6531656331833751
 20
-8.082115147406526
 30
0.0
 11
3.2290805876554312
 21
-7.658030101878575
 31
0.0
  0
LINE
  5
1705
  8
0
 62
     0
 10
2.2677871082174681
 20
-6.9553679987274011
 30
0.0
 11
1.982121972154764
 21
-6.669702862664697
 31
0.0
  0
LINE
  5
1706
  8
0
 62
     0
 10
3.4804499382598562
 20
-8.168030828769794
 30
0.0
 11
2.8664723785437469
 21
-7.5540532690536812
 31
0.0
  0
LINE
  5
1707
  8
0
 62
     0
 10
2.1576583608831101
 20
-7.1038706276798393
 30
0.0
 11
1.983335797400418
 21
-6.9295480641971441
 31
0.0
  0
LINE
  5
1708
  8
0
 62
     0
 10
3.262962952369413
 20
-8.2091752191661413
 30
0.0
 11
2.503864169432068
 21
-7.4500764362287972
 31
0.0
  0
LINE
  5
1709
  8
0
 62
     0
 10
2.9676848492862362
 20
-8.1725284923697501
 30
0.0
 11
1.912955328823168
 21
-7.1177989719066872
 31
0.0
  0
LINE
  5
170A
  8
0
 62
     0
 10
2.623189712588176
 20
-8.0866647319584857
 30
0.0
 11
1.8976699797883021
 21
-7.3611449991586113
 31
0.0
  0
ENDBLK
  5
170B
  8
0
  0
BLOCK
  8
0
  2
A$C3F796499
 70
     0
 10
0.0
 20
0.0
 30
0.0
  3
A$C3F796499
  1

  0
TEXT
  5
170D
  8
247
 10
-158.10782338835611
 20
-6.5869429967962478
 30
0.0
 40
2.0
  1
ST20-CM20-45B-86
 41
0.7
  7
YOKO
 11
-158.10782338835611
 21
-6.5869429967962478
 31
0.0
 73
     1
  0
INSERT
  5
170E
  8
247
  6
CONTINUOUS
  2
*X4
 10
-154.107823388356
 20
-2.5453413580305102
 30
0.0
 50
270.0
1001
ACAD
1000
HATCH
1002
{
1070
    19
1000
ANSI31
1040
0.0576
1040
6.2831853071795827
1002
}
  0
INSERT
  5
170F
  8
247
  6
CONTINUOUS
  2
*X5
 10
-154.107823388356
 20
-2.5453413580305102
 30
0.0
 50
270.0
1001
ACAD
1000
HATCH
1002
{
1070
    19
1000
ANSI31
1040
0.0576
1040
6.2831853071795827
1002
}
  0
INSERT
  5
1710
  8
247
  6
CONTINUOUS
  2
*X6
 10
-154.107823388356
 20
-2.5453413580305102
 30
0.0
 50
270.0
1001
ACAD
1000
HATCH
1002
{
1070
    19
1000
ANSI31
1040
0.0576
1040
6.2831853071795827
1002
}
  0
LINE
  5
1711
  8
247
 10
-162.7755719153819
 20
-4.4392998114287909
 30
0.0
 11
-162.1701109778819
 21
-4.4392998114287909
 31
0.0
  0
POLYLINE
  5
1712
  8
247
 66
     1
 10
0.0
 20
0.0
 30
0.0
 70
     1
1001
HATCH_DISTANCE
1040
1.0
1001
HATCH_DISPLAY
1070
     0
1001
HATCH_TYPE
1070
     7
  0
VERTEX
  5
1713
  8
247
 10
-162.7755719153819
 20
-4.4392998114287909
 30
0.0
  0
VERTEX
  5
1714
  8
247
 10
-162.84900453256941
 20
-4.6953779364287822
 30
0.0
  0
VERTEX
  5
1715
  8
247
 10
-162.7642340247568
 20
-4.6953779364287822
 30
0.0
  0
VERTEX
  5
1716
  8
247
 10
-163.29160414194439
 20
-6.5345246954619629
 30
0.0
  0
VERTEX
  5
1717
  8
247
 10
-162.77090492319439
 20
-6.5345246954619629
 30
0.0
  0
VERTEX
  5
1718
  8
247
 10
-162.1701109778819
 20
-4.4392998114287909
 30
0.0
  0
SEQEND
  5
1719
  8
247
  0
POLYLINE
  5
171A
  8
247
 66
     1
 10
0.0
 20
0.0
 30
0.0
 70
     1
  0
VERTEX
  5
171B
  8
247
 10
-162.7755719153819
 20
-4.4392998114287909
 30
0.0
  0
VERTEX
  5
171C
  8
247
 10
-162.84900453256941
 20
-4.6953779364287822
 30
0.0
  0
VERTEX
  5
171D
  8
247
 10
-162.7642340247568
 20
-4.6953779364287822
 30
0.0
  0
VERTEX
  5
171E
  8
247
 10
-163.29160414194439
 20
-6.5345246954619629
 30
0.0
  0
VERTEX
  5
171F
  8
247
 10
-162.77090492319439
 20
-6.5345246954619629
 30
0.0
  0
VERTEX
  5
1720
  8
247
 10
-162.1701109778819
 20
-4.4392998114287909
 30
0.0
  0
SEQEND
  5
1721
  8
247
  0
LINE
  5
1722
  8
247
 10
-162.77090492319439
 20
-6.5345246954619629
 30
0.0
 11
-162.1701109778819
 21
-4.4392998114287909
 31
0.0
  0
LINE
  5
1723
  8
247
 10
-165.08483656381941
 20
-6.883731720720486
 30
0.0
 11
-160.3589312903818
 21
-6.883731720720486
 31
0.0
  0
LINE
  5
1724
  8
247
 10
-165.08483656381941
 20
-6.6509270392119904
 30
0.0
 11
-160.3589312903818
 21
-6.6509270392119904
 31
0.0
  0
ARC
  5
1725
  8
247
 10
-161.5609937903819
 20
-5.777917975491289
 30
0.0
 40
0.756615234375
 50
163.99975070172931
 51
304.96387329163002
  0
ARC
  5
1726
  8
247
 10
-165.08483656381941
 20
-5.6615156317412909
 30
0.0
 40
0.9894111328124999
 50
90.0
 51
270.0
  0
ARC
  5
1727
  8
247
 10
-165.08483656381941
 20
-5.6615156317412909
 30
0.0
 40
1.2222158203124971
 50
90.0
 51
270.0
  0
LINE
  5
1728
  8
247
 10
-163.29160414194439
 20
-6.5345246954619629
 30
0.0
 11
-162.77090492319439
 21
-6.5345246954619629
 31
0.0
  0
LINE
  5
1729
  8
247
 10
-163.77547723727511
 20
-6.4908888112926331
 30
0.0
 11
-163.4582163139556
 21
-6.1736278879730673
 31
0.0
  0
LINE
  5
172A
  8
247
 10
-164.85363862659159
 20
-6.5345246954619629
 30
0.0
 11
-164.19159773825859
 21
-5.8724838071289991
 31
0.0
  0
LINE
  5
172B
  8
247
 10
-164.5950072503048
 20
-6.5345246954619629
 30
0.0
 11
-164.2955685382114
 21
-6.2350859833685579
 31
0.0
  0
LINE
  5
172C
  8
247
 10
-164.07774449773129
 20
-6.5345246954619931
 30
0.0
 11
-163.41958484279959
 21
-5.8763650405302723
 31
0.0
  0
LINE
  5
172D
  8
247
 10
-164.1161594010666
 20
-5.6093896956077582
 30
0.0
 11
-164.30694336385571
 21
-6.274756126666956
 31
0.0
  0
ARC
  5
172E
  8
247
 10
-164.2563092200694
 20
-5.929239264553769
 30
0.0
 40
0.3492072715759277
 50
261.66285421114719
 51
66.338192159113646
  0
LINE
  5
172F
  8
247
 10
-164.3363758740181
 20
-6.5345246954619629
 30
0.0
 11
-163.4821625442074
 21
-5.680311365651316
 31
0.0
  0
LINE
  5
1730
  8
247
 10
-164.96267738413181
 20
-6.5345246954619629
 30
0.0
 11
-163.99658363413181
 21
-6.5345246954619629
 31
0.0
  0
LINE
  5
1731
  8
247
 10
-164.902537481916
 20
-6.3247921744995299
 30
0.0
 11
-163.91751644786359
 21
-5.3397711404470947
 31
0.0
  0
LINE
  5
1732
  8
247
 10
-164.79856132446801
 20
-5.96218464076484
 30
0.0
 11
-163.98364481559651
 21
-5.1472681318932221
 31
0.0
  0
ARC
  5
1733
  8
247
 10
-163.99658363413181
 20
-5.952521491116312
 30
0.0
 40
0.5820029296875
 50
270.0
 51
40.329840654167079
  0
LINE
  5
1734
  8
247
 10
-163.9151558345813
 20
-5.8546732797384031
 30
0.0
 11
-163.1517794434659
 21
-5.0912968886230612
 31
0.0
  0
LINE
  5
1735
  8
247
 10
-162.84900453256941
 20
-4.6953779364287822
 30
0.0
 11
-162.7755719153819
 21
-4.4392998114287909
 31
0.0
  0
LINE
  5
1736
  8
247
 10
-162.84900453256941
 20
-4.6953779364287822
 30
0.0
 11
-162.7642340247568
 21
-4.6953779364287822
 31
0.0
  0
LINE
  5
1737
  8
247
 10
-163.79975379033709
 20
-4.7047457303471667
 30
0.0
 11
-163.559655885978
 21
-4.464647825987992
 31
0.0
  0
LINE
  5
1738
  8
247
 10
-164.5430066877793
 20
-4.6721044989288441
 30
0.0
 11
-164.31020200027919
 21
-4.4392998114288478
 31
0.0
  0
LINE
  5
1739
  8
247
 10
-164.6040660560069
 20
-4.4392998114287909
 30
0.0
 11
-164.6708189856943
 21
-4.6721044989287872
 31
0.0
  0
LINE
  5
173A
  8
247
 10
-164.48297914194421
 20
-4.4392998114287909
 30
0.0
 11
-164.54973207163221
 21
-4.6721044989287872
 31
0.0
  0
LINE
  5
173B
  8
247
 10
-164.48297914194421
 20
-4.4392998114287909
 30
0.0
 11
-163.73196202026651
 21
-4.4392998114288771
 31
0.0
  0
LINE
  5
173C
  8
247
 10
-165.08483656381941
 20
-4.4392998114287909
 30
0.0
 11
-164.6040660560069
 21
-4.4392998114287909
 31
0.0
  0
LINE
  5
173D
  8
247
 10
-163.67738582657529
 20
-4.84100914287212
 30
0.0
 11
-163.38709558641409
 21
-4.5507189027109787
 31
0.0
  0
LINE
  5
173E
  8
247
 10
-164.54973207163221
 20
-4.6721044989287872
 30
0.0
 11
-164.42863636850711
 21
-4.6721044989295262
 31
0.0
  0
LINE
  5
173F
  8
247
 10
-165.08483656381941
 20
-4.6721044989287872
 30
0.0
 11
-164.6708189856943
 21
-4.6721044989287872
 31
0.0
  0
LINE
  5
1740
  8
247
 10
-164.4866328521243
 20
-4.8743620395606611
 30
0.0
 11
-164.0515706239924
 21
-4.4392998114288478
 31
0.0
  0
LINE
  5
1741
  8
247
 10
-163.64754687542609
 20
-5.0698015680096784
 30
0.0
 11
-163.25797070577551
 21
-4.680225398358953
 31
0.0
  0
ARC
  5
1742
  8
247
 10
-163.72956312631939
 20
-5.0213027411162852
 30
0.0
 40
0.5820078735351563
 50
287.66957754739968
 51
90.236159842671569
  0
LINE
  5
1743
  8
247
 10
-164.5906090095722
 20
-5.236969573295406
 30
0.0
 11
-163.7929392477057
 21
-4.4392998114288771
 31
0.0
  0
LINE
  5
1744
  8
247
 10
-164.0054364232418
 20
-5.6863224921122351
 30
0.0
 11
-163.17234979980529
 21
-4.8532358686756067
 31
0.0
  0
LINE
  5
1745
  8
247
 10
-163.29160414194439
 20
-6.5345246954619629
 30
0.0
 11
-162.7642340247568
 21
-4.6953779364287822
 31
0.0
  0
LINE
  5
1746
  8
247
 10
-163.84914167182069
 20
-4.6781894248744971
 30
0.0
 11
-164.0399224960241
 21
-5.343536121086041
 31
0.0
  0
ARC
  5
1747
  8
247
 10
-163.98928871225681
 20
-4.998029303616315
 30
0.0
 40
0.349197280883789
 50
261.6626016879294
 51
66.338155095189776
  0
LINE
  5
1748
  8
247
 10
-164.69458516702019
 20
-5.599577107030095
 30
0.0
 11
-163.87967209011541
 21
-4.784664030125624
 31
0.0
  0
LINE
  5
1749
  8
247
 10
-164.96267738413181
 20
-6.5345246954619629
 30
0.0
 11
-164.42863636850711
 21
-4.6721044989295262
 31
0.0
  0
ARC
  5
174A
  8
247
 10
-160.3589312903818
 20
-5.6615156317412909
 30
0.0
 40
1.2222158203124971
 50
270.0
 51
104.7707939660941
  0
ARC
  5
174B
  8
247
 10
-160.3589312903818
 20
-5.6615156317412909
 30
0.0
 40
0.9894111328124999
 50
270.0
 51
104.1274364964102
  0
LINE
  5
174C
  8
247
 10
-161.3510142981944
 20
-6.1013730536162809
 30
0.0
 11
-161.20152113413181
 21
-5.58003223330378
 31
0.0
  0
LINE
  5
174D
  8
247
 10
-161.3952672278819
 20
-5.58003223330378
 30
0.0
 11
-161.20152113413181
 21
-5.58003223330378
 31
0.0
  0
LINE
  5
174E
  8
247
 10
-161.1274117591318
 20
-6.3979690313995103
 30
0.0
 11
-160.99084730600691
 21
-6.5345246954619629
 31
0.0
  0
LINE
  5
174F
  8
247
 10
-161.3952672278819
 20
-5.58003223330378
 30
0.0
 11
-161.32851429819439
 21
-5.3472275458037881
 31
0.0
  0
LINE
  5
1750
  8
247
 10
-161.32851429819439
 20
-5.3472275458037881
 30
0.0
 11
-160.6503941810069
 21
-5.3472275458037881
 31
0.0
  0
LINE
  5
1751
  8
247
 10
-160.99084730600691
 20
-6.5345246954619629
 30
0.0
 11
-160.6503941810069
 21
-5.3472275458037881
 31
0.0
  0
POLYLINE
  5
1752
  8
247
 66
     1
 10
0.0
 20
0.0
 30
0.0
 70
     1
1001
HATCH_DISTANCE
1040
1.0
1001
HATCH_DISPLAY
1070
     0
1001
HATCH_TYPE
1070
     7
  0
VERTEX
  5
1753
  8
247
 10
-160.60042836069439
 20
-4.7020224676787841
 30
0.0
  0
VERTEX
  5
1754
  8
247
 10
-160.6705387122569
 20
-4.4796855536163021
 30
0.0
  0
VERTEX
  5
1755
  8
247
 10
-160.6705387122569
 20
-4.4796855536163021
 30
0.0
  0
VERTEX
  5
1756
  8
247
 10
-160.60042836069439
 20
-4.7020224676787841
 30
0.0
  0
SEQEND
  5
1757
  8
247
  0
POLYLINE
  5
1758
  8
247
 66
     1
 10
0.0
 20
0.0
 30
0.0
 70
     1
  0
VERTEX
  5
1759
  8
247
 10
-160.60042836069439
 20
-4.7020224676787841
 30
0.0
  0
VERTEX
  5
175A
  8
247
 10
-160.6705387122569
 20
-4.4796855536163021
 30
0.0
  0
VERTEX
  5
175B
  8
247
 10
-160.6705387122569
 20
-4.4796855536163021
 30
0.0
  0
VERTEX
  5
175C
  8
247
 10
-160.60042836069439
 20
-4.7020224676787841
 30
0.0
  0
SEQEND
  5
175D
  8
247
  0
LINE
  5
175E
  8
247
 10
-160.60042836069439
 20
-4.7020224676787841
 30
0.0
 11
-160.6705387122569
 21
-4.4796855536163021
 31
0.0
  0
POLYLINE
  5
175F
  8
247
 66
     1
 10
0.0
 20
0.0
 30
0.0
 70
     1
1001
HATCH_DISTANCE
1040
1.0
1001
HATCH_DISPLAY
1070
     0
1001
HATCH_TYPE
1070
     7
  0
VERTEX
  5
1760
  8
247
 10
-160.60042836069439
 20
-4.7020224676787841
 30
0.0
  0
VERTEX
  5
1761
  8
247
 10
-160.6705387122569
 20
-4.4796855536163021
 30
0.0
  0
VERTEX
  5
1762
  8
247
 10
-160.6705387122569
 20
-4.4796855536163021
 30
0.0
  0
VERTEX
  5
1763
  8
247
 10
-160.60042836069439
 20
-4.7020224676787841
 30
0.0
  0
SEQEND
  5
1764
  8
247
  0
POLYLINE
  5
1765
  8
247
 66
     1
 10
0.0
 20
0.0
 30
0.0
 70
     1
  0
VERTEX
  5
1766
  8
247
 10
-160.60042836069439
 20
-4.7020224676787841
 30
0.0
  0
VERTEX
  5
1767
  8
247
 10
-160.6705387122569
 20
-4.4796855536163021
 30
0.0
  0
VERTEX
  5
1768
  8
247
 10
-160.6705387122569
 20
-4.4796855536163021
 30
0.0
  0
VERTEX
  5
1769
  8
247
 10
-160.60042836069439
 20
-4.7020224676787841
 30
0.0
  0
SEQEND
  5
176A
  8
247
  0
LINE
  5
176B
  8
247
 10
-160.7114430091319
 20
-4.7370293036162909
 30
0.0
 11
-160.7815533606944
 21
-4.5146923895537538
 31
0.0
  0
ARC
  5
176C
  8
247
 10
-160.3589312903818
 20
-5.6615156317412909
 30
0.0
 40
1.222216369628905
 50
110.22964506332001
 51
118.57168892371671
  0
ARC
  5
176D
  8
247
 10
-161.27223793100691
 20
-4.9398281317412911
 30
0.0
 40
0.2444448051452637
 50
1.7101213820627339
 51
163.99839835444709
  0
ARC
  5
176E
  8
247
 10
-160.3589312903818
 20
-5.6615156317412909
 30
0.0
 40
0.9894138793945311
 50
110.8721834020736
 51
132.5419489373877
  0
ARC
  5
176F
  8
247
 10
-160.32396839975681
 20
-5.8176972723662841
 30
0.0
 40
1.9799648437499999
 50
155.2051773698409
 51
172.79482596205219
  0
ARC
  5
1770
  8
247
 10
-161.58598988413181
 20
-6.0339961004913052
 30
0.0
 40
0.2444446334838867
 50
164.000273057182
 51
344.00027305718248
  0
LINE
  5
1771
  8
247
 10
-161.82096547006941
 20
-5.9666191473663002
 30
0.0
 11
-161.5072135169444
 21
-4.8724423895537932
 31
0.0
  0
ARC
  5
1772
  8
247
 10
-161.39410707163191
 20
-5.195906256741277
 30
0.0
 40
0.7566075439453125
 50
53.444012197057482
 51
164.0001843876851
  0
LINE
  5
1773
  8
241
 10
-88.631815475576616
 20
-8.0000000000000249
 30
0.0
 11
-88.631815475576616
 21
-3.3011705852133231
 31
0.0
  0
LINE
  5
1774
  8
240
 10
-0.2531358191361619
 20
7.0604373810481604
 30
0.0
 11
-0.0590232694408144
 21
7.2545499307435399
 31
0.0
  0
LINE
  5
1775
  8
241
 10
-5.934641012049835
 20
8.4499999999999584
 30
0.0
 11
-6.8477865197884258
 21
7.5368544922613134
 31
0.0
  0
ARC
  5
1776
  8
241
 10
-76.178268884950072
 20
-2.7896984219728722
 30
0.0
 40
12.46404534886952
 50
167.0665202211996
 51
182.351838941268
  0
ARC
  5
1777
  8
241
 10
-86.768085104652286
 20
-0.3512079775587922
 30
0.0
 40
1.597117460464454
 50
80.718550522932716
 51
167.29677245700481
  0
ARC
  5
1778
  8
241
 10
94.013899255130269
 20
28.81009467894723
 30
0.0
 40
99.180453456113057
 50
196.04465581391841
 51
198.11031014286419
  0
CIRCLE
  5
1779
  8
246
 10
-3.453135819136206
 20
7.3959712869808172
 30
0.0
 40
2.500000000000008
  0
ARC
  5
177A
  8
240
 10
-0.2004446256781307
 20
7.3959712869808492
 30
0.0
 40
0.2
 50
315.00000000000028
 51
45.000000000000497
1001
GENIUS_GENOBJ-N-FIL_13
1002
{
1000
OWNER
1000
GEN
1002
}
1001
GENIUS_GENODEF_13
1002
{
1000
HIER
1070
     0
1002
}
1002
{
1000
MANEDIT
1070
     0
1002
}
1002
{
1000
NOSEL
1070
     0
1002
}
1002
{
1000
BEHIND
1070
     0
1002
}
1002
{
1000
OTHER
1070
     0
1002
}
1002
{
1000
REACTOR
1002
}
  0
ARC
  5
177B
  8
240
 10
-3.4531358191362642
 20
10.648662480438929
 30
0.0
 40
0.2
 50
45.000000000000497
 51
135.00000000000051
1001
GENIUS_GENOBJ-N-FIL_13
1002
{
1000
OWNER
1000
GEN
1002
}
1001
GENIUS_GENODEF_13
1002
{
1000
HIER
1070
     0
1002
}
1002
{
1000
MANEDIT
1070
     0
1002
}
1002
{
1000
NOSEL
1070
     0
1002
}
1002
{
1000
BEHIND
1070
     0
1002
}
1002
{
1000
OTHER
1070
     0
1002
}
1002
{
1000
REACTOR
1002
}
  0
ARC
  5
177C
  8
241
 10
-6.7058270125943684
 20
7.3959712869807612
 30
0.0
 40
0.2
 50
135.00000000000051
 51
225.0000000000004
1001
GENIUS_GENODEF_13
1002
{
1000
HIER
1070
     0
1002
}
1002
{
1000
MANEDIT
1070
     0
1002
}
1002
{
1000
NOSEL
1070
     0
1002
}
1002
{
1000
BEHIND
1070
     0
1002
}
1002
{
1000
OTHER
1070
     0
1002
}
1002
{
1000
REACTOR
1002
}
1001
GENIUS_GENOBJ-N-FIL_13
1002
{
1000
OWNER
1000
GEN
1002
}
  0
ARC
  5
177D
  8
241
 10
-3.453135819136234
 20
4.1432800935226783
 30
0.0
 40
0.2
 50
225.0000000000004
 51
315.00000000000051
1001
GENIUS_GENOBJ-N-FIL_13
1002
{
1000
OWNER
1000
GEN
1002
}
1001
GENIUS_GENODEF_13
1002
{
1000
HIER
1070
     0
1002
}
1002
{
1000
MANEDIT
1070
     0
1002
}
1002
{
1000
NOSEL
1070
     0
1002
}
1002
{
1000
BEHIND
1070
     0
1002
}
1002
{
1000
OTHER
1070
     0
1002
}
1002
{
1000
REACTOR
1002
}
  0
LINE
  5
177E
  8
245
 10
-172.54002341824381
 20
-0.0000000000000266
 30
0.0
 11
3.5737070303610201
 21
0.0000000000000018
 31
0.0
  0
LINE
  5
177F
  8
240
 10
-89.303135819136244
 20
9.9999999999999716
 30
0.0
 11
-167.35313581913621
 21
9.9999999999999716
 31
0.0
  0
LINE
  5
1780
  8
240
 10
-167.35313581913621
 20
-10.00000000000002
 30
0.0
 11
-89.303135819136244
 21
-10.00000000000002
 31
0.0
  0
LINE
  5
1781
  8
240
 10
-169.35313581913621
 20
-8.0000000000000249
 30
0.0
 11
-169.35313581913621
 21
-0.0000000000000266
 31
0.0
  0
ARC
  5
1782
  8
240
 10
-167.35313581913621
 20
-8.0000000000000249
 30
0.0
 40
2.0
 50
180.0
 51
270.0
  0
ARC
  5
1783
  8
240
 10
-167.35313581913621
 20
7.9999999999999707
 30
0.0
 40
2.0
 50
90.0
 51
180.0
  0
LINE
  5
1784
  8
240
 10
-169.35313581913621
 20
-0.0000000000000266
 30
0.0
 11
-169.35313581913621
 21
7.9999999999999707
 31
0.0
  0
LINE
  5
1785
  8
245
 10
-91.881810367162871
 20
2.449999999999747
 30
0.0
 11
3.388952969121191
 21
2.4499999999999762
 31
0.0
  0
LINE
  5
1786
  8
241
 10
-86.510495132016942
 20
1.2249999999999961
 30
0.0
 11
-1.2531343951305001
 21
1.224999999999935
 31
0.0
  0
LINE
  5
1787
  8
240
 10
-5.9346410120498092
 20
8.4499999999999602
 30
0.0
 11
-86.510495132016942
 21
8.4499999999999602
 31
0.0
  0
LINE
  5
1788
  8
240
 10
-86.631815475576616
 20
-6.000000000000024
 30
0.0
 11
-0.2531358191362187
 21
-6.000000000000024
 31
0.0
  0
LINE
  5
1789
  8
240
 10
-88.631815475576616
 20
-9.3286796564394461
 30
0.0
 11
-88.631815475576616
 21
-8.0000000000000249
 31
0.0
  0
LINE
  5
178A
  8
241
 10
-89.303135819136244
 20
-10.00000000000002
 30
0.0
 11
-89.303135819136244
 21
-0.0000000000000266
 31
0.0
  0
ARC
  5
178B
  8
240
 10
-86.631815475576616
 20
-8.0000000000000249
 30
0.0
 40
2.0000000000000071
 50
90.0
 51
180.0
  0
LINE
  5
178C
  8
240
 10
-89.303135819136244
 20
-10.00000000000002
 30
0.0
 11
-88.631815475576616
 21
-9.3286796564404124
 31
0.0
  0
ARC
  5
178D
  8
240
 10
-86.510495132016942
 20
11.44999999999996
 30
0.0
 40
3.0000000000000142
 50
225.00000000000031
 51
270.0
  0
LINE
  5
178E
  8
241
 10
-87.753135819136347
 20
8.7194608366266255
 30
0.0
 11
-87.753135819136347
 21
0.958856843899527
 31
0.0
  0
LINE
  5
178F
  8
241
 10
-89.303135819136244
 20
-0.0000000000000266
 30
0.0
 11
-89.303135819136244
 21
9.9999999999999716
 31
0.0
  0
LINE
  5
1790
  8
240
 10
-88.631815475576616
 20
9.3286796564403023
 30
0.0
 11
-89.303135819136244
 21
9.9999999999999716
 31
0.0
  0
LINE
  5
1791
  8
240
 10
-0.2531358191362187
 20
-6.000000000000024
 30
0.0
 11
-0.2531358191361903
 21
7.0604373810481231
 31
0.0
  0
LINE
  5
1792
  8
241
 10
-6.847248368831683
 20
7.254549930743452
 30
0.0
 11
-3.594019024416752
 21
4.0013205863286041
 31
0.0
  0
LINE
  5
1793
  8
241
 10
-3.311714462898919
 20
4.00185873728537
 30
0.0
 11
-0.2531358191361619
 21
7.0604373810481604
 31
0.0
  0
LINE
  5
1794
  8
241
 10
-1.303135819136229
 20
1.3979591836734651
 30
0.0
 11
-1.303135819136229
 21
6.0104373810480913
 31
0.0
  0
LINE
  5
1795
  8
240
 10
-3.5945571753735801
 20
10.79008383667624
 30
0.0
 11
-5.934641012049835
 21
8.4499999999999584
 31
0.0
  0
LINE
  5
1796
  8
240
 10
-0.0590232694408144
 20
7.5373926432181619
 30
0.0
 11
-3.3122526138557191
 21
10.79062198763299
 31
0.0
  0
ENDBLK
  5
1799
  8
0
  0
BLOCK
  8
0
  2
*U8
 70
     1
 10
0.0
 20
0.0
 30
0.0
  3
*U8
  1

  0
TEXT
  5
199F
  8
240
 62
    40
 10
-7.8330776789420691
 20
16.701110923310271
 30
0.0
 40
2.799999999999998
  1
45üï
 50
18.271315980207952
  0
ENDBLK
  5
19A1
  8
0
  0
ENDSEC
  0
SECTION
  2
ENTITIES
  0
TEXT
  5
145A
  8
241
 10
-169.4685741316176
 20
21.088411966526511
 30
0.0
 40
3.0
  1
ST20-CM20-45B-86
  7
YOKO
 11
-169.4685741316176
 21
21.088411966526511
 31
0.0
 73
     1
  0
LINE
  5
154C
  8
250
 10
-169.35313581913621
 20
-7.5000000000000249
 30
0.0
 11
-169.35313581913621
 21
-32.777016439767472
 31
0.0
  0
LINE
  5
154D
  8
250
 10
0.0
 20
6.8959712869808252
 30
0.0
 11
0.0
 21
-32.777016439767472
 31
0.0
  0
LINE
  5
154E
  8
250
 10
-167.12313581913619
 20
-31.777016439767461
 30
0.0
 11
-2.229999999999988
 21
-31.777016439767461
 31
0.0
  0
LINE
  5
1552
  8
250
 10
-87.753135819136347
 20
0.4588568438995271
 30
0.0
 11
-87.753135819136347
 21
-25.777016439767468
 31
0.0
  0
LINE
  5
1553
  8
250
 10
0.0
 20
6.8959712869808252
 30
0.0
 11
0.0
 21
-25.777016439767468
 31
0.0
  0
LINE
  5
1554
  8
250
 10
-85.523135819136357
 20
-24.777016439767468
 30
0.0
 11
-2.229999999999988
 21
-24.777016439767468
 31
0.0
  0
LINE
  5
1558
  8
250
 10
-167.85313581913621
 20
-9.9999999999999982
 30
0.0
 11
-181.67502956131301
 21
-9.9999999999999911
 31
0.0
  0
LINE
  5
1559
  8
250
 10
-167.8531358191361
 20
9.9999999999999716
 30
0.0
 11
-181.67502956131301
 21
9.9999999999999751
 31
0.0
  0
LINE
  5
155A
  8
250
 10
-180.6750295613131
 20
-7.7699999999999951
 30
0.0
 11
-180.6750295613131
 21
7.7699999999999738
 31
0.0
  0
LINE
  5
155E
  8
250
 10
-2.9531358191362642
 20
10.9
 30
0.0
 11
21.324974394244101
 21
10.9
 31
0.0
  0
LINE
  5
155F
  8
250
 10
20.324974394244091
 20
8.6699999999999982
 30
0.0
 11
20.324974394244091
 21
-6.6095217881728558
 31
0.0
  0
LINE
  5
1562
  8
250
 10
4.0737070303610201
 20
0.0000000000000016
 30
0.0
 11
14.324970438686901
 21
-0.0000000000000013
 31
0.0
  0
LINE
  5
1563
  8
250
 10
3.888952969121191
 20
2.4499999999999731
 30
0.0
 11
14.324970438686901
 21
2.4499999999999722
 31
0.0
  0
LINE
  5
1564
  8
250
 10
13.324970438686901
 20
4.6799999999999731
 30
0.0
 11
13.324970438686901
 21
6.9099999999999708
 31
0.0
  0
LINE
  5
1565
  8
250
 10
13.324970438686901
 20
-2.2299999999999991
 30
0.0
 11
13.324970438686901
 21
-15.29809523809524
 31
0.0
  0
LINE
  5
1566
  8
250
 10
13.324970438686901
 20
2.4499999999999722
 30
0.0
 11
13.324970438686901
 21
-0.000000000000001
 31
0.0
  0
TEXT
  5
156A
  8
250
 10
12.324970438686901
 20
-14.69809523809521
 30
0.0
 40
2.799999999999998
  1
2.45
 50
90.0
  0
LINE
  5
156B
  8
250
 10
12.953303772020231
 20
-2.2299999999999991
 30
0.0
 11
13.324970438686901
 21
-0.000000000000001
 31
0.0
  0
LINE
  5
156C
  8
250
 10
13.69663710535357
 20
-2.2299999999999991
 30
0.0
 11
13.324970438686901
 21
-0.000000000000001
 31
0.0
  0
LINE
  5
156D
  8
250
 10
13.324970438686901
 20
-0.000000000000001
 30
0.0
 11
13.324970438686901
 21
-2.2299999999999991
 31
0.0
  0
LINE
  5
156E
  8
250
 10
13.69663710535357
 20
4.6799999999999731
 30
0.0
 11
13.324970438686901
 21
2.4499999999999722
 31
0.0
  0
LINE
  5
156F
  8
250
 10
12.953303772020231
 20
4.6799999999999731
 30
0.0
 11
13.324970438686901
 21
2.4499999999999722
 31
0.0
  0
LINE
  5
1570
  8
250
 10
13.324970438686901
 20
2.4499999999999722
 30
0.0
 11
13.324970438686901
 21
4.6799999999999731
 31
0.0
  0
TEXT
  5
1571
  8
250
 10
19.324974394244091
 20
-5.8952360738871121
 30
0.0
 40
3.0
  1
\U+2205
 50
90.0
  0
TEXT
  5
1572
  8
250
 10
19.2249743942441
 20
-3.1809503596013982
 30
0.0
 40
2.799999999999998
  1
21.8
 50
90.0
  0
LINE
  5
1573
  8
250
 10
19.953307727577421
 20
8.6699999999999982
 30
0.0
 11
20.324974394244091
 21
10.9
 31
0.0
  0
LINE
  5
1574
  8
250
 10
20.696641060910761
 20
8.6699999999999982
 30
0.0
 11
20.324974394244091
 21
10.9
 31
0.0
  0
LINE
  5
1575
  8
250
 10
20.324974394244091
 20
10.9
 30
0.0
 11
20.324974394244091
 21
8.6699999999999982
 31
0.0
  0
TEXT
  5
1576
  8
250
 10
-48.543234576234831
 20
-23.777016439767468
 30
0.0
 40
2.799999999999998
  1
87.8
  0
LINE
  5
1577
  8
250
 10
-2.229999999999988
 20
-24.405349773100792
 30
0.0
 11
0.0
 21
-24.777016439767468
 31
0.0
  0
LINE
  5
1578
  8
250
 10
-2.229999999999988
 20
-25.148683106434131
 30
0.0
 11
0.0
 21
-24.777016439767468
 31
0.0
  0
LINE
  5
1579
  8
250
 10
0.0
 20
-24.777016439767468
 30
0.0
 11
-2.229999999999988
 21
-24.777016439767468
 31
0.0
  0
LINE
  5
157A
  8
250
 10
-85.523135819136357
 20
-25.148683106434131
 30
0.0
 11
-87.753135819136347
 21
-24.777016439767468
 31
0.0
  0
LINE
  5
157B
  8
250
 10
-85.523135819136357
 20
-24.405349773100792
 30
0.0
 11
-87.753135819136347
 21
-24.777016439767468
 31
0.0
  0
LINE
  5
157C
  8
250
 10
-87.753135819136347
 20
-24.777016439767468
 30
0.0
 11
-85.523135819136357
 21
-24.777016439767468
 31
0.0
  0
TEXT
  5
157D
  8
250
 10
-90.943234576234758
 20
-30.777016439767468
 30
0.0
 40
2.799999999999998
  1
169.4
  0
LINE
  5
157E
  8
250
 10
-2.229999999999988
 20
-31.405349773100809
 30
0.0
 11
0.0
 21
-31.777016439767461
 31
0.0
  0
LINE
  5
157F
  8
250
 10
-2.229999999999988
 20
-32.148683106434142
 30
0.0
 11
0.0
 21
-31.777016439767461
 31
0.0
  0
LINE
  5
1580
  8
250
 10
0.0
 20
-31.777016439767461
 30
0.0
 11
-2.229999999999988
 21
-31.777016439767461
 31
0.0
  0
LINE
  5
1581
  8
250
 10
-167.12313581913619
 20
-32.148683106434142
 30
0.0
 11
-169.35313581913621
 21
-31.777016439767461
 31
0.0
  0
LINE
  5
1582
  8
250
 10
-167.12313581913619
 20
-31.405349773100809
 30
0.0
 11
-169.35313581913621
 21
-31.777016439767461
 31
0.0
  0
LINE
  5
1583
  8
250
 10
-169.35313581913621
 20
-31.777016439767461
 30
0.0
 11
-167.12313581913619
 21
-31.777016439767461
 31
0.0
  0
TEXT
  5
1584
  8
250
 10
-181.67502956131301
 20
-3.895238095238104
 30
0.0
 40
3.0
  1
\U+2205
 50
90.0
  0
TEXT
  5
1585
  8
250
 10
-181.775029561313
 20
-1.1809523809523921
 30
0.0
 40
2.799999999999998
  1
20
 50
90.0
  0
LINE
  5
1586
  8
250
 10
-181.04669622797971
 20
7.7699999999999738
 30
0.0
 11
-180.6750295613131
 21
9.9999999999999751
 31
0.0
  0
LINE
  5
1587
  8
250
 10
-180.3033628946464
 20
7.7699999999999738
 30
0.0
 11
-180.6750295613131
 21
9.9999999999999751
 31
0.0
  0
LINE
  5
1588
  8
250
 10
-180.6750295613131
 20
9.9999999999999751
 30
0.0
 11
-180.6750295613131
 21
7.7699999999999738
 31
0.0
  0
LINE
  5
1589
  8
250
 10
-180.3033628946464
 20
-7.769999999999996
 30
0.0
 11
-180.6750295613131
 21
-9.9999999999999964
 31
0.0
  0
LINE
  5
158A
  8
250
 10
-181.04669622797971
 20
-7.769999999999996
 30
0.0
 11
-180.6750295613131
 21
-9.9999999999999964
 31
0.0
  0
LINE
  5
158B
  8
250
 10
-180.6750295613131
 20
-9.9999999999999964
 30
0.0
 11
-180.6750295613131
 21
-7.769999999999996
 31
0.0
  0
LINE
  5
1972
  8
250
 10
0.0000000000000004
 20
7.9783693737773476
 30
0.0
 11
0.0000000000000009
 21
18.562200701744182
 31
0.0
  0
LINE
  5
1973
  8
250
 10
-3.6658060044489962
 20
11.144175378226249
 30
0.0
 11
-7.8374522935333371
 21
15.315821667310511
 31
0.0
  0
ARC
  5
1974
  8
250
 10
0.0000000000000004
 20
7.4783693737773476
 30
0.0
 40
10.083831327966839
 50
102.69670103323411
 51
122.3032989667665
  0
TEXT
  5
1978
  8
250
 10
-7.8330776789420691
 20
16.701110923310271
 30
0.0
 40
2.799999999999998
  1
45üï
 50
18.271315980207952
  0
LINE
  5
1979
  8
250
 10
-5.1566727187248791
 20
15.711280899942571
 30
0.0
 11
-7.130345512346782
 21
14.60871488612397
 31
0.0
  0
LINE
  5
197A
  8
250
 10
-5.620946712051011
 20
16.291792832262178
 30
0.0
 11
-7.130345512346782
 21
14.60871488612397
 31
0.0
  0
LINE
  5
197B
  8
250
 10
-7.130345512346782
 20
14.60871488612397
 30
0.0
 11
-5.3888097153879446
 21
16.00153686610237
 31
0.0
  0
LINE
  5
197C
  8
250
 10
-2.257421956183828
 20
17.685010403520039
 30
0.0
 11
0.0000000000000009
 21
17.562200701744182
 31
0.0
  0
LINE
  5
197D
  8
250
 10
-2.175229321290383
 20
16.946235190607659
 30
0.0
 11
0.0000000000000009
 21
17.562200701744182
 31
0.0
  0
LINE
  5
197E
  8
250
 10
0.0000000000000009
 20
17.562200701744182
 30
0.0
 11
-2.2163256387371071
 21
17.315622797063838
 31
0.0
  0
TEXT
  5
1A9B
  8
247
 10
-158.10782338835611
 20
-6.5869429967962478
 30
0.0
 40
2.0
  1
ST20-CM20-45B-86
 41
0.7
  7
YOKO
 11
-158.10782338835611
 21
-6.5869429967962478
 31
0.0
 73
     1
  0
INSERT
  5
1A9C
  8
247
  6
CONTINUOUS
  2
*X4
 10
-154.107823388356
 20
-2.5453413580305102
 30
0.0
 50
270.0
1001
ACAD
1000
HATCH
1002
{
1070
    19
1000
ANSI31
1040
0.0576
1040
6.2831853071795827
1002
}
  0
INSERT
  5
1A9D
  8
247
  6
CONTINUOUS
  2
*X5
 10
-154.107823388356
 20
-2.5453413580305102
 30
0.0
 50
270.0
1001
ACAD
1000
HATCH
1002
{
1070
    19
1000
ANSI31
1040
0.0576
1040
6.2831853071795827
1002
}
  0
INSERT
  5
1A9E
  8
247
  6
CONTINUOUS
  2
*X6
 10
-154.107823388356
 20
-2.5453413580305102
 30
0.0
 50
270.0
1001
ACAD
1000
HATCH
1002
{
1070
    19
1000
ANSI31
1040
0.0576
1040
6.2831853071795827
1002
}
  0
LINE
  5
1A9F
  8
247
 10
-162.7755719153819
 20
-4.4392998114287909
 30
0.0
 11
-162.1701109778819
 21
-4.4392998114287909
 31
0.0
  0
POLYLINE
  5
1AA0
  8
247
 66
     1
 10
0.0
 20
0.0
 30
0.0
 70
     1
1001
HATCH_DISTANCE
1040
1.0
1001
HATCH_DISPLAY
1070
     0
1001
HATCH_TYPE
1070
     7
  0
VERTEX
  5
1AA1
  8
247
 10
-162.7755719153819
 20
-4.4392998114287909
 30
0.0
  0
VERTEX
  5
1AA2
  8
247
 10
-162.84900453256941
 20
-4.6953779364287822
 30
0.0
  0
VERTEX
  5
1AA3
  8
247
 10
-162.7642340247568
 20
-4.6953779364287822
 30
0.0
  0
VERTEX
  5
1AA4
  8
247
 10
-163.29160414194439
 20
-6.5345246954619629
 30
0.0
  0
VERTEX
  5
1AA5
  8
247
 10
-162.77090492319439
 20
-6.5345246954619629
 30
0.0
  0
VERTEX
  5
1AA6
  8
247
 10
-162.1701109778819
 20
-4.4392998114287909
 30
0.0
  0
SEQEND
  5
1AA7
  8
247
  0
POLYLINE
  5
1AA8
  8
247
 66
     1
 10
0.0
 20
0.0
 30
0.0
 70
     1
  0
VERTEX
  5
1AA9
  8
247
 10
-162.7755719153819
 20
-4.4392998114287909
 30
0.0
  0
VERTEX
  5
1AAA
  8
247
 10
-162.84900453256941
 20
-4.6953779364287822
 30
0.0
  0
VERTEX
  5
1AAB
  8
247
 10
-162.7642340247568
 20
-4.6953779364287822
 30
0.0
  0
VERTEX
  5
1AAC
  8
247
 10
-163.29160414194439
 20
-6.5345246954619629
 30
0.0
  0
VERTEX
  5
1AAD
  8
247
 10
-162.77090492319439
 20
-6.5345246954619629
 30
0.0
  0
VERTEX
  5
1AAE
  8
247
 10
-162.1701109778819
 20
-4.4392998114287909
 30
0.0
  0
SEQEND
  5
1AAF
  8
247
  0
LINE
  5
1AB0
  8
247
 10
-162.77090492319439
 20
-6.5345246954619629
 30
0.0
 11
-162.1701109778819
 21
-4.4392998114287909
 31
0.0
  0
LINE
  5
1AB1
  8
247
 10
-165.08483656381941
 20
-6.883731720720486
 30
0.0
 11
-160.3589312903818
 21
-6.883731720720486
 31
0.0
  0
LINE
  5
1AB2
  8
247
 10
-165.08483656381941
 20
-6.6509270392119904
 30
0.0
 11
-160.3589312903818
 21
-6.6509270392119904
 31
0.0
  0
ARC
  5
1AB3
  8
247
 10
-161.5609937903819
 20
-5.777917975491289
 30
0.0
 40
0.756615234375
 50
163.99975070172931
 51
304.96387329163002
  0
ARC
  5
1AB4
  8
247
 10
-165.08483656381941
 20
-5.6615156317412909
 30
0.0
 40
0.9894111328124999
 50
90.0
 51
270.0
  0
ARC
  5
1AB5
  8
247
 10
-165.08483656381941
 20
-5.6615156317412909
 30
0.0
 40
1.2222158203124971
 50
90.0
 51
270.0
  0
LINE
  5
1AB6
  8
247
 10
-163.29160414194439
 20
-6.5345246954619629
 30
0.0
 11
-162.77090492319439
 21
-6.5345246954619629
 31
0.0
  0
LINE
  5
1AB7
  8
247
 10
-163.77547723727511
 20
-6.4908888112926331
 30
0.0
 11
-163.4582163139556
 21
-6.1736278879730673
 31
0.0
  0
LINE
  5
1AB8
  8
247
 10
-164.85363862659159
 20
-6.5345246954619629
 30
0.0
 11
-164.19159773825859
 21
-5.8724838071289991
 31
0.0
  0
LINE
  5
1AB9
  8
247
 10
-164.5950072503048
 20
-6.5345246954619629
 30
0.0
 11
-164.2955685382114
 21
-6.2350859833685579
 31
0.0
  0
LINE
  5
1ABA
  8
247
 10
-164.07774449773129
 20
-6.5345246954619931
 30
0.0
 11
-163.41958484279959
 21
-5.8763650405302723
 31
0.0
  0
LINE
  5
1ABB
  8
247
 10
-164.1161594010666
 20
-5.6093896956077582
 30
0.0
 11
-164.30694336385571
 21
-6.274756126666956
 31
0.0
  0
ARC
  5
1ABC
  8
247
 10
-164.2563092200694
 20
-5.929239264553769
 30
0.0
 40
0.3492072715759277
 50
261.66285421114719
 51
66.338192159113646
  0
LINE
  5
1ABD
  8
247
 10
-164.3363758740181
 20
-6.5345246954619629
 30
0.0
 11
-163.4821625442074
 21
-5.680311365651316
 31
0.0
  0
LINE
  5
1ABE
  8
247
 10
-164.96267738413181
 20
-6.5345246954619629
 30
0.0
 11
-163.99658363413181
 21
-6.5345246954619629
 31
0.0
  0
LINE
  5
1ABF
  8
247
 10
-164.902537481916
 20
-6.3247921744995299
 30
0.0
 11
-163.91751644786359
 21
-5.3397711404470947
 31
0.0
  0
LINE
  5
1AC0
  8
247
 10
-164.79856132446801
 20
-5.96218464076484
 30
0.0
 11
-163.98364481559651
 21
-5.1472681318932221
 31
0.0
  0
ARC
  5
1AC1
  8
247
 10
-163.99658363413181
 20
-5.952521491116312
 30
0.0
 40
0.5820029296875
 50
270.0
 51
40.329840654167079
  0
LINE
  5
1AC2
  8
247
 10
-163.9151558345813
 20
-5.8546732797384031
 30
0.0
 11
-163.1517794434659
 21
-5.0912968886230612
 31
0.0
  0
LINE
  5
1AC3
  8
247
 10
-162.84900453256941
 20
-4.6953779364287822
 30
0.0
 11
-162.7755719153819
 21
-4.4392998114287909
 31
0.0
  0
LINE
  5
1AC4
  8
247
 10
-162.84900453256941
 20
-4.6953779364287822
 30
0.0
 11
-162.7642340247568
 21
-4.6953779364287822
 31
0.0
  0
LINE
  5
1AC5
  8
247
 10
-163.79975379033709
 20
-4.7047457303471667
 30
0.0
 11
-163.559655885978
 21
-4.464647825987992
 31
0.0
  0
LINE
  5
1AC6
  8
247
 10
-164.5430066877793
 20
-4.6721044989288441
 30
0.0
 11
-164.31020200027919
 21
-4.4392998114288478
 31
0.0
  0
LINE
  5
1AC7
  8
247
 10
-164.6040660560069
 20
-4.4392998114287909
 30
0.0
 11
-164.6708189856943
 21
-4.6721044989287872
 31
0.0
  0
LINE
  5
1AC8
  8
247
 10
-164.48297914194421
 20
-4.4392998114287909
 30
0.0
 11
-164.54973207163221
 21
-4.6721044989287872
 31
0.0
  0
LINE
  5
1AC9
  8
247
 10
-164.48297914194421
 20
-4.4392998114287909
 30
0.0
 11
-163.73196202026651
 21
-4.4392998114288771
 31
0.0
  0
LINE
  5
1ACA
  8
247
 10
-165.08483656381941
 20
-4.4392998114287909
 30
0.0
 11
-164.6040660560069
 21
-4.4392998114287909
 31
0.0
  0
LINE
  5
1ACB
  8
247
 10
-163.67738582657529
 20
-4.84100914287212
 30
0.0
 11
-163.38709558641409
 21
-4.5507189027109787
 31
0.0
  0
LINE
  5
1ACC
  8
247
 10
-164.54973207163221
 20
-4.6721044989287872
 30
0.0
 11
-164.42863636850711
 21
-4.6721044989295262
 31
0.0
  0
LINE
  5
1ACD
  8
247
 10
-165.08483656381941
 20
-4.6721044989287872
 30
0.0
 11
-164.6708189856943
 21
-4.6721044989287872
 31
0.0
  0
LINE
  5
1ACE
  8
247
 10
-164.4866328521243
 20
-4.8743620395606611
 30
0.0
 11
-164.0515706239924
 21
-4.4392998114288478
 31
0.0
  0
LINE
  5
1ACF
  8
247
 10
-163.64754687542609
 20
-5.0698015680096784
 30
0.0
 11
-163.25797070577551
 21
-4.680225398358953
 31
0.0
  0
ARC
  5
1AD0
  8
247
 10
-163.72956312631939
 20
-5.0213027411162852
 30
0.0
 40
0.5820078735351563
 50
287.66957754739968
 51
90.236159842671555
  0
LINE
  5
1AD1
  8
247
 10
-164.5906090095722
 20
-5.236969573295406
 30
0.0
 11
-163.7929392477057
 21
-4.4392998114288771
 31
0.0
  0
LINE
  5
1AD2
  8
247
 10
-164.0054364232418
 20
-5.6863224921122351
 30
0.0
 11
-163.17234979980529
 21
-4.8532358686756067
 31
0.0
  0
LINE
  5
1AD3
  8
247
 10
-163.29160414194439
 20
-6.5345246954619629
 30
0.0
 11
-162.7642340247568
 21
-4.6953779364287822
 31
0.0
  0
LINE
  5
1AD4
  8
247
 10
-163.84914167182069
 20
-4.6781894248744971
 30
0.0
 11
-164.0399224960241
 21
-5.343536121086041
 31
0.0
  0
ARC
  5
1AD5
  8
247
 10
-163.98928871225681
 20
-4.998029303616315
 30
0.0
 40
0.349197280883789
 50
261.6626016879294
 51
66.338155095189776
  0
LINE
  5
1AD6
  8
247
 10
-164.69458516702019
 20
-5.599577107030095
 30
0.0
 11
-163.87967209011541
 21
-4.784664030125624
 31
0.0
  0
LINE
  5
1AD7
  8
247
 10
-164.96267738413181
 20
-6.5345246954619629
 30
0.0
 11
-164.42863636850711
 21
-4.6721044989295262
 31
0.0
  0
ARC
  5
1AD8
  8
247
 10
-160.3589312903818
 20
-5.6615156317412909
 30
0.0
 40
1.2222158203124971
 50
270.0
 51
104.7707939660941
  0
ARC
  5
1AD9
  8
247
 10
-160.3589312903818
 20
-5.6615156317412909
 30
0.0
 40
0.9894111328124999
 50
270.0
 51
104.1274364964101
  0
LINE
  5
1ADA
  8
247
 10
-161.3510142981944
 20
-6.1013730536162809
 30
0.0
 11
-161.20152113413181
 21
-5.58003223330378
 31
0.0
  0
LINE
  5
1ADB
  8
247
 10
-161.3952672278819
 20
-5.58003223330378
 30
0.0
 11
-161.20152113413181
 21
-5.58003223330378
 31
0.0
  0
LINE
  5
1ADC
  8
247
 10
-161.1274117591318
 20
-6.3979690313995103
 30
0.0
 11
-160.99084730600691
 21
-6.5345246954619629
 31
0.0
  0
LINE
  5
1ADD
  8
247
 10
-161.3952672278819
 20
-5.58003223330378
 30
0.0
 11
-161.32851429819439
 21
-5.3472275458037881
 31
0.0
  0
LINE
  5
1ADE
  8
247
 10
-161.32851429819439
 20
-5.3472275458037881
 30
0.0
 11
-160.6503941810069
 21
-5.3472275458037881
 31
0.0
  0
LINE
  5
1ADF
  8
247
 10
-160.99084730600691
 20
-6.5345246954619629
 30
0.0
 11
-160.6503941810069
 21
-5.3472275458037881
 31
0.0
  0
POLYLINE
  5
1AE0
  8
247
 66
     1
 10
0.0
 20
0.0
 30
0.0
 70
     1
1001
HATCH_DISTANCE
1040
1.0
1001
HATCH_DISPLAY
1070
     0
1001
HATCH_TYPE
1070
     7
  0
VERTEX
  5
1AE1
  8
247
 10
-160.60042836069439
 20
-4.7020224676787841
 30
0.0
  0
VERTEX
  5
1AE2
  8
247
 10
-160.6705387122569
 20
-4.4796855536163021
 30
0.0
  0
VERTEX
  5
1AE3
  8
247
 10
-160.6705387122569
 20
-4.4796855536163021
 30
0.0
  0
VERTEX
  5
1AE4
  8
247
 10
-160.60042836069439
 20
-4.7020224676787841
 30
0.0
  0
SEQEND
  5
1AE5
  8
247
  0
POLYLINE
  5
1AE6
  8
247
 66
     1
 10
0.0
 20
0.0
 30
0.0
 70
     1
  0
VERTEX
  5
1AE7
  8
247
 10
-160.60042836069439
 20
-4.7020224676787841
 30
0.0
  0
VERTEX
  5
1AE8
  8
247
 10
-160.6705387122569
 20
-4.4796855536163021
 30
0.0
  0
VERTEX
  5
1AE9
  8
247
 10
-160.6705387122569
 20
-4.4796855536163021
 30
0.0
  0
VERTEX
  5
1AEA
  8
247
 10
-160.60042836069439
 20
-4.7020224676787841
 30
0.0
  0
SEQEND
  5
1AEB
  8
247
  0
LINE
  5
1AEC
  8
247
 10
-160.60042836069439
 20
-4.7020224676787841
 30
0.0
 11
-160.6705387122569
 21
-4.4796855536163021
 31
0.0
  0
POLYLINE
  5
1AED
  8
247
 66
     1
 10
0.0
 20
0.0
 30
0.0
 70
     1
1001
HATCH_DISTANCE
1040
1.0
1001
HATCH_DISPLAY
1070
     0
1001
HATCH_TYPE
1070
     7
  0
VERTEX
  5
1AEE
  8
247
 10
-160.60042836069439
 20
-4.7020224676787841
 30
0.0
  0
VERTEX
  5
1AEF
  8
247
 10
-160.6705387122569
 20
-4.4796855536163021
 30
0.0
  0
VERTEX
  5
1AF0
  8
247
 10
-160.6705387122569
 20
-4.4796855536163021
 30
0.0
  0
VERTEX
  5
1AF1
  8
247
 10
-160.60042836069439
 20
-4.7020224676787841
 30
0.0
  0
SEQEND
  5
1AF2
  8
247
  0
POLYLINE
  5
1AF3
  8
247
 66
     1
 10
0.0
 20
0.0
 30
0.0
 70
     1
  0
VERTEX
  5
1AF4
  8
247
 10
-160.60042836069439
 20
-4.7020224676787841
 30
0.0
  0
VERTEX
  5
1AF5
  8
247
 10
-160.6705387122569
 20
-4.4796855536163021
 30
0.0
  0
VERTEX
  5
1AF6
  8
247
 10
-160.6705387122569
 20
-4.4796855536163021
 30
0.0
  0
VERTEX
  5
1AF7
  8
247
 10
-160.60042836069439
 20
-4.7020224676787841
 30
0.0
  0
SEQEND
  5
1AF8
  8
247
  0
LINE
  5
1AF9
  8
247
 10
-160.7114430091319
 20
-4.7370293036162909
 30
0.0
 11
-160.7815533606944
 21
-4.5146923895537538
 31
0.0
  0
ARC
  5
1AFA
  8
247
 10
-160.3589312903818
 20
-5.6615156317412909
 30
0.0
 40
1.222216369628905
 50
110.22964506332001
 51
118.57168892371671
  0
ARC
  5
1AFB
  8
247
 10
-161.27223793100691
 20
-4.9398281317412911
 30
0.0
 40
0.2444448051452637
 50
1.7101213820627339
 51
163.99839835444709
  0
ARC
  5
1AFC
  8
247
 10
-160.3589312903818
 20
-5.6615156317412909
 30
0.0
 40
0.9894138793945311
 50
110.8721834020736
 51
132.5419489373877
  0
ARC
  5
1AFD
  8
247
 10
-160.32396839975681
 20
-5.8176972723662841
 30
0.0
 40
1.9799648437499999
 50
155.2051773698409
 51
172.79482596205219
  0
ARC
  5
1AFE
  8
247
 10
-161.58598988413181
 20
-6.0339961004913052
 30
0.0
 40
0.2444446334838867
 50
164.000273057182
 51
344.00027305718248
  0
LINE
  5
1AFF
  8
247
 10
-161.82096547006941
 20
-5.9666191473663002
 30
0.0
 11
-161.5072135169444
 21
-4.8724423895537932
 31
0.0
  0
ARC
  5
1B00
  8
247
 10
-161.39410707163191
 20
-5.195906256741277
 30
0.0
 40
0.7566075439453125
 50
53.444012197057482
 51
164.0001843876851
  0
LINE
  5
1B01
  8
241
 10
-88.631815475576616
 20
-8.0000000000000249
 30
0.0
 11
-88.631815475576616
 21
-3.3011705852133231
 31
0.0
  0
LINE
  5
1B02
  8
240
 10
-0.2531358191361619
 20
7.0604373810481604
 30
0.0
 11
-0.0590232694408144
 21
7.2545499307435399
 31
0.0
  0
LINE
  5
1B03
  8
241
 10
-5.934641012049835
 20
8.4499999999999584
 30
0.0
 11
-6.8477865197884258
 21
7.5368544922613134
 31
0.0
  0
ARC
  5
1B04
  8
241
 10
-76.178268884950072
 20
-2.7896984219728722
 30
0.0
 40
12.46404534886952
 50
167.0665202211996
 51
182.351838941268
  0
ARC
  5
1B05
  8
241
 10
-86.768085104652286
 20
-0.3512079775587922
 30
0.0
 40
1.597117460464454
 50
80.718550522932716
 51
167.29677245700481
  0
ARC
  5
1B06
  8
241
 10
94.013899255130269
 20
28.81009467894723
 30
0.0
 40
99.180453456113057
 50
196.04465581391841
 51
198.11031014286419
  0
CIRCLE
  5
1B07
  8
246
 10
-3.453135819136206
 20
7.3959712869808172
 30
0.0
 40
2.500000000000008
  0
ARC
  5
1B08
  8
240
 10
-0.2004446256781307
 20
7.3959712869808492
 30
0.0
 40
0.2
 50
315.00000000000028
 51
45.000000000000497
1001
GENIUS_GENOBJ-N-FIL_13
1002
{
1000
OWNER
1000
GEN
1002
}
1001
GENIUS_GENODEF_13
1002
{
1000
HIER
1070
     0
1002
}
1002
{
1000
MANEDIT
1070
     0
1002
}
1002
{
1000
NOSEL
1070
     0
1002
}
1002
{
1000
BEHIND
1070
     0
1002
}
1002
{
1000
OTHER
1070
     0
1002
}
1002
{
1000
REACTOR
1002
}
  0
ARC
  5
1B09
  8
240
 10
-3.4531358191362642
 20
10.648662480438929
 30
0.0
 40
0.2
 50
45.000000000000497
 51
135.00000000000051
1001
GENIUS_GENOBJ-N-FIL_13
1002
{
1000
OWNER
1000
GEN
1002
}
1001
GENIUS_GENODEF_13
1002
{
1000
HIER
1070
     0
1002
}
1002
{
1000
MANEDIT
1070
     0
1002
}
1002
{
1000
NOSEL
1070
     0
1002
}
1002
{
1000
BEHIND
1070
     0
1002
}
1002
{
1000
OTHER
1070
     0
1002
}
1002
{
1000
REACTOR
1002
}
  0
ARC
  5
1B0A
  8
241
 10
-6.7058270125943684
 20
7.3959712869807612
 30
0.0
 40
0.2
 50
135.00000000000051
 51
225.0000000000004
1001
GENIUS_GENODEF_13
1002
{
1000
HIER
1070
     0
1002
}
1002
{
1000
MANEDIT
1070
     0
1002
}
1002
{
1000
NOSEL
1070
     0
1002
}
1002
{
1000
BEHIND
1070
     0
1002
}
1002
{
1000
OTHER
1070
     0
1002
}
1002
{
1000
REACTOR
1002
}
1001
GENIUS_GENOBJ-N-FIL_13
1002
{
1000
OWNER
1000
GEN
1002
}
  0
ARC
  5
1B0B
  8
241
 10
-3.453135819136234
 20
4.1432800935226783
 30
0.0
 40
0.2
 50
225.0000000000004
 51
315.00000000000051
1001
GENIUS_GENOBJ-N-FIL_13
1002
{
1000
OWNER
1000
GEN
1002
}
1001
GENIUS_GENODEF_13
1002
{
1000
HIER
1070
     0
1002
}
1002
{
1000
MANEDIT
1070
     0
1002
}
1002
{
1000
NOSEL
1070
     0
1002
}
1002
{
1000
BEHIND
1070
     0
1002
}
1002
{
1000
OTHER
1070
     0
1002
}
1002
{
1000
REACTOR
1002
}
  0
LINE
  5
1B0C
  8
245
 10
-172.54002341824381
 20
-0.0000000000000266
 30
0.0
 11
3.5737070303610201
 21
0.0000000000000018
 31
0.0
  0
LINE
  5
1B0D
  8
240
 10
-89.303135819136244
 20
9.9999999999999716
 30
0.0
 11
-167.35313581913621
 21
9.9999999999999716
 31
0.0
  0
LINE
  5
1B0E
  8
240
 10
-167.35313581913621
 20
-10.00000000000002
 30
0.0
 11
-89.303135819136244
 21
-10.00000000000002
 31
0.0
  0
LINE
  5
1B0F
  8
240
 10
-169.35313581913621
 20
-8.0000000000000249
 30
0.0
 11
-169.35313581913621
 21
-0.0000000000000266
 31
0.0
  0
ARC
  5
1B10
  8
240
 10
-167.35313581913621
 20
-8.0000000000000249
 30
0.0
 40
2.0
 50
180.0
 51
270.0
  0
ARC
  5
1B11
  8
240
 10
-167.35313581913621
 20
7.9999999999999707
 30
0.0
 40
2.0
 50
90.0
 51
180.0
  0
LINE
  5
1B12
  8
240
 10
-169.35313581913621
 20
-0.0000000000000266
 30
0.0
 11
-169.35313581913621
 21
7.9999999999999707
 31
0.0
  0
LINE
  5
1B13
  8
245
 10
-91.881810367162871
 20
2.449999999999747
 30
0.0
 11
3.388952969121191
 21
2.4499999999999762
 31
0.0
  0
LINE
  5
1B14
  8
241
 10
-86.510495132016942
 20
1.2249999999999961
 30
0.0
 11
-1.2531343951305001
 21
1.224999999999935
 31
0.0
  0
LINE
  5
1B15
  8
240
 10
-5.9346410120498092
 20
8.4499999999999602
 30
0.0
 11
-86.510495132016942
 21
8.4499999999999602
 31
0.0
  0
LINE
  5
1B16
  8
240
 10
-86.631815475576616
 20
-6.000000000000024
 30
0.0
 11
-0.2531358191362187
 21
-6.000000000000024
 31
0.0
  0
LINE
  5
1B17
  8
240
 10
-88.631815475576616
 20
-9.3286796564394461
 30
0.0
 11
-88.631815475576616
 21
-8.0000000000000249
 31
0.0
  0
LINE
  5
1B18
  8
241
 10
-89.303135819136244
 20
-10.00000000000002
 30
0.0
 11
-89.303135819136244
 21
-0.0000000000000266
 31
0.0
  0
ARC
  5
1B19
  8
240
 10
-86.631815475576616
 20
-8.0000000000000249
 30
0.0
 40
2.0000000000000071
 50
90.0
 51
180.0
  0
LINE
  5
1B1A
  8
240
 10
-89.303135819136244
 20
-10.00000000000002
 30
0.0
 11
-88.631815475576616
 21
-9.3286796564404124
 31
0.0
  0
ARC
  5
1B1B
  8
240
 10
-86.510495132016942
 20
11.44999999999996
 30
0.0
 40
3.0000000000000142
 50
225.00000000000031
 51
270.0
  0
LINE
  5
1B1C
  8
241
 10
-87.753135819136347
 20
8.7194608366266255
 30
0.0
 11
-87.753135819136347
 21
0.958856843899527
 31
0.0
  0
LINE
  5
1B1D
  8
241
 10
-89.303135819136244
 20
-0.0000000000000266
 30
0.0
 11
-89.303135819136244
 21
9.9999999999999716
 31
0.0
  0
LINE
  5
1B1E
  8
240
 10
-88.631815475576616
 20
9.3286796564403023
 30
0.0
 11
-89.303135819136244
 21
9.9999999999999716
 31
0.0
  0
LINE
  5
1B1F
  8
240
 10
-0.2531358191362187
 20
-6.000000000000024
 30
0.0
 11
-0.2531358191361903
 21
7.0604373810481231
 31
0.0
  0
LINE
  5
1B20
  8
241
 10
-6.847248368831683
 20
7.254549930743452
 30
0.0
 11
-3.594019024416752
 21
4.0013205863286041
 31
0.0
  0
LINE
  5
1B21
  8
241
 10
-3.311714462898919
 20
4.00185873728537
 30
0.0
 11
-0.2531358191361619
 21
7.0604373810481604
 31
0.0
  0
LINE
  5
1B22
  8
241
 10
-1.303135819136229
 20
1.3979591836734651
 30
0.0
 11
-1.303135819136229
 21
6.0104373810480913
 31
0.0
  0
LINE
  5
1B23
  8
240
 10
-3.5945571753735801
 20
10.79008383667624
 30
0.0
 11
-5.934641012049835
 21
8.4499999999999584
 31
0.0
  0
LINE
  5
1B24
  8
240
 10
-0.0590232694408144
 20
7.5373926432181619
 30
0.0
 11
-3.3122526138557191
 21
10.79062198763299
 31
0.0
  0
VIEWPORT
  5
22
 67
     1
  8
0
 10
261.51769911504419
 20
148.5
 30
0.0
 40
523.0353982300885
 41
297.0
 68
     1
 69
     1
1001
ACAD
1000
MVIEW
1002
{
1070
    16
1010
0.0
1020
0.0
1030
0.0
1010
0.0
1020
0.0
1030
1.0
1040
0.0
1040
297.0
1040
261.51769911504419
1040
148.5
1040
50.0
1040
0.0
1040
0.0
1070
     0
1070
   100
1070
     1
1070
     1
1070
     0
1070
     0
1070
     0
1070
     0
1040
0.0
1040
0.0
1040
0.0
1040
1.0
1040
1.0
1040
10.0
1040
10.0
1070
     0
1002
{
1002
}
1002
}
1001
GENIUS_GENODEF_13
1002
{
1000
HIER
1070
     0
1002
}
1002
{
1000
MANEDIT
1070
     0
1002
}
1002
{
1000
NOSEL
1070
     0
1002
}
1002
{
1000
BEHIND
1070
     0
1002
}
1002
{
1000
OTHER
1070
     0
1002
}
1002
{
1000
REACTOR
1002
}
1001
GENIUS_GENOBJ-N-SDF_13
1002
{
1000
OWNER
1000
GEN
1002
}
1001
GENIUS_GENSCREG_15
1000
PF
1040
1.0
1000
DF
1040
1.0
1000
MIN
1011
0.0
1021
-0.0
1031
-0.0
1021
0.0
1031
0.0
1000
MAX
1011
523.0353982300885
1021
-0.0
1031
-0.0
1021
297.0
1031
0.0
1000
FLAGS
1070
     2
  0
ENDSEC
  0
EOF
