  0
SECTION
  2
HEADER
  9
$ACADVER
  1
AC1009
  9
$INSBASE
 10
0.0
 20
0.0
 30
0.0
  9
$EXTMIN
 10
-144.5888831962649
 20
-32.794273485439653
 30
-0.0000000349181948
  9
$EXTMAX
 10
21.332052032056939
 20
24.05332822840148
 30
0.0000000814935747
  9
$LIMMIN
 10
0.0
 20
0.0
  9
$LIMMAX
 10
297.0
 20
210.0
  9
$ORTHOMODE
 70
     1
  9
$REGENMODE
 70
     1
  9
$FILLMODE
 70
     1
  9
$QTEXTMODE
 70
     0
  9
$MIRRTEXT
 70
     1
  9
$DRAGMODE
 70
     2
  9
$LTSCALE
 40
10.0
  9
$OSMODE
 70
  2597
  9
$ATTMODE
 70
     1
  9
$TEXTSIZE
 40
3.0
  9
$TRACEWID
 40
1.0
  9
$TEXTSTYLE
  7
YOKO
  9
$CLAYER
  8
240
  9
$CELTYPE
  6
BYLAYER
  9
$CECOLOR
 62
   256
  9
$DIMSCALE
 40
1.0
  9
$DIMASZ
 40
2.2299999999999991
  9
$DIMEXO
 40
0.5
  9
$DIMDLI
 40
7.0
  9
$DIMRND
 40
0.0
  9
$DIMDLE
 40
0.0
  9
$DIMEXE
 40
1.0
  9
$DIMTP
 40
0.0
  9
$DIMTM
 40
0.01
  9
$DIMTXT
 40
2.799999999999998
  9
$DIMCEN
 40
0.0
  9
$DIMTSZ
 40
0.0
  9
$DIMTOL
 70
     0
  9
$DIMLIM
 70
     0
  9
$DIMTIH
 70
     0
  9
$DIMTOH
 70
     0
  9
$DIMSE1
 70
     0
  9
$DIMSE2
 70
     0
  9
$DIMTAD
 70
     3
  9
$DIMZIN
 70
     9
  9
$DIMBLK
  1
OPEN
  9
$DIMASO
 70
     1
  9
$DIMSHO
 70
     1
  9
$DIMPOST
  1

  9
$DIMAPOST
  1

  9
$DIMALT
 70
     0
  9
$DIMALTD
 70
     2
  9
$DIMALTF
 40
25.399999999999999
  9
$DIMLFAC
 40
1.0
  9
$DIMTOFL
 70
     1
  9
$DIMTVP
 40
0.0
  9
$DIMTIX
 70
     1
  9
$DIMSOXD
 70
     0
  9
$DIMSAH
 70
     0
  9
$DIMBLK1
  1

  9
$DIMBLK2
  1

  9
$DIMSTYLE
  2
BIGT
  9
$DIMCLRD
 70
   256
  9
$DIMCLRE
 70
   256
  9
$DIMCLRT
 70
    40
  9
$DIMTFAC
 40
1.0
  9
$DIMGAP
 40
1.0
  9
$LUNITS
 70
     2
  9
$LUPREC
 70
     3
  9
$SKETCHINC
 40
1.0
  9
$FILLETRAD
 40
0.2
  9
$AUNITS
 70
     0
  9
$AUPREC
 70
     3
  9
$MENU
  1
.
  9
$ELEVATION
 40
0.0
  9
$PELEVATION
 40
0.0
  9
$THICKNESS
 40
0.0
  9
$LIMCHECK
 70
     0
  9
$BLIPMODE
 70
     0
  9
$CHAMFERA
 40
0.25
  9
$CHAMFERB
 40
0.25
  9
$SKPOLY
 70
     0
  9
$TDCREATE
 40
2454678.7602377199
  9
$TDUPDATE
 40
2454679.3892408102
  9
$TDINDWG
 40
0.0094813426
  9
$TDUSRTIMER
 40
0.0094811574
  9
$USRTIMER
 70
     1
  9
$ANGBASE
 50
0.0
  9
$ANGDIR
 70
     0
  9
$PDMODE
 70
     1
  9
$PDSIZE
 40
0.0
  9
$PLINEWID
 40
0.0
  9
$COORDS
 70
     2
  9
$SPLFRAME
 70
     0
  9
$SPLINETYPE
 70
     6
  9
$SPLINESEGS
 70
     4
  9
$ATTDIA
 70
     1
  9
$ATTREQ
 70
     1
  9
$HANDLING
 70
     1
  9
$HANDSEED
  5
1A9E
  9
$SURFTAB1
 70
     6
  9
$SURFTAB2
 70
     6
  9
$SURFTYPE
 70
     6
  9
$SURFU
 70
     6
  9
$SURFV
 70
     6
  9
$UCSNAME
  2

  9
$UCSORG
 10
0.0
 20
0.0
 30
0.0
  9
$UCSXDIR
 10
1.0
 20
0.0
 30
0.0
  9
$UCSYDIR
 10
0.0
 20
1.0
 30
0.0
  9
$PUCSNAME
  2

  9
$PUCSORG
 10
0.0
 20
0.0
 30
0.0
  9
$PUCSXDIR
 10
1.0
 20
0.0
 30
0.0
  9
$PUCSYDIR
 10
0.0
 20
1.0
 30
0.0
  9
$USERI1
 70
     1
  9
$USERI2
 70
     0
  9
$USERI3
 70
     0
  9
$USERI4
 70
     0
  9
$USERI5
 70
     0
  9
$USERR1
 40
0.0
  9
$USERR2
 40
0.0
  9
$USERR3
 40
0.0
  9
$USERR4
 40
0.0
  9
$USERR5
 40
0.0
  9
$WORLDVIEW
 70
     1
  9
$SHADEDGE
 70
     3
  9
$SHADEDIF
 70
    70
  9
$TILEMODE
 70
     1
  9
$MAXACTVP
 70
    16
  9
$PLIMCHECK
 70
     0
  9
$PEXTMIN
 10
1.0000000000000000E+020
 20
1.0000000000000000E+020
 30
1.0000000000000000E+020
  9
$PEXTMAX
 10
-1.0000000000000000E+020
 20
-1.0000000000000000E+020
 30
-1.0000000000000000E+020
  9
$PLIMMIN
 10
0.0
 20
0.0
  9
$PLIMMAX
 10
420.0
 20
297.0
  9
$UNITMODE
 70
     0
  9
$VISRETAIN
 70
     1
  9
$PLINEGEN
 70
     0
  9
$PSLTSCALE
 70
     1
  0
ENDSEC
  0
SECTION
  2
TABLES
  0
TABLE
  2
VPORT
 70
    12
  0
VPORT
  2
*ACTIVE
 70
     0
 10
0.0
 20
0.0
 11
1.0
 21
1.0
 12
-61.628415582103969
 22
-4.3704726285190807
 13
0.0
 23
0.0
 14
7.0
 24
7.0
 15
7.0
 25
7.0
 16
0.0
 26
0.0
 36
1.0
 17
0.0
 27
0.0
 37
0.0
 40
112.17622854368859
 41
1.4864532019704431
 42
50.0
 43
0.0
 44
0.0
 50
0.0
 51
0.0
 71
     0
 72
  2000
 73
     1
 74
     0
 75
     0
 76
     0
 77
     0
 78
     0
  0
ENDTAB
  0
TABLE
  2
LTYPE
 70
    21
  0
LTYPE
  2
CONTINUOUS
 70
     0
  3
Solid line
 72
    65
 73
     0
 40
0.0
  0
LTYPE
  2
CENTER2
 70
     0
  3
___ _ ___ _ ___ _ ___ _ ___ _ ___ _ ___ _ ___ _
 72
    65
 73
     4
 40
1.125
 49
0.75
 49
-0.125
 49
0.125
 49
-0.125
  0
LTYPE
  2
HIDDEN2
 70
     0
  3
_ _ _ _ _ _ _ _ _ _ _ _ _ _ _ _ _ _ _ _ _ _ _ _
 72
    65
 73
     2
 40
0.1875
 49
0.125
 49
-0.0625
  0
LTYPE
  2
PHANTOM2
 70
     0
  3
___ _ _ ___ _ _ ___ _ _ ___ _ _ ___ _ _ ___ _ _
 72
    65
 73
     6
 40
1.25
 49
0.625
 49
-0.125
 49
0.125
 49
-0.125
 49
0.125
 49
-0.125
  0
LTYPE
  2
CENTER
 70
     0
  3
____ _ ____ _ ____ _ ____ _ ____ _ ____ _ ____ 
 72
    65
 73
     4
 40
2.0
 49
1.25
 49
-0.25
 49
0.25
 49
-0.25
  0
LTYPE
  2
AMCONSTR
 70
     0
  3
_______________________
 72
    65
 73
     2
 40
9999.0
 49
9999.0
 49
0.0
  0
LTYPE
  2
HIDDEN
 70
     0
  3
Hidden __ __ __ __ __ __ __ __ __ __ __ __ __ _
 72
    65
 73
     2
 40
9.5249999999999986
 49
6.3499999999999979
 49
-3.174999999999998
  0
LTYPE
  2
AMZIGZAG2
 70
     0
  3
/\/-/\/-/\/-/\/-/\/-/\/
 72
    65
 73
     2
 40
0.4401
 49
0.0001
 49
-0.4400000000000001
  0
LTYPE
  2
ACANSTGB
 70
     0
  3
__ . . __ . .
 72
    65
 73
     6
 40
0.35433070866
 49
0.15748031496
 49
-0.03937007874
 49
0.03937007874
 49
-0.03937007874
 49
0.03937007874
 49
-0.03937007874
  0
LTYPE
  2
ACANSTGL
 70
     0
  3
_ _ _ _ _
 72
    65
 73
     2
 40
0.11811023622
 49
0.07874015748
 49
-0.03937007874
  0
ENDTAB
  0
TABLE
  2
LAYER
 70
     9
  0
LAYER
  2
0
 70
     0
 62
     7
  6
CONTINUOUS
  0
LAYER
  2
240
 70
     0
 62
     4
  6
CONTINUOUS
  0
LAYER
  2
DEFPOINTS
 70
     0
 62
     7
  6
CONTINUOUS
  0
LAYER
  2
245
 70
     0
 62
     2
  6
CENTER2
  0
LAYER
  2
241
 70
     0
 62
   211
  6
CONTINUOUS
  0
LAYER
  2
246
 70
     0
 62
     3
  6
PHANTOM2
  0
LAYER
  2
247
 70
     0
 62
    60
  6
CONTINUOUS
  0
LAYER
  2
250
 70
     0
 62
     3
  6
CONTINUOUS
  0
ENDTAB
  0
TABLE
  2
STYLE
 70
     9
  0
STYLE
  2
STANDARD
 70
     0
 40
0.0
 41
1.0
 50
0.0
 71
     0
 42
3.0
  3
romans.shx
  4
extfont.shx
  0
STYLE
  2
YOKO
 70
     0
 40
0.0
 41
1.0
 50
0.0
 71
     0
 42
3.0
  3
romans.shx
  4
extfont.shx
  0
STYLE
  2

 70
     1
 40
0.0
 41
1.0
 50
0.0
 71
     0
 42
3.0
  3
ltypeshp.shx
  4

  0
STYLE
  2
ACANSTS
 70
     0
 40
1.0
 41
1.0
 50
0.0
 71
     0
 42
3.0
  3
romans.shx
  4
extfont.shx
  0
STYLE
  2
ACANSGDT
 70
     0
 40
0.0
 41
1.0
 50
0.0
 71
     0
 42
3.0
  3
amgdtans.shx
  4

  0
ENDTAB
  0
TABLE
  2
VIEW
 70
     0
  0
ENDTAB
  0
TABLE
  2
UCS
 70
     0
  0
ENDTAB
  0
TABLE
  2
APPID
 70
    31
  0
APPID
  2
ACAD
 70
     0
  0
APPID
  2
GLOBAL
 70
     0
  0
APPID
  2
DETAIL
 70
     0
  0
APPID
  2
GRPNAME
 70
     0
  0
APPID
  2
GPARA
 70
     0
  0
APPID
  2
MCAD_NO_VIS
 70
     0
  0
APPID
  2
ACAD_TEMP_GRAPHIC
 70
     0
  0
APPID
  2
ACATTRIBSERVICES
 70
     0
  0
APPID
  2
GENIUS_GENSCREG_15
 70
     0
  0
APPID
  2
GENIUS_GENODEF_13
 70
     0
  0
APPID
  2
GENIUS_GENOBJ-N-SDF_13
 70
     0
  0
APPID
  2
GENIUS_GENREC_14
 70
     0
  0
APPID
  2
GENIUS_GENOBJ-N-REC_13
 70
     0
  0
APPID
  2
GENIUS_GENDIMSH_14
 70
     0
  0
APPID
  2
GENIUS_GENOBJ-N-DIM_13
 70
     0
  0
APPID
  2
GENIUS_GENDIM_13
 70
     0
  0
APPID
  2
GENIUS_GENDTOL_13
 70
     0
  0
APPID
  2
GENIUS_GENOLIS_13
 70
     0
  0
APPID
  2
GENIUS_GENOENT_13
 70
     0
  0
APPID
  2
GENIUS_GENOBJ-F-FEM_13
 70
     0
  0
APPID
  2
GENIUS_GENOREF_13
 70
     0
  0
APPID
  2
GENIUS_GEFFEM_13
 70
     0
  0
APPID
  2
GENIUS_GEFFEMP_13
 70
     0
  0
APPID
  2
AD_DRAW
 70
     0
  0
APPID
  2
DESIGNERASSEMBLIES
 70
     0
  0
APPID
  2
ACADM_DIM_EDIT
 70
     0
  0
APPID
  2
AMDT_DM_ADJ
 70
     0
  0
APPID
  2
GENIUS_GENOBJ-N-FIL_13
 70
     0
  0
APPID
  2
HATCH_TYPE
 70
     0
  0
APPID
  2
HATCH_DISPLAY
 70
     0
  0
APPID
  2
HATCH_DISTANCE
 70
     0
  0
ENDTAB
  0
TABLE
  2
DIMSTYLE
 70
    29
  0
DIMSTYLE
  2
BIGT
 70
     0
  3

  4

  5

  6

  7

 40
1.0
 41
2.2299999999999991
 42
0.5
 43
7.0
 44
1.0
 45
0.0
 46
0.0
 47
0.0
 48
0.01
140
2.799999999999998
141
0.0
142
0.0
143
25.399999999999999
144
1.0
145
0.0
146
1.0
147
1.0
 71
     0
 72
     0
 73
     0
 74
     0
 75
     0
 76
     0
 77
     3
 78
     9
170
     0
171
     2
172
     1
173
     0
174
     1
175
     0
176
   256
177
   256
178
    40
  0
DIMSTYLE
  2
AM_ANSI
 70
     0
  3

  4
mm
  5

  6

  7

 40
1.0
 41
0.1
 42
0.05
 43
0.5
 44
0.1
 45
0.0
 46
0.0
 47
0.1
 48
0.1
140
0.12
141
0.0
142
0.0
143
25.399999999999999
144
1.0
145
0.0
146
0.71
147
0.06
 71
     0
 72
     0
 73
     1
 74
     1
 75
     0
 76
     0
 77
     0
 78
     7
170
     0
171
     2
172
     0
173
     0
174
     0
175
     0
176
   256
177
   256
178
     2
  0
DIMSTYLE
  2
AM_ANSI$3
 70
     0
  3

  4
mm
  5

  6

  7

 40
1.0
 41
0.1
 42
0.05
 43
0.5
 44
0.1
 45
0.0
 46
0.0
 47
0.1
 48
0.1
140
0.12
141
0.0
142
0.0
143
25.399999999999999
144
1.0
145
0.0
146
0.71
147
0.06
 71
     0
 72
     0
 73
     1
 74
     1
 75
     0
 76
     0
 77
     0
 78
     7
170
     0
171
     2
172
     0
173
     0
174
     0
175
     0
176
   256
177
   256
178
     2
  0
DIMSTYLE
  2
AM_ANSI$4
 70
     0
  3

  4
mm
  5

  6

  7

 40
1.0
 41
0.1
 42
0.05
 43
0.5
 44
0.1
 45
0.0
 46
0.0
 47
0.1
 48
0.1
140
0.12
141
0.0
142
0.0
143
25.399999999999999
144
1.0
145
0.0
146
0.71
147
0.06
 71
     0
 72
     0
 73
     1
 74
     1
 75
     0
 76
     0
 77
     0
 78
     7
170
     0
171
     2
172
     0
173
     0
174
     0
175
     0
176
   256
177
   256
178
     2
  0
DIMSTYLE
  2
AM_ANSI$7
 70
     0
  3

  4
mm
  5

  6

  7

 40
1.0
 41
0.1
 42
0.05
 43
0.5
 44
0.1
 45
0.0
 46
0.0
 47
0.1
 48
0.1
140
0.24
141
0.0
142
0.0
143
25.399999999999999
144
1.0
145
0.0
146
0.71
147
0.06
 71
     0
 72
     0
 73
     1
 74
     1
 75
     0
 76
     0
 77
     0
 78
     7
170
     0
171
     2
172
     0
173
     0
174
     0
175
     0
176
   256
177
   256
178
     2
  0
DIMSTYLE
  2
AM_ANSI$SF
 70
     0
  3

  4
mm
  5

  6

  7

 40
1.0
 41
0.1
 42
0.05
 43
0.5
 44
0.1
 45
0.0
 46
0.0
 47
0.1
 48
0.1
140
0.12
141
0.0
142
0.0
143
25.399999999999999
144
1.0
145
0.0
146
0.71
147
0.06
 71
     0
 72
     0
 73
     1
 74
     1
 75
     1
 76
     1
 77
     0
 78
     7
170
     0
171
     2
172
     0
173
     0
174
     0
175
     0
176
   256
177
   256
178
     2
  0
DIMSTYLE
  2
AM_ANSI$SH
 70
     0
  3

  4
mm
  5

  6
GENAXEH
  7

 40
1.0
 41
0.1
 42
0.05
 43
0.5
 44
0.1
 45
0.0
 46
0.0
 47
0.1
 48
0.1
140
0.12
141
0.0
142
0.0
143
25.399999999999999
144
1.0
145
0.0
146
0.71
147
0.06
 71
     0
 72
     0
 73
     1
 74
     1
 75
     1
 76
     1
 77
     0
 78
     7
170
     0
171
     2
172
     0
173
     1
174
     0
175
     0
176
   256
177
   256
178
     2
  0
ENDTAB
  0
ENDSEC
  0
SECTION
  2
BLOCKS
  0
BLOCK
  8
0
  2
$MODEL_SPACE
 70
     0
 10
0.0
 20
0.0
 30
0.0
  3
$MODEL_SPACE
  1

  0
ENDBLK
  5
18D0
  8
0
  0
BLOCK
 67
     1
  8
0
  2
$PAPER_SPACE
 70
     0
 10
0.0
 20
0.0
 30
0.0
  3
$PAPER_SPACE
  1

  0
ENDBLK
  5
18CC
 67
     1
  8
0
  0
BLOCK
  8
0
  2
_OPEN
 70
     0
 10
0.0
 20
0.0
 30
0.0
  3
_OPEN
  1

  0
LINE
  5
595
  8
0
  6
BYBLOCK
 62
     0
 10
-1.0
 20
0.1666666666666666
 30
0.0
 11
0.0
 21
0.0
 31
0.0
  0
LINE
  5
596
  8
0
  6
BYBLOCK
 62
     0
 10
-1.0
 20
-0.1666666666666666
 30
0.0
 11
0.0
 21
0.0
 31
0.0
  0
LINE
  5
597
  8
0
  6
BYBLOCK
 62
     0
 10
0.0
 20
0.0
 30
0.0
 11
-1.0
 21
0.0
 31
0.0
  0
ENDBLK
  5
599
  8
0
  0
BLOCK
  8
0
  2
GENAXEH
 70
     0
 10
0.0
 20
0.0
 30
0.0
  3
GENAXEH
  1

  0
LINE
  5
6E8
  8
0
 10
-1.0
 20
0.0
 30
0.0
 11
1.0
 21
0.0
 31
0.0
  0
ENDBLK
  5
6EA
  8
0
  0
BLOCK
  8
0
  2
*X5
 70
     1
 10
0.0
 20
0.0
 30
0.0
  3
*X5
  1

  0
LINE
  5
16E7
  8
0
 62
     0
 10
4.2731626460786929
 20
-5.8571670211471281
 30
0.0
 11
3.510115154589633
 21
-5.094119529658065
 31
0.0
  0
LINE
  5
16E8
  8
0
 62
     0
 10
3.4940719416106631
 20
-5.3367076929658772
 30
0.0
 11
3.188391765925398
 21
-5.03102751728062
 31
0.0
  0
LINE
  5
16E9
  8
0
 62
     0
 10
4.336254658456145
 20
-6.1788904098113671
 30
0.0
 11
4.030574482770878
 21
-5.8732102341260974
 31
0.0
  0
LINE
  5
16EA
  8
0
 62
     0
 10
3.161466872339401
 20
-5.2627339999814282
 30
0.0
 11
2.940339387738502
 21
-5.0416065153805283
 31
0.0
  0
LINE
  5
16EB
  8
0
 62
     0
 10
4.3383903626899851
 20
-6.4396574903320083
 30
0.0
 11
4.1045481757553324
 21
-6.2058153033973564
 31
0.0
  0
LINE
  5
16EC
  8
0
 62
     0
 10
2.9211994892945912
 20
-5.281097993223403
 30
0.0
 11
2.7312050109658839
 21
-5.091103514894697
 31
0.0
  0
LINE
  5
16ED
  8
0
 62
     0
 10
4.338390362689978
 20
-6.6982888666187872
 30
0.0
 11
4.105585681181485
 21
-6.4654841851102951
 31
0.0
  0
LINE
  5
16EE
  8
0
 62
     0
 10
2.7241461983551192
 20
-5.342676078570725
 30
0.0
 11
2.549611000613679
 21
-5.1681408808292844
 31
0.0
  0
LINE
  5
16EF
  8
0
 62
     0
 10
4.338390362689978
 20
-6.9569202429055821
 30
0.0
 11
4.105585681181485
 21
-6.7241155613970891
 31
0.0
  0
LINE
  5
16F0
  8
0
 62
     0
 10
2.5574155323842751
 20
-5.4345767888866652
 30
0.0
 11
2.3904879894348241
 21
-5.2676492459372142
 31
0.0
  0
LINE
  5
16F1
  8
0
 62
     0
 10
4.3383903626899851
 20
-7.2155516191923716
 30
0.0
 11
4.105585681181485
 21
-6.9827469376838751
 31
0.0
  0
LINE
  5
16F2
  8
0
 62
     0
 10
2.4161255819181502
 20
-5.5519182147073352
 30
0.0
 11
2.251507783582793
 21
-5.3873004163719713
 31
0.0
  0
LINE
  5
16F3
  8
0
 62
     0
 10
4.3383903626899851
 20
-7.4741829954791603
 30
0.0
 11
4.105585681181493
 21
-7.2413783139706691
 31
0.0
  0
LINE
  5
16F4
  8
0
 62
     0
 10
2.2989457159389901
 20
-5.6933697250149731
 30
0.0
 11
2.1319866093836382
 21
-5.526410618459618
 31
0.0
  0
LINE
  5
16F5
  8
0
 62
     0
 10
4.3383903626899851
 20
-7.7328143717659659
 30
0.0
 11
4.105585681181477
 21
-7.5000096902574622
 31
0.0
  0
LINE
  5
16F6
  8
0
 62
     0
 10
2.207225207815394
 20
-5.8602805931781683
 30
0.0
 11
2.03261766024983
 21
-5.6856730456126012
 31
0.0
  0
LINE
  5
16F7
  8
0
 62
     0
 10
4.338390362689978
 20
-7.9914457480527474
 30
0.0
 11
4.105585681181485
 21
-7.758641066544258
 31
0.0
  0
LINE
  5
16F8
  8
0
 62
     0
 10
2.1458777492053511
 20
-6.0575645108549052
 30
0.0
 11
1.955742399326019
 21
-5.8674291609755747
 31
0.0
  0
LINE
  5
16F9
  8
0
 62
     0
 10
4.338390362689978
 20
-8.2500771243395317
 30
0.0
 11
4.105585681181485
 21
-8.0172724428310431
 31
0.0
  0
LINE
  5
16FA
  8
0
 62
     0
 10
2.127884606905837
 20
-6.298202744842186
 30
0.0
 11
1.9064556573934901
 21
-6.0767737953298466
 31
0.0
  0
LINE
  5
16FB
  8
0
 62
     0
 10
4.3383903626899851
 20
-8.5087085006263337
 30
0.0
 11
4.105585681181485
 21
-8.2759038191178362
 31
0.0
  0
LINE
  5
16FC
  8
0
 62
     0
 10
2.0859571237484991
 20
-6.514906637971646
 30
0.0
 11
1.896203437136684
 21
-6.325152951359831
 31
0.0
  0
LINE
  5
16FD
  8
0
 62
     0
 10
4.338390362689978
 20
-8.7673398769131232
 30
0.0
 11
4.105585681181485
 21
-8.5345351954046365
 31
0.0
  0
LINE
  5
16FE
  8
0
 62
     0
 10
4.338390362689978
 20
-9.0259712531999217
 30
0.0
 11
4.105585681181485
 21
-8.7931665716914225
 31
0.0
  0
LINE
  5
16FF
  8
0
 62
     0
 10
4.338390362689978
 20
-9.2846026294867023
 30
0.0
 11
4.105585681181485
 21
-9.0517979479782156
 31
0.0
  0
LINE
  5
1700
  8
0
 62
     0
 10
4.338390362689978
 20
-9.5432340057735008
 30
0.0
 11
4.105585681181485
 21
-9.3104293242650016
 31
0.0
  0
LINE
  5
1701
  8
0
 62
     0
 10
4.3383903626899851
 20
-9.8018653820602886
 30
0.0
 11
4.105585681181485
 21
-9.5690607005517911
 31
0.0
  0
LINE
  5
1702
  8
0
 62
     0
 10
4.3383903626899851
 20
-10.06049675834708
 30
0.0
 11
4.105585681181493
 21
-9.8276920768385896
 31
0.0
  0
LINE
  5
1703
  8
0
 62
     0
 10
4.338390362689978
 20
-10.31912813463388
 30
0.0
 11
4.105585681181485
 21
-10.086323453125379
 31
0.0
  0
LINE
  5
1704
  8
0
 62
     0
 10
4.338390362689978
 20
-10.577759510920661
 30
0.0
 11
4.105585681181485
 21
-10.34495482941217
 31
0.0
  0
LINE
  5
1705
  8
0
 62
     0
 10
4.338390362689978
 20
-10.836390887207459
 30
0.0
 11
4.105585681181485
 21
-10.60358620569896
 31
0.0
  0
LINE
  5
1706
  8
0
 62
     0
 10
4.3331743680063184
 20
-11.08980626881058
 30
0.0
 11
4.105585681181485
 21
-10.862217581985741
 31
0.0
  0
LINE
  5
1707
  8
0
 62
     0
 10
4.2927234683474307
 20
-11.30798674543848
 30
0.0
 11
4.0963826280125373
 21
-11.11164590510359
 31
0.0
  0
LINE
  5
1708
  8
0
 62
     0
 10
4.2225300722551111
 20
-11.496424725632959
 30
0.0
 11
4.0447379717610339
 21
-11.31863262513888
 31
0.0
  0
LINE
  5
1709
  8
0
 62
     0
 10
4.1288343457024572
 20
-11.661360375367099
 30
0.0
 11
3.960418835935497
 21
-11.492944865600141
 31
0.0
  0
LINE
  5
170A
  8
0
 62
     0
 10
4.0145495478446014
 20
-11.80570695379603
 30
0.0
 11
3.849766277175481
 21
-11.640923683126911
 31
0.0
  0
LINE
  5
170B
  8
0
 62
     0
 10
3.880757097170298
 20
-11.93054587940852
 30
0.0
 11
3.7149104705198961
 21
-11.76469925275811
 31
0.0
  0
LINE
  5
170C
  8
0
 62
     0
 10
3.7271431977453031
 20
-12.03556335627032
 30
0.0
 11
3.555244829520197
 21
-11.86366498804521
 31
0.0
  0
LINE
  5
170D
  8
0
 62
     0
 10
2.1267631408982761
 20
-10.69381467571009
 30
0.0
 11
1.9433546960822801
 21
-10.51040623089408
 31
0.0
  0
LINE
  5
170E
  8
0
 62
     0
 10
3.551878254361716
 20
-12.11892978917353
 30
0.0
 11
3.367040741413724
 21
-11.93409227622552
 31
0.0
  0
LINE
  5
170F
  8
0
 62
     0
 10
2.1267631408982761
 20
-10.95244605199688
 30
0.0
 11
1.8939584533982801
 21
-10.719641364496891
 31
0.0
  0
LINE
  5
1710
  8
0
 62
     0
 10
3.3508120748548631
 20
-12.17649498595347
 30
0.0
 11
3.140443698089034
 21
-11.96612660918764
 31
0.0
  0
LINE
  5
1711
  8
0
 62
     0
 10
2.1649602340683489
 20
-11.24927452145374
 30
0.0
 11
1.893959103096269
 21
-10.978273390481659
 31
0.0
  0
LINE
  5
1712
  8
0
 62
     0
 10
3.1149140586925621
 20
-12.19922834607795
 30
0.0
 11
2.8439129277204782
 21
-11.928227215105871
 31
0.0
  0
LINE
  5
1713
  8
0
 62
     0
 10
2.8198068968923562
 20
-12.162752560564529
 30
0.0
 11
1.930434888609696
 21
-11.27338055228187
 31
0.0
  0
ENDBLK
  5
1714
  8
0
  0
BLOCK
  8
0
  2
*X6
 70
     1
 10
0.0
 20
0.0
 30
0.0
  3
*X6
  1

  0
LINE
  5
1717
  8
0
 62
     0
 10
3.9891833374314549
 20
-8.6767642279413888
 30
0.0
 11
3.9699999022341181
 21
-8.6575807927440565
 31
0.0
  0
LINE
  5
1718
  8
0
 62
     0
 10
3.9891833374314549
 20
-8.9353956042281784
 30
0.0
 11
3.6073930521298831
 21
-8.5536053189266141
 31
0.0
  0
LINE
  5
1719
  8
0
 62
     0
 10
3.9748178468112911
 20
-9.179661489894805
 30
0.0
 11
3.2447862020256362
 21
-8.4496298451091505
 31
0.0
  0
LINE
  5
171A
  8
0
 62
     0
 10
3.6122095777595682
 20
-9.0756845971298823
 30
0.0
 11
2.8821793519213919
 21
-8.3456543712917011
 31
0.0
  0
LINE
  5
171B
  8
0
 62
     0
 10
3.249601308707851
 20
-8.9717077043649454
 30
0.0
 11
2.5195725018171511
 21
-8.2416788974742428
 31
0.0
  0
LINE
  5
171C
  8
0
 62
     0
 10
2.8869930396561161
 20
-8.8677308116000084
 30
0.0
 11
2.1569656517128979
 21
-8.1377034236567951
 31
0.0
  0
LINE
  5
171D
  8
0
 62
     0
 10
2.52438477060439
 20
-8.763753918835075
 30
0.0
 11
1.8939584533982801
 21
-8.1333276016289702
 31
0.0
  0
LINE
  5
171E
  8
0
 62
     0
 10
2.1617765015526582
 20
-8.659777026070131
 30
0.0
 11
1.8939584533982901
 21
-8.3919589779157633
 31
0.0
  0
LINE
  5
171F
  8
0
 62
     0
 10
1.918015068738405
 20
-8.674646969542664
 30
0.0
 11
1.8939584533982801
 21
-8.6505903542025422
 31
0.0
  0
ENDBLK
  5
1720
  8
0
  0
BLOCK
  8
0
  2
*X7
 70
     1
 10
0.0
 20
0.0
 30
0.0
  3
*X7
  1

  0
LINE
  5
1723
  8
0
 62
     0
 10
3.868211204180473
 20
-7.0040038369696571
 30
0.0
 11
3.649960323505288
 21
-6.7857529562944654
 31
0.0
  0
LINE
  5
1724
  8
0
 62
     0
 10
3.9856529491582982
 20
-7.380076958234282
 30
0.0
 11
3.2873524678243831
 21
-6.6817764769003682
 31
0.0
  0
LINE
  5
1725
  8
0
 62
     0
 10
3.617185728354428
 20
-7.2702411137172014
 30
0.0
 11
2.924744612143483
 21
-6.5777999975062524
 31
0.0
  0
LINE
  5
1726
  8
0
 62
     0
 10
3.9698966386926511
 20
-7.6229520240554223
 30
0.0
 11
3.6965801245195551
 21
-7.3496355098823214
 31
0.0
  0
LINE
  5
1727
  8
0
 62
     0
 10
3.2412377906756031
 20
-7.1529245523251603
 30
0.0
 11
2.8018861877732841
 21
-6.7135729494228391
 31
0.0
  0
LINE
  5
1728
  8
0
 62
     0
 10
3.899258026677503
 20
-7.8109447883270624
 30
0.0
 11
3.6959786603753511
 21
-7.6076654220249154
 31
0.0
  0
LINE
  5
1729
  8
0
 62
     0
 10
3.034690875273276
 20
-7.2050090132096241
 30
0.0
 11
2.8018861877732761
 21
-6.9722043257096251
 31
0.0
  0
LINE
  5
172A
  8
0
 62
     0
 10
3.792131315773708
 20
-7.9624494537100619
 30
0.0
 11
3.5455738235496872
 21
-7.7158919614860322
 31
0.0
  0
LINE
  5
172B
  8
0
 62
     0
 10
2.202988506504409
 20
-6.6319380207275582
 30
0.0
 11
2.1787499076577741
 21
-6.6076994218809206
 31
0.0
  0
LINE
  5
172C
  8
0
 62
     0
 10
3.6531656331833751
 20
-8.082115147406526
 30
0.0
 11
3.2290805876554312
 21
-7.658030101878575
 31
0.0
  0
LINE
  5
172D
  8
0
 62
     0
 10
2.2677871082174681
 20
-6.9553679987274011
 30
0.0
 11
1.982121972154764
 21
-6.669702862664697
 31
0.0
  0
LINE
  5
172E
  8
0
 62
     0
 10
3.4804499382598562
 20
-8.168030828769794
 30
0.0
 11
2.8664723785437469
 21
-7.5540532690536812
 31
0.0
  0
LINE
  5
172F
  8
0
 62
     0
 10
2.1576583608831101
 20
-7.1038706276798393
 30
0.0
 11
1.983335797400418
 21
-6.929548064197145
 31
0.0
  0
LINE
  5
1730
  8
0
 62
     0
 10
3.262962952369413
 20
-8.2091752191661413
 30
0.0
 11
2.503864169432068
 21
-7.4500764362287972
 31
0.0
  0
LINE
  5
1731
  8
0
 62
     0
 10
2.9676848492862362
 20
-8.1725284923697501
 30
0.0
 11
1.9129553288231691
 21
-7.1177989719066872
 31
0.0
  0
LINE
  5
1732
  8
0
 62
     0
 10
2.623189712588176
 20
-8.0866647319584857
 30
0.0
 11
1.8976699797883021
 21
-7.3611449991586113
 31
0.0
  0
ENDBLK
  5
1733
  8
0
  0
BLOCK
  8
0
  2
A$C5E56080C
 70
     0
 10
0.0
 20
0.0
 30
0.0
  3
A$C5E56080C
  1

  0
TEXT
  5
1735
  8
247
 10
-118.1078233883561
 20
-6.322824103835881
 30
0.0
 40
2.0
  1
ST20-CM20-45B-46
 41
0.7
  7
YOKO
 11
-118.1078233883561
 21
-6.322824103835881
 31
0.0
 73
     1
  0
INSERT
  5
1736
  8
247
  6
CONTINUOUS
  2
*X5
 10
-114.1078233883559
 20
-2.2812224650701398
 30
0.0
 50
270.0
1001
ACAD
1000
HATCH
1002
{
1070
    19
1000
ANSI31
1040
0.0576
1040
6.2831853071795827
1002
}
  0
INSERT
  5
1737
  8
247
  6
CONTINUOUS
  2
*X6
 10
-114.1078233883559
 20
-2.2812224650701398
 30
0.0
 50
270.0
1001
ACAD
1000
HATCH
1002
{
1070
    19
1000
ANSI31
1040
0.0576
1040
6.2831853071795827
1002
}
  0
INSERT
  5
1738
  8
247
  6
CONTINUOUS
  2
*X7
 10
-114.1078233883559
 20
-2.2812224650701398
 30
0.0
 50
270.0
1001
ACAD
1000
HATCH
1002
{
1070
    19
1000
ANSI31
1040
0.0576
1040
6.2831853071795827
1002
}
  0
LINE
  5
1739
  8
247
 10
-122.7755719153819
 20
-4.1751809184684241
 30
0.0
 11
-122.1701109778819
 21
-4.1751809184684241
 31
0.0
  0
POLYLINE
  5
173A
  8
247
 66
     1
 10
0.0
 20
0.0
 30
0.0
 70
     1
1001
HATCH_DISTANCE
1040
1.0
1001
HATCH_DISPLAY
1070
     0
1001
HATCH_TYPE
1070
     7
  0
VERTEX
  5
173B
  8
247
 10
-122.7755719153819
 20
-4.1751809184684241
 30
0.0
  0
VERTEX
  5
173C
  8
247
 10
-122.8490045325694
 20
-4.4312590434684109
 30
0.0
  0
VERTEX
  5
173D
  8
247
 10
-122.7642340247569
 20
-4.4312590434684109
 30
0.0
  0
VERTEX
  5
173E
  8
247
 10
-123.2916041419444
 20
-6.2704058025015961
 30
0.0
  0
VERTEX
  5
173F
  8
247
 10
-122.77090492319439
 20
-6.2704058025015961
 30
0.0
  0
VERTEX
  5
1740
  8
247
 10
-122.1701109778819
 20
-4.1751809184684241
 30
0.0
  0
SEQEND
  5
1741
  8
247
  0
POLYLINE
  5
1742
  8
247
 66
     1
 10
0.0
 20
0.0
 30
0.0
 70
     1
  0
VERTEX
  5
1743
  8
247
 10
-122.7755719153819
 20
-4.1751809184684241
 30
0.0
  0
VERTEX
  5
1744
  8
247
 10
-122.8490045325694
 20
-4.4312590434684109
 30
0.0
  0
VERTEX
  5
1745
  8
247
 10
-122.7642340247569
 20
-4.4312590434684109
 30
0.0
  0
VERTEX
  5
1746
  8
247
 10
-123.2916041419444
 20
-6.2704058025015961
 30
0.0
  0
VERTEX
  5
1747
  8
247
 10
-122.77090492319439
 20
-6.2704058025015961
 30
0.0
  0
VERTEX
  5
1748
  8
247
 10
-122.1701109778819
 20
-4.1751809184684241
 30
0.0
  0
SEQEND
  5
1749
  8
247
  0
LINE
  5
174A
  8
247
 10
-122.77090492319439
 20
-6.2704058025015961
 30
0.0
 11
-122.1701109778819
 21
-4.1751809184684241
 31
0.0
  0
LINE
  5
174B
  8
247
 10
-125.08483656381939
 20
-6.6196128277601192
 30
0.0
 11
-120.3589312903819
 21
-6.6196128277601192
 31
0.0
  0
LINE
  5
174C
  8
247
 10
-125.08483656381939
 20
-6.3868081462516191
 30
0.0
 11
-120.3589312903819
 21
-6.3868081462516191
 31
0.0
  0
ARC
  5
174D
  8
247
 10
-121.5609937903819
 20
-5.5137990825309204
 30
0.0
 40
0.756615234375
 50
163.99975070172931
 51
304.96387329163048
  0
ARC
  5
174E
  8
247
 10
-125.08483656381939
 20
-5.3973967387809241
 30
0.0
 40
0.9894111328124999
 50
90.0
 51
270.0
  0
ARC
  5
174F
  8
247
 10
-125.08483656381939
 20
-5.3973967387809241
 30
0.0
 40
1.2222158203124971
 50
90.0
 51
270.0
  0
LINE
  5
1750
  8
247
 10
-123.2916041419444
 20
-6.2704058025015961
 30
0.0
 11
-122.77090492319439
 21
-6.2704058025015961
 31
0.0
  0
LINE
  5
1751
  8
247
 10
-123.7754772372751
 20
-6.2267699183322627
 30
0.0
 11
-123.4582163139556
 21
-5.909508995012696
 31
0.0
  0
LINE
  5
1752
  8
247
 10
-124.8536386265916
 20
-6.2704058025015961
 30
0.0
 11
-124.19159773825859
 21
-5.6083649141686278
 31
0.0
  0
LINE
  5
1753
  8
247
 10
-124.5950072503049
 20
-6.2704058025015961
 30
0.0
 11
-124.2955685382114
 21
-5.9709670904081911
 31
0.0
  0
LINE
  5
1754
  8
247
 10
-124.0777444977313
 20
-6.2704058025016254
 30
0.0
 11
-123.41958484279959
 21
-5.612246147569901
 31
0.0
  0
LINE
  5
1755
  8
247
 10
-124.1161594010666
 20
-5.3452708026473879
 30
0.0
 11
-124.30694336385569
 21
-6.0106372337065848
 31
0.0
  0
ARC
  5
1756
  8
247
 10
-124.2563092200694
 20
-5.6651203715934004
 30
0.0
 40
0.3492072715759277
 50
261.66285421114719
 51
66.338192159113618
  0
LINE
  5
1757
  8
247
 10
-124.3363758740181
 20
-6.2704058025015961
 30
0.0
 11
-123.4821625442074
 21
-5.4161924726909483
 31
0.0
  0
LINE
  5
1758
  8
247
 10
-124.96267738413179
 20
-6.2704058025015961
 30
0.0
 11
-123.9965836341318
 21
-6.2704058025015961
 31
0.0
  0
LINE
  5
1759
  8
247
 10
-124.902537481916
 20
-6.0606732815391631
 30
0.0
 11
-123.9175164478636
 21
-5.0756522474867261
 31
0.0
  0
LINE
  5
175A
  8
247
 10
-124.798561324468
 20
-5.6980657478044732
 30
0.0
 11
-123.98364481559651
 21
-4.8831492389328552
 31
0.0
  0
ARC
  5
175B
  8
247
 10
-123.9965836341318
 20
-5.6884025981559443
 30
0.0
 40
0.5820029296875
 50
270.0
 51
40.329840654167107
  0
LINE
  5
175C
  8
247
 10
-123.9151558345813
 20
-5.5905543867780363
 30
0.0
 11
-123.1517794434659
 21
-4.8271779956626899
 31
0.0
  0
LINE
  5
175D
  8
247
 10
-122.8490045325694
 20
-4.4312590434684109
 30
0.0
 11
-122.7755719153819
 21
-4.1751809184684241
 31
0.0
  0
LINE
  5
175E
  8
247
 10
-122.8490045325694
 20
-4.4312590434684109
 30
0.0
 11
-122.7642340247569
 21
-4.4312590434684109
 31
0.0
  0
LINE
  5
175F
  8
247
 10
-123.79975379033721
 20
-4.4406268373867981
 30
0.0
 11
-123.559655885978
 21
-4.2005289330276243
 31
0.0
  0
LINE
  5
1760
  8
247
 10
-124.5430066877792
 20
-4.4079856059684728
 30
0.0
 11
-124.3102020002792
 21
-4.1751809184684801
 31
0.0
  0
LINE
  5
1761
  8
247
 10
-124.6040660560069
 20
-4.1751809184684241
 30
0.0
 11
-124.6708189856943
 21
-4.4079856059684159
 31
0.0
  0
LINE
  5
1762
  8
247
 10
-124.4829791419442
 20
-4.1751809184684241
 30
0.0
 11
-124.54973207163221
 21
-4.4079856059684159
 31
0.0
  0
LINE
  5
1763
  8
247
 10
-124.4829791419442
 20
-4.1751809184684241
 30
0.0
 11
-123.73196202026649
 21
-4.1751809184685076
 31
0.0
  0
LINE
  5
1764
  8
247
 10
-125.08483656381939
 20
-4.1751809184684241
 30
0.0
 11
-124.6040660560069
 21
-4.1751809184684241
 31
0.0
  0
LINE
  5
1765
  8
247
 10
-123.6773858265753
 20
-4.5768902499117523
 30
0.0
 11
-123.3870955864142
 21
-4.2866000097506101
 31
0.0
  0
LINE
  5
1766
  8
247
 10
-124.54973207163221
 20
-4.4079856059684159
 30
0.0
 11
-124.4286363685072
 21
-4.4079856059691549
 31
0.0
  0
LINE
  5
1767
  8
247
 10
-125.08483656381939
 20
-4.4079856059684159
 30
0.0
 11
-124.6708189856943
 21
-4.4079856059684159
 31
0.0
  0
LINE
  5
1768
  8
247
 10
-124.4866328521243
 20
-4.6102431466002924
 30
0.0
 11
-124.0515706239925
 21
-4.1751809184684801
 31
0.0
  0
LINE
  5
1769
  8
247
 10
-123.6475468754261
 20
-4.805682675049308
 30
0.0
 11
-123.25797070577551
 21
-4.4161065053985853
 31
0.0
  0
ARC
  5
176A
  8
247
 10
-123.72956312631941
 20
-4.7571838481559139
 30
0.0
 40
0.5820078735351563
 50
287.66957754739968
 51
90.236159842671626
  0
LINE
  5
176B
  8
247
 10
-124.5906090095722
 20
-4.9728506803350392
 30
0.0
 11
-123.7929392477057
 21
-4.1751809184685076
 31
0.0
  0
LINE
  5
176C
  8
247
 10
-124.0054364232418
 20
-5.4222035991518673
 30
0.0
 11
-123.1723497998053
 21
-4.5891169757152381
 31
0.0
  0
LINE
  5
176D
  8
247
 10
-123.2916041419444
 20
-6.2704058025015961
 30
0.0
 11
-122.7642340247569
 21
-4.4312590434684109
 31
0.0
  0
LINE
  5
176E
  8
247
 10
-123.8491416718207
 20
-4.4140705319141311
 30
0.0
 11
-124.0399224960241
 21
-5.0794172281256733
 31
0.0
  0
ARC
  5
176F
  8
247
 10
-123.98928871225679
 20
-4.7339104106559482
 30
0.0
 40
0.349197280883789
 50
261.6626016879294
 51
66.338155095189762
  0
LINE
  5
1770
  8
247
 10
-124.69458516702019
 20
-5.3354582140697282
 30
0.0
 11
-123.8796720901156
 21
-4.5205451371652527
 31
0.0
  0
LINE
  5
1771
  8
247
 10
-124.96267738413179
 20
-6.2704058025015961
 30
0.0
 11
-124.4286363685072
 21
-4.4079856059691549
 31
0.0
  0
ARC
  5
1772
  8
247
 10
-120.3589312903819
 20
-5.3973967387809241
 30
0.0
 40
1.2222158203124971
 50
270.0
 51
104.7707939660941
  0
ARC
  5
1773
  8
247
 10
-120.3589312903819
 20
-5.3973967387809241
 30
0.0
 40
0.9894111328124999
 50
270.0
 51
104.1274364964102
  0
LINE
  5
1774
  8
247
 10
-121.3510142981944
 20
-5.8372541606559132
 30
0.0
 11
-121.2015211341318
 21
-5.3159133403434113
 31
0.0
  0
LINE
  5
1775
  8
247
 10
-121.3952672278819
 20
-5.3159133403434113
 30
0.0
 11
-121.2015211341318
 21
-5.3159133403434113
 31
0.0
  0
LINE
  5
1776
  8
247
 10
-121.1274117591319
 20
-6.1338501384391391
 30
0.0
 11
-120.9908473060069
 21
-6.2704058025015961
 31
0.0
  0
LINE
  5
1777
  8
247
 10
-121.3952672278819
 20
-5.3159133403434113
 30
0.0
 11
-121.32851429819441
 21
-5.0831086528434168
 31
0.0
  0
LINE
  5
1778
  8
247
 10
-121.32851429819441
 20
-5.0831086528434168
 30
0.0
 11
-120.6503941810069
 21
-5.0831086528434168
 31
0.0
  0
LINE
  5
1779
  8
247
 10
-120.9908473060069
 20
-6.2704058025015961
 30
0.0
 11
-120.6503941810069
 21
-5.0831086528434168
 31
0.0
  0
POLYLINE
  5
177A
  8
247
 66
     1
 10
0.0
 20
0.0
 30
0.0
 70
     1
1001
HATCH_DISTANCE
1040
1.0
1001
HATCH_DISPLAY
1070
     0
1001
HATCH_TYPE
1070
     7
  0
VERTEX
  5
177B
  8
247
 10
-120.60042836069439
 20
-4.4379035747184172
 30
0.0
  0
VERTEX
  5
177C
  8
247
 10
-120.6705387122569
 20
-4.2155666606559343
 30
0.0
  0
VERTEX
  5
177D
  8
247
 10
-120.6705387122569
 20
-4.2155666606559343
 30
0.0
  0
VERTEX
  5
177E
  8
247
 10
-120.60042836069439
 20
-4.4379035747184172
 30
0.0
  0
SEQEND
  5
177F
  8
247
  0
POLYLINE
  5
1780
  8
247
 66
     1
 10
0.0
 20
0.0
 30
0.0
 70
     1
  0
VERTEX
  5
1781
  8
247
 10
-120.60042836069439
 20
-4.4379035747184172
 30
0.0
  0
VERTEX
  5
1782
  8
247
 10
-120.6705387122569
 20
-4.2155666606559343
 30
0.0
  0
VERTEX
  5
1783
  8
247
 10
-120.6705387122569
 20
-4.2155666606559343
 30
0.0
  0
VERTEX
  5
1784
  8
247
 10
-120.60042836069439
 20
-4.4379035747184172
 30
0.0
  0
SEQEND
  5
1785
  8
247
  0
LINE
  5
1786
  8
247
 10
-120.60042836069439
 20
-4.4379035747184172
 30
0.0
 11
-120.6705387122569
 21
-4.2155666606559343
 31
0.0
  0
POLYLINE
  5
1787
  8
247
 66
     1
 10
0.0
 20
0.0
 30
0.0
 70
     1
1001
HATCH_DISTANCE
1040
1.0
1001
HATCH_DISPLAY
1070
     0
1001
HATCH_TYPE
1070
     7
  0
VERTEX
  5
1788
  8
247
 10
-120.60042836069439
 20
-4.4379035747184172
 30
0.0
  0
VERTEX
  5
1789
  8
247
 10
-120.6705387122569
 20
-4.2155666606559343
 30
0.0
  0
VERTEX
  5
178A
  8
247
 10
-120.6705387122569
 20
-4.2155666606559343
 30
0.0
  0
VERTEX
  5
178B
  8
247
 10
-120.60042836069439
 20
-4.4379035747184172
 30
0.0
  0
SEQEND
  5
178C
  8
247
  0
POLYLINE
  5
178D
  8
247
 66
     1
 10
0.0
 20
0.0
 30
0.0
 70
     1
  0
VERTEX
  5
178E
  8
247
 10
-120.60042836069439
 20
-4.4379035747184172
 30
0.0
  0
VERTEX
  5
178F
  8
247
 10
-120.6705387122569
 20
-4.2155666606559343
 30
0.0
  0
VERTEX
  5
1790
  8
247
 10
-120.6705387122569
 20
-4.2155666606559343
 30
0.0
  0
VERTEX
  5
1791
  8
247
 10
-120.60042836069439
 20
-4.4379035747184172
 30
0.0
  0
SEQEND
  5
1792
  8
247
  0
LINE
  5
1793
  8
247
 10
-120.7114430091319
 20
-4.4729104106559241
 30
0.0
 11
-120.7815533606944
 21
-4.2505734965933861
 31
0.0
  0
ARC
  5
1794
  8
247
 10
-120.3589312903819
 20
-5.3973967387809241
 30
0.0
 40
1.222216369628905
 50
110.22964506332001
 51
118.57168892371681
  0
ARC
  5
1795
  8
247
 10
-121.2722379310069
 20
-4.6757092387809207
 30
0.0
 40
0.2444448051452637
 50
1.710121382062711
 51
163.9983983544472
  0
ARC
  5
1796
  8
247
 10
-120.3589312903819
 20
-5.3973967387809241
 30
0.0
 40
0.9894138793945311
 50
110.8721834020737
 51
132.54194893738779
  0
ARC
  5
1797
  8
247
 10
-120.32396839975679
 20
-5.5535783794059164
 30
0.0
 40
1.9799648437499999
 50
155.2051773698411
 51
172.79482596205219
  0
ARC
  5
1798
  8
247
 10
-121.58598988413191
 20
-5.7698772075309348
 30
0.0
 40
0.2444446334838867
 50
164.00027305718189
 51
344.00027305718231
  0
LINE
  5
1799
  8
247
 10
-121.8209654700694
 20
-5.7025002544059298
 30
0.0
 11
-121.5072135169444
 21
-4.6083234965934254
 31
0.0
  0
ARC
  5
179A
  8
247
 10
-121.39410707163179
 20
-4.9317873637809084
 30
0.0
 40
0.7566075439453125
 50
53.444012197057511
 51
164.00018438768521
  0
LINE
  5
179B
  8
241
 10
-48.631815475576623
 20
-8.0000000000000249
 30
0.0
 11
-48.631815475576623
 21
-3.301170585213324
 31
0.0
  0
LINE
  5
179C
  8
240
 10
-0.2531358191362187
 20
7.0604373810481107
 30
0.0
 11
-0.0590232694408144
 21
7.2545499307435177
 31
0.0
  0
LINE
  5
179D
  8
241
 10
-5.9346410120498243
 20
8.4499999999999584
 30
0.0
 11
-6.8472483688316723
 21
7.5373926432180696
 31
0.0
  0
ARC
  5
179E
  8
241
 10
-33.336738511903107
 20
-3.003403832010282
 30
0.0
 40
15.29797517202879
 50
168.5622155474025
 51
181.1153015688937
  0
ARC
  5
179F
  8
241
 10
-46.781468454309028
 20
-0.3463536307995191
 30
0.0
 40
1.59454657329882
 50
80.215812470848192
 51
166.33897152878109
  0
ARC
  5
17A0
  8
241
 10
92.917435904512104
 20
28.473250138631951
 30
0.0
 40
98.033604015290692
 50
196.0325719183565
 51
198.12239403842599
  0
CIRCLE
  5
17A1
  8
246
 10
-3.453135819136234
 20
7.3959712869807959
 30
0.0
 40
2.4999999999999991
  0
ARC
  5
17A2
  8
240
 10
-3.4531358191362771
 20
10.64866248043892
 30
0.0
 40
0.2
 50
45.000000000000497
 51
135.00000000000051
1001
GENIUS_GENODEF_13
1002
{
1000
HIER
1070
     0
1002
}
1002
{
1000
MANEDIT
1070
     0
1002
}
1002
{
1000
NOSEL
1070
     0
1002
}
1002
{
1000
BEHIND
1070
     0
1002
}
1002
{
1000
OTHER
1070
     0
1002
}
1002
{
1000
REACTOR
1002
}
1001
GENIUS_GENOBJ-N-FIL_13
1002
{
1000
OWNER
1000
GEN
1002
}
  0
ARC
  5
17A3
  8
240
 10
-0.2004446256781307
 20
7.3959712869808261
 30
0.0
 40
0.2
 50
315.00000000000051
 51
45.000000000000497
1001
GENIUS_GENODEF_13
1002
{
1000
HIER
1070
     0
1002
}
1002
{
1000
MANEDIT
1070
     0
1002
}
1002
{
1000
NOSEL
1070
     0
1002
}
1002
{
1000
BEHIND
1070
     0
1002
}
1002
{
1000
OTHER
1070
     0
1002
}
1002
{
1000
REACTOR
1002
}
1001
GENIUS_GENOBJ-N-FIL_13
1002
{
1000
OWNER
1000
GEN
1002
}
  0
ARC
  5
17A4
  8
241
 10
-3.4531358191362198
 20
4.1432800935226783
 30
0.0
 40
0.2
 50
225.0000000000004
 51
315.00000000000051
1001
GENIUS_GENODEF_13
1002
{
1000
HIER
1070
     0
1002
}
1002
{
1000
MANEDIT
1070
     0
1002
}
1002
{
1000
NOSEL
1070
     0
1002
}
1002
{
1000
BEHIND
1070
     0
1002
}
1002
{
1000
OTHER
1070
     0
1002
}
1002
{
1000
REACTOR
1002
}
1001
GENIUS_GENOBJ-N-FIL_13
1002
{
1000
OWNER
1000
GEN
1002
}
  0
ARC
  5
17A5
  8
241
 10
-6.7058270125943551
 20
7.3959712869807621
 30
0.0
 40
0.2
 50
135.00000000000051
 51
225.0000000000004
1001
GENIUS_GENOBJ-N-FIL_13
1002
{
1000
OWNER
1000
GEN
1002
}
1001
GENIUS_GENODEF_13
1002
{
1000
HIER
1070
     0
1002
}
1002
{
1000
MANEDIT
1070
     0
1002
}
1002
{
1000
NOSEL
1070
     0
1002
}
1002
{
1000
BEHIND
1070
     0
1002
}
1002
{
1000
OTHER
1070
     0
1002
}
1002
{
1000
REACTOR
1002
}
  0
LINE
  5
17A6
  8
240
 10
-49.30313581913623
 20
9.9999999999999716
 30
0.0
 11
-127.3531358191362
 21
9.9999999999999716
 31
0.0
  0
LINE
  5
17A7
  8
240
 10
-127.3531358191362
 20
-10.00000000000002
 30
0.0
 11
-49.30313581913623
 21
-10.00000000000002
 31
0.0
  0
LINE
  5
17A8
  8
240
 10
-48.631815475576623
 20
-9.3286796564394461
 30
0.0
 11
-48.631815475576623
 21
-8.0000000000000249
 31
0.0
  0
LINE
  5
17A9
  8
241
 10
-49.30313581913623
 20
-10.00000000000002
 30
0.0
 11
-49.30313581913623
 21
-0.0000000000000266
 31
0.0
  0
LINE
  5
17AA
  8
240
 10
-49.30313581913623
 20
-10.00000000000002
 30
0.0
 11
-48.631815475576623
 21
-9.3286796564404124
 31
0.0
  0
LINE
  5
17AB
  8
241
 10
-46.510495132016949
 20
1.2249999999999961
 30
0.0
 11
-1.2531343951305001
 21
1.2249999999999319
 31
0.0
  0
LINE
  5
17AC
  8
240
 10
-5.9346410120498092
 20
8.4499999999999602
 30
0.0
 11
-46.510495132016949
 21
8.4499999999999602
 31
0.0
  0
LINE
  5
17AD
  8
240
 10
-46.631815475576623
 20
-6.0000000000000249
 30
0.0
 11
-0.2531358191362187
 21
-6.0000000000000249
 31
0.0
  0
LINE
  5
17AE
  8
241
 10
-1.303135819136229
 20
1.3979591836734651
 30
0.0
 11
-1.303135819136201
 21
6.0104373810480771
 31
0.0
  0
LINE
  5
17AF
  8
240
 10
-0.2531358191362187
 20
-6.0000000000000249
 30
0.0
 11
-0.2531358191362187
 21
7.0604373810481107
 31
0.0
  0
LINE
  5
17B0
  8
240
 10
-3.594557175373593
 20
10.79008383667623
 30
0.0
 11
-5.9346410120498243
 21
8.4499999999999584
 31
0.0
  0
LINE
  5
17B1
  8
240
 10
-0.0584851184840432
 20
7.5368544922613712
 30
0.0
 11
-3.311714462898975
 21
10.79008383667623
 31
0.0
  0
LINE
  5
17B2
  8
241
 10
-6.8477865197884267
 20
7.2550880817002241
 30
0.0
 11
-3.5945571753735219
 21
4.0018587372853673
 31
0.0
  0
LINE
  5
17B3
  8
241
 10
-3.3122526138556609
 20
4.0013205863286041
 30
0.0
 11
-0.2531358191362187
 21
7.0604373810481107
 31
0.0
  0
ARC
  5
17B4
  8
240
 10
-46.510495132016949
 20
11.44999999999996
 30
0.0
 40
3.0000000000000142
 50
225.00000000000031
 51
270.0
  0
ARC
  5
17B5
  8
240
 10
-46.631815475576623
 20
-8.0000000000000249
 30
0.0
 40
2.0000000000000071
 50
90.0
 51
180.0
  0
POLYLINE
  5
182D
  8
241
 66
     1
 10
0.0
 20
0.0
 30
0.0
 70
     8
  0
VERTEX
  5
182E
  8
241
 10
-46.5105
 20
1.2250000000000001
 30
0.0
 70
    32
  0
VERTEX
  5
182F
  8
241
 10
-46.511499999999998
 20
1.2250000000000001
 30
0.0
 70
    32
  0
VERTEX
  5
1830
  8
241
 10
-46.5124
 20
1.2250000000000001
 30
0.0
 70
    32
  0
VERTEX
  5
1831
  8
241
 10
-46.513399999999997
 20
1.2250000000000001
 30
0.0
 70
    32
  0
VERTEX
  5
1832
  8
241
 10
-46.514299999999999
 20
1.225009999999999
 30
0.0
 70
    32
  0
VERTEX
  5
1833
  8
241
 10
-46.515300000000003
 20
1.225009999999999
 30
0.0
 70
    32
  0
VERTEX
  5
1834
  8
241
 10
-46.516199999999998
 20
1.2250199999999991
 30
0.0
 70
    32
  0
VERTEX
  5
1835
  8
241
 10
-46.517200000000003
 20
1.225029999999999
 30
0.0
 70
    32
  0
VERTEX
  5
1836
  8
241
 10
-46.518199999999993
 20
1.225029999999999
 30
0.0
 70
    32
  0
VERTEX
  5
1837
  8
241
 10
-46.519099999999987
 20
1.225039999999999
 30
0.0
 70
    32
  0
VERTEX
  5
1838
  8
241
 10
-46.520099999999992
 20
1.2250499999999991
 30
0.0
 70
    32
  0
VERTEX
  5
1839
  8
241
 10
-46.520999999999987
 20
1.22506
 30
0.0
 70
    32
  0
VERTEX
  5
183A
  8
241
 10
-46.521999999999991
 20
1.2250799999999991
 30
0.0
 70
    32
  0
VERTEX
  5
183B
  8
241
 10
-46.522899999999993
 20
1.22509
 30
0.0
 70
    32
  0
VERTEX
  5
183C
  8
241
 10
-46.52389999999999
 20
1.2251000000000001
 30
0.0
 70
    32
  0
VERTEX
  5
183D
  8
241
 10
-46.524900000000002
 20
1.2251199999999991
 30
0.0
 70
    32
  0
VERTEX
  5
183E
  8
241
 10
-46.52579999999999
 20
1.225139999999999
 30
0.0
 70
    32
  0
VERTEX
  5
183F
  8
241
 10
-46.526800000000001
 20
1.2251499999999991
 30
0.0
 70
    32
  0
VERTEX
  5
1840
  8
241
 10
-46.527700000000003
 20
1.2251700000000001
 30
0.0
 70
    32
  0
VERTEX
  5
1841
  8
241
 10
-46.528700000000001
 20
1.22519
 30
0.0
 70
    32
  0
VERTEX
  5
1842
  8
241
 10
-46.529699999999991
 20
1.2252099999999999
 30
0.0
 70
    32
  0
VERTEX
  5
1843
  8
241
 10
-46.530599999999993
 20
1.2252299999999989
 30
0.0
 70
    32
  0
VERTEX
  5
1844
  8
241
 10
-46.53159999999999
 20
1.22526
 30
0.0
 70
    32
  0
VERTEX
  5
1845
  8
241
 10
-46.532499999999992
 20
1.225279999999999
 30
0.0
 70
    32
  0
VERTEX
  5
1846
  8
241
 10
-46.533499999999989
 20
1.2253099999999999
 30
0.0
 70
    32
  0
VERTEX
  5
1847
  8
241
 10
-46.534399999999991
 20
1.22533
 30
0.0
 70
    32
  0
VERTEX
  5
1848
  8
241
 10
-46.535400000000003
 20
1.22536
 30
0.0
 70
    32
  0
VERTEX
  5
1849
  8
241
 10
-46.5364
 20
1.2253899999999991
 30
0.0
 70
    32
  0
VERTEX
  5
184A
  8
241
 10
-46.537300000000002
 20
1.22542
 30
0.0
 70
    32
  0
VERTEX
  5
184B
  8
241
 10
-46.5383
 20
1.225449999999999
 30
0.0
 70
    32
  0
VERTEX
  5
184C
  8
241
 10
-46.539200000000001
 20
1.225479999999999
 30
0.0
 70
    32
  0
VERTEX
  5
184D
  8
241
 10
-46.540199999999999
 20
1.2255100000000001
 30
0.0
 70
    32
  0
VERTEX
  5
184E
  8
241
 10
-46.5411
 20
1.2255400000000001
 30
0.0
 70
    32
  0
VERTEX
  5
184F
  8
241
 10
-46.542099999999991
 20
1.225579999999999
 30
0.0
 70
    32
  0
VERTEX
  5
1850
  8
241
 10
-46.543100000000003
 20
1.2256100000000001
 30
0.0
 70
    32
  0
VERTEX
  5
1851
  8
241
 10
-46.54399999999999
 20
1.225649999999999
 30
0.0
 70
    32
  0
VERTEX
  5
1852
  8
241
 10
-46.545000000000002
 20
1.2256899999999991
 30
0.0
 70
    32
  0
VERTEX
  5
1853
  8
241
 10
-46.545900000000003
 20
1.2257299999999991
 30
0.0
 70
    32
  0
VERTEX
  5
1854
  8
241
 10
-46.546900000000001
 20
1.22577
 30
0.0
 70
    32
  0
VERTEX
  5
1855
  8
241
 10
-46.547899999999998
 20
1.2258100000000001
 30
0.0
 70
    32
  0
VERTEX
  5
1856
  8
241
 10
-46.5488
 20
1.2258500000000001
 30
0.0
 70
    32
  0
VERTEX
  5
1857
  8
241
 10
-46.549799999999998
 20
1.225889999999999
 30
0.0
 70
    32
  0
VERTEX
  5
1858
  8
241
 10
-46.550699999999999
 20
1.2259299999999991
 30
0.0
 70
    32
  0
VERTEX
  5
1859
  8
241
 10
-46.551699999999997
 20
1.225979999999999
 30
0.0
 70
    32
  0
VERTEX
  5
185A
  8
241
 10
-46.552599999999998
 20
1.2260299999999991
 30
0.0
 70
    32
  0
VERTEX
  5
185B
  8
241
 10
-46.553600000000003
 20
1.2260699999999991
 30
0.0
 70
    32
  0
VERTEX
  5
185C
  8
241
 10
-46.554600000000001
 20
1.2261200000000001
 30
0.0
 70
    32
  0
VERTEX
  5
185D
  8
241
 10
-46.555500000000002
 20
1.2261699999999991
 30
0.0
 70
    32
  0
VERTEX
  5
185E
  8
241
 10
-46.5565
 20
1.2262200000000001
 30
0.0
 70
    32
  0
VERTEX
  5
185F
  8
241
 10
-46.557400000000001
 20
1.2262699999999991
 30
0.0
 70
    32
  0
VERTEX
  5
1860
  8
241
 10
-46.558399999999999
 20
1.2263200000000001
 30
0.0
 70
    32
  0
VERTEX
  5
1861
  8
241
 10
-46.5593
 20
1.22638
 30
0.0
 70
    32
  0
VERTEX
  5
1862
  8
241
 10
-46.560299999999998
 20
1.226429999999999
 30
0.0
 70
    32
  0
VERTEX
  5
1863
  8
241
 10
-46.561300000000003
 20
1.226489999999999
 30
0.0
 70
    32
  0
VERTEX
  5
1864
  8
241
 10
-46.562199999999997
 20
1.2265399999999991
 30
0.0
 70
    32
  0
VERTEX
  5
1865
  8
241
 10
-46.563200000000002
 20
1.226599999999999
 30
0.0
 70
    32
  0
VERTEX
  5
1866
  8
241
 10
-46.564100000000003
 20
1.2266600000000001
 30
0.0
 70
    32
  0
VERTEX
  5
1867
  8
241
 10
-46.565099999999987
 20
1.22672
 30
0.0
 70
    32
  0
VERTEX
  5
1868
  8
241
 10
-46.566000000000003
 20
1.2267799999999991
 30
0.0
 70
    32
  0
VERTEX
  5
1869
  8
241
 10
-46.566999999999993
 20
1.226839999999999
 30
0.0
 70
    32
  0
VERTEX
  5
186A
  8
241
 10
-46.567999999999991
 20
1.2269000000000001
 30
0.0
 70
    32
  0
VERTEX
  5
186B
  8
241
 10
-46.568899999999992
 20
1.2269699999999999
 30
0.0
 70
    32
  0
VERTEX
  5
186C
  8
241
 10
-46.56989999999999
 20
1.227029999999999
 30
0.0
 70
    32
  0
VERTEX
  5
186D
  8
241
 10
-46.570799999999991
 20
1.2271000000000001
 30
0.0
 70
    32
  0
VERTEX
  5
186E
  8
241
 10
-46.571800000000003
 20
1.22716
 30
0.0
 70
    32
  0
VERTEX
  5
186F
  8
241
 10
-46.57269999999999
 20
1.2272299999999989
 30
0.0
 70
    32
  0
VERTEX
  5
1870
  8
241
 10
-46.573700000000002
 20
1.2273000000000001
 30
0.0
 70
    32
  0
VERTEX
  5
1871
  8
241
 10
-46.574699999999993
 20
1.2273700000000001
 30
0.0
 70
    32
  0
VERTEX
  5
1872
  8
241
 10
-46.575600000000001
 20
1.227439999999999
 30
0.0
 70
    32
  0
VERTEX
  5
1873
  8
241
 10
-46.576599999999992
 20
1.2275100000000001
 30
0.0
 70
    32
  0
VERTEX
  5
1874
  8
241
 10
-46.577500000000001
 20
1.2275899999999991
 30
0.0
 70
    32
  0
VERTEX
  5
1875
  8
241
 10
-46.578499999999991
 20
1.2276599999999991
 30
0.0
 70
    32
  0
VERTEX
  5
1876
  8
241
 10
-46.579399999999993
 20
1.2277400000000001
 30
0.0
 70
    32
  0
VERTEX
  5
1877
  8
241
 10
-46.58039999999999
 20
1.2278100000000001
 30
0.0
 70
    32
  0
VERTEX
  5
1878
  8
241
 10
-46.581299999999992
 20
1.227889999999999
 30
0.0
 70
    32
  0
VERTEX
  5
1879
  8
241
 10
-46.582299999999989
 20
1.22797
 30
0.0
 70
    32
  0
VERTEX
  5
187A
  8
241
 10
-46.583300000000001
 20
1.2280500000000001
 30
0.0
 70
    32
  0
VERTEX
  5
187B
  8
241
 10
-46.584200000000003
 20
1.2281299999999991
 30
0.0
 70
    32
  0
VERTEX
  5
187C
  8
241
 10
-46.5852
 20
1.22821
 30
0.0
 70
    32
  0
VERTEX
  5
187D
  8
241
 10
-46.586100000000002
 20
1.228289999999999
 30
0.0
 70
    32
  0
VERTEX
  5
187E
  8
241
 10
-46.5871
 20
1.22838
 30
0.0
 70
    32
  0
VERTEX
  5
187F
  8
241
 10
-46.588000000000001
 20
1.2284600000000001
 30
0.0
 70
    32
  0
VERTEX
  5
1880
  8
241
 10
-46.588999999999999
 20
1.22855
 30
0.0
 70
    32
  0
VERTEX
  5
1881
  8
241
 10
-46.5899
 20
1.228629999999999
 30
0.0
 70
    32
  0
VERTEX
  5
1882
  8
241
 10
-46.590899999999991
 20
1.22872
 30
0.0
 70
    32
  0
VERTEX
  5
1883
  8
241
 10
-46.591799999999999
 20
1.2288099999999991
 30
0.0
 70
    32
  0
VERTEX
  5
1884
  8
241
 10
-46.59279999999999
 20
1.2289000000000001
 30
0.0
 70
    32
  0
VERTEX
  5
1885
  8
241
 10
-46.593800000000002
 20
1.22899
 30
0.0
 70
    32
  0
VERTEX
  5
1886
  8
241
 10
-46.594700000000003
 20
1.2290799999999991
 30
0.0
 70
    32
  0
VERTEX
  5
1887
  8
241
 10
-46.595700000000001
 20
1.2291700000000001
 30
0.0
 70
    32
  0
VERTEX
  5
1888
  8
241
 10
-46.596600000000002
 20
1.2292700000000001
 30
0.0
 70
    32
  0
VERTEX
  5
1889
  8
241
 10
-46.5976
 20
1.22936
 30
0.0
 70
    32
  0
VERTEX
  5
188A
  8
241
 10
-46.598500000000001
 20
1.2294599999999991
 30
0.0
 70
    32
  0
VERTEX
  5
188B
  8
241
 10
-46.599499999999999
 20
1.2295599999999991
 30
0.0
 70
    32
  0
VERTEX
  5
188C
  8
241
 10
-46.6004
 20
1.229649999999999
 30
0.0
 70
    32
  0
VERTEX
  5
188D
  8
241
 10
-46.601399999999998
 20
1.229749999999999
 30
0.0
 70
    32
  0
VERTEX
  5
188E
  8
241
 10
-46.6023
 20
1.2298500000000001
 30
0.0
 70
    32
  0
VERTEX
  5
188F
  8
241
 10
-46.603299999999997
 20
1.2299500000000001
 30
0.0
 70
    32
  0
VERTEX
  5
1890
  8
241
 10
-46.604199999999999
 20
1.230059999999999
 30
0.0
 70
    32
  0
VERTEX
  5
1891
  8
241
 10
-46.605200000000004
 20
1.2301599999999999
 30
0.0
 70
    32
  0
VERTEX
  5
1892
  8
241
 10
-46.606200000000001
 20
1.2302599999999999
 30
0.0
 70
    32
  0
VERTEX
  5
1893
  8
241
 10
-46.607100000000003
 20
1.2303699999999991
 30
0.0
 70
    32
  0
VERTEX
  5
1894
  8
241
 10
-46.6081
 20
1.23048
 30
0.0
 70
    32
  0
VERTEX
  5
1895
  8
241
 10
-46.609000000000002
 20
1.23058
 30
0.0
 70
    32
  0
VERTEX
  5
1896
  8
241
 10
-46.609999999999999
 20
1.2306900000000001
 30
0.0
 70
    32
  0
VERTEX
  5
1897
  8
241
 10
-46.610900000000001
 20
1.230799999999999
 30
0.0
 70
    32
  0
VERTEX
  5
1898
  8
241
 10
-46.611899999999999
 20
1.2309099999999991
 30
0.0
 70
    32
  0
VERTEX
  5
1899
  8
241
 10
-46.6128
 20
1.23102
 30
0.0
 70
    32
  0
VERTEX
  5
189A
  8
241
 10
-46.613799999999998
 20
1.2311299999999989
 30
0.0
 70
    32
  0
VERTEX
  5
189B
  8
241
 10
-46.614699999999999
 20
1.2312499999999991
 30
0.0
 70
    32
  0
VERTEX
  5
189C
  8
241
 10
-46.615699999999997
 20
1.23136
 30
0.0
 70
    32
  0
VERTEX
  5
189D
  8
241
 10
-46.616599999999998
 20
1.231479999999999
 30
0.0
 70
    32
  0
VERTEX
  5
189E
  8
241
 10
-46.617600000000003
 20
1.2315899999999991
 30
0.0
 70
    32
  0
VERTEX
  5
189F
  8
241
 10
-46.618499999999997
 20
1.2317100000000001
 30
0.0
 70
    32
  0
VERTEX
  5
18A0
  8
241
 10
-46.619500000000002
 20
1.2318299999999991
 30
0.0
 70
    32
  0
VERTEX
  5
18A1
  8
241
 10
-46.620399999999997
 20
1.2319500000000001
 30
0.0
 70
    32
  0
VERTEX
  5
18A2
  8
241
 10
-46.621399999999987
 20
1.2320699999999991
 30
0.0
 70
    32
  0
VERTEX
  5
18A3
  8
241
 10
-46.622300000000003
 20
1.232189999999999
 30
0.0
 70
    32
  0
VERTEX
  5
18A4
  8
241
 10
-46.623299999999993
 20
1.2323200000000001
 30
0.0
 70
    32
  0
VERTEX
  5
18A5
  8
241
 10
-46.624200000000002
 20
1.2324399999999991
 30
0.0
 70
    32
  0
VERTEX
  5
18A6
  8
241
 10
-46.625199999999992
 20
1.2325600000000001
 30
0.0
 70
    32
  0
VERTEX
  5
18A7
  8
241
 10
-46.626099999999987
 20
1.2326900000000001
 30
0.0
 70
    32
  0
VERTEX
  5
18A8
  8
241
 10
-46.627099999999992
 20
1.23282
 30
0.0
 70
    32
  0
VERTEX
  5
18A9
  8
241
 10
-46.627999999999993
 20
1.232939999999999
 30
0.0
 70
    32
  0
VERTEX
  5
18AA
  8
241
 10
-46.628999999999991
 20
1.2330700000000001
 30
0.0
 70
    32
  0
VERTEX
  5
18AB
  8
241
 10
-46.629899999999992
 20
1.2332000000000001
 30
0.0
 70
    32
  0
VERTEX
  5
18AC
  8
241
 10
-46.63089999999999
 20
1.23333
 30
0.0
 70
    32
  0
VERTEX
  5
18AD
  8
241
 10
-46.631799999999991
 20
1.2334700000000001
 30
0.0
 70
    32
  0
SEQEND
  5
18AE
  8
241
  0
LINE
  5
17B7
  8
241
 10
-49.30313581913623
 20
-0.0000000000000266
 30
0.0
 11
-49.30313581913623
 21
9.9999999999999716
 31
0.0
  0
LINE
  5
17B8
  8
240
 10
-48.631815475576623
 20
9.3286796564403023
 30
0.0
 11
-49.30313581913623
 21
9.9999999999999716
 31
0.0
  0
ARC
  5
17B9
  8
240
 10
-127.3531358191362
 20
-8.0000000000000249
 30
0.0
 40
2.0
 50
180.0
 51
270.0
  0
ARC
  5
17BA
  8
240
 10
-127.3531358191362
 20
7.9999999999999716
 30
0.0
 40
2.0
 50
90.0
 51
180.0
  0
LINE
  5
17BB
  8
240
 10
-129.35313581913621
 20
-0.0000000000000266
 30
0.0
 11
-129.35313581913621
 21
7.9999999999999716
 31
0.0
  0
LINE
  5
17BC
  8
240
 10
-129.35313581913621
 20
-8.0000000000000249
 30
0.0
 11
-129.35313581913621
 21
-0.0000000000000266
 31
0.0
  0
LINE
  5
17BD
  8
245
 10
-132.54002341824381
 20
-0.0000000000000266
 30
0.0
 11
3.5737070303610201
 21
0.0000000000000018
 31
0.0
  0
LINE
  5
17BE
  8
245
 10
-51.881810367162871
 20
2.449999999999747
 30
0.0
 11
3.388952969121191
 21
2.4499999999999762
 31
0.0
  0
LINE
  5
17BF
  8
241
 10
-47.75313581913634
 20
8.7194608366266255
 30
0.0
 11
-47.75313581913634
 21
0.958856843899527
 31
0.0
  0
ENDBLK
  5
17C2
  8
0
  0
BLOCK
  8
0
  2
*U29
 70
     1
 10
0.0
 20
0.0
 30
0.0
  3
*U29
  1

  0
TEXT
  5
1A9B
  8
240
 62
    40
 10
-7.8131146125200557
 20
16.792127503886871
 30
0.0
 40
2.799999999999998
  1
45üï
 50
18.030175680569101
  0
ENDBLK
  5
1A9D
  8
0
  0
ENDSEC
  0
SECTION
  2
ENTITIES
  0
TEXT
  5
1408
  8
241
 10
-130.4879512180519
 20
21.035522879203601
 30
0.0
 40
3.0
  1
ST20-CM20-45B-46
  7
YOKO
 11
-130.4879512180519
 21
21.035522879203601
 31
0.0
 73
     1
  0
LINE
  5
1579
  8
250
 10
-129.35313581913621
 20
-7.5000000000000249
 30
0.0
 11
-129.35313581913621
 21
-32.777016439767472
 31
0.0
  0
LINE
  5
157A
  8
250
 10
0.0
 20
6.8959712869808252
 30
0.0
 11
0.0
 21
-32.777016439767472
 31
0.0
  0
LINE
  5
157B
  8
250
 10
-127.12313581913619
 20
-31.777016439767461
 30
0.0
 11
-2.2300000000000031
 21
-31.777016439767461
 31
0.0
  0
LINE
  5
157F
  8
250
 10
-47.75313581913634
 20
0.4588568438995271
 30
0.0
 11
-47.75313581913634
 21
-25.777016439767468
 31
0.0
  0
LINE
  5
1580
  8
250
 10
0.0
 20
6.8959712869808252
 30
0.0
 11
0.0
 21
-25.777016439767468
 31
0.0
  0
LINE
  5
1581
  8
250
 10
-45.523135819136343
 20
-24.777016439767468
 30
0.0
 11
-2.2300000000000031
 21
-24.777016439767468
 31
0.0
  0
LINE
  5
1585
  8
250
 10
-127.8531358191361
 20
-9.9999999999999982
 30
0.0
 11
-141.67502956131301
 21
-9.9999999999999911
 31
0.0
  0
LINE
  5
1586
  8
250
 10
-127.8531358191361
 20
9.9999999999999716
 30
0.0
 11
-141.67502956131301
 21
9.9999999999999751
 31
0.0
  0
LINE
  5
1587
  8
250
 10
-140.6750295613131
 20
-7.7699999999999951
 30
0.0
 11
-140.6750295613131
 21
7.7699999999999738
 31
0.0
  0
LINE
  5
158B
  8
250
 10
4.0737070303610201
 20
0.0000000000000016
 30
0.0
 11
14.324970438686901
 21
-0.0000000000000013
 31
0.0
  0
LINE
  5
158C
  8
250
 10
3.888952969121191
 20
2.449999999999974
 30
0.0
 11
14.324970438686901
 21
2.4499999999999722
 31
0.0
  0
LINE
  5
158D
  8
250
 10
13.324970438686901
 20
4.6799999999999731
 30
0.0
 11
13.324970438686901
 21
6.9099999999999717
 31
0.0
  0
LINE
  5
158E
  8
250
 10
13.324970438686901
 20
-2.2299999999999991
 30
0.0
 11
13.324970438686901
 21
-15.298095238095231
 31
0.0
  0
LINE
  5
158F
  8
250
 10
13.324970438686901
 20
2.4499999999999722
 30
0.0
 11
13.324970438686901
 21
-0.000000000000001
 31
0.0
  0
LINE
  5
1593
  8
250
 10
-2.9531358191362642
 20
10.9
 30
0.0
 11
21.324974394244101
 21
10.9
 31
0.0
  0
LINE
  5
1594
  8
250
 10
20.324974394244091
 20
8.6699999999999982
 30
0.0
 11
20.324974394244091
 21
-6.6095217881728523
 31
0.0
  0
TEXT
  5
1597
  8
250
 10
19.324974394244091
 20
-5.8952360738871121
 30
0.0
 40
3.0
  1
\U+2205
 50
90.0
  0
TEXT
  5
1598
  8
250
 10
19.2249743942441
 20
-3.1809503596013982
 30
0.0
 40
2.799999999999998
  1
21.8
 50
90.0
  0
LINE
  5
1599
  8
250
 10
19.953307727577421
 20
8.6699999999999982
 30
0.0
 11
20.324974394244091
 21
10.9
 31
0.0
  0
LINE
  5
159A
  8
250
 10
20.696641060910761
 20
8.6699999999999982
 30
0.0
 11
20.324974394244091
 21
10.9
 31
0.0
  0
LINE
  5
159B
  8
250
 10
20.324974394244091
 20
10.9
 30
0.0
 11
20.324974394244091
 21
8.6699999999999982
 31
0.0
  0
TEXT
  5
159C
  8
250
 10
12.324970438686901
 20
-14.69809523809521
 30
0.0
 40
2.799999999999998
  1
2.45
 50
90.0
  0
LINE
  5
159D
  8
250
 10
12.953303772020231
 20
-2.2299999999999991
 30
0.0
 11
13.324970438686901
 21
-0.000000000000001
 31
0.0
  0
LINE
  5
159E
  8
250
 10
13.69663710535357
 20
-2.2299999999999991
 30
0.0
 11
13.324970438686901
 21
-0.000000000000001
 31
0.0
  0
LINE
  5
159F
  8
250
 10
13.324970438686901
 20
-0.000000000000001
 30
0.0
 11
13.324970438686901
 21
-2.2299999999999991
 31
0.0
  0
LINE
  5
15A0
  8
250
 10
13.69663710535357
 20
4.6799999999999731
 30
0.0
 11
13.324970438686901
 21
2.4499999999999722
 31
0.0
  0
LINE
  5
15A1
  8
250
 10
12.953303772020231
 20
4.6799999999999731
 30
0.0
 11
13.324970438686901
 21
2.4499999999999722
 31
0.0
  0
LINE
  5
15A2
  8
250
 10
13.324970438686901
 20
2.4499999999999722
 30
0.0
 11
13.324970438686901
 21
4.6799999999999731
 31
0.0
  0
LINE
  5
15A3
  8
250
 10
-2.2300000000000031
 20
-24.405349773100792
 30
0.0
 11
0.0
 21
-24.777016439767468
 31
0.0
  0
LINE
  5
15A4
  8
250
 10
-2.2300000000000031
 20
-25.148683106434131
 30
0.0
 11
0.0
 21
-24.777016439767468
 31
0.0
  0
LINE
  5
15A5
  8
250
 10
0.0
 20
-24.777016439767468
 30
0.0
 11
-2.2300000000000031
 21
-24.777016439767468
 31
0.0
  0
LINE
  5
15A6
  8
250
 10
-45.523135819136343
 20
-25.148683106434131
 30
0.0
 11
-47.75313581913634
 21
-24.777016439767468
 31
0.0
  0
LINE
  5
15A7
  8
250
 10
-45.523135819136343
 20
-24.405349773100792
 30
0.0
 11
-47.75313581913634
 21
-24.777016439767468
 31
0.0
  0
LINE
  5
15A8
  8
250
 10
-47.75313581913634
 20
-24.777016439767468
 30
0.0
 11
-45.523135819136343
 21
-24.777016439767468
 31
0.0
  0
TEXT
  5
15A9
  8
250
 10
-26.842653866886039
 20
-23.656505183591999
 30
0.0
 40
2.799999999999998
  1
47.8
  0
TEXT
  5
15AA
  8
250
 10
-70.943234576234772
 20
-30.777016439767468
 30
0.0
 40
2.799999999999998
  1
129.4
  0
LINE
  5
15AB
  8
250
 10
-2.2300000000000031
 20
-31.405349773100809
 30
0.0
 11
0.0
 21
-31.777016439767461
 31
0.0
  0
LINE
  5
15AC
  8
250
 10
-2.2300000000000031
 20
-32.148683106434142
 30
0.0
 11
0.0
 21
-31.777016439767461
 31
0.0
  0
LINE
  5
15AD
  8
250
 10
0.0
 20
-31.777016439767461
 30
0.0
 11
-2.2300000000000031
 21
-31.777016439767461
 31
0.0
  0
LINE
  5
15AE
  8
250
 10
-127.12313581913619
 20
-32.148683106434142
 30
0.0
 11
-129.35313581913621
 21
-31.777016439767461
 31
0.0
  0
LINE
  5
15AF
  8
250
 10
-127.12313581913619
 20
-31.405349773100809
 30
0.0
 11
-129.35313581913621
 21
-31.777016439767461
 31
0.0
  0
LINE
  5
15B0
  8
250
 10
-129.35313581913621
 20
-31.777016439767461
 30
0.0
 11
-127.12313581913619
 21
-31.777016439767461
 31
0.0
  0
TEXT
  5
15B1
  8
250
 10
-141.67502956131301
 20
-3.8952380952381049
 30
0.0
 40
3.0
  1
\U+2205
 50
90.0
  0
TEXT
  5
15B2
  8
250
 10
-141.775029561313
 20
-1.1809523809523921
 30
0.0
 40
2.799999999999998
  1
20
 50
90.0
  0
LINE
  5
15B3
  8
250
 10
-141.04669622797971
 20
7.7699999999999738
 30
0.0
 11
-140.6750295613131
 21
9.9999999999999751
 31
0.0
  0
LINE
  5
15B4
  8
250
 10
-140.3033628946464
 20
7.7699999999999738
 30
0.0
 11
-140.6750295613131
 21
9.9999999999999751
 31
0.0
  0
LINE
  5
15B5
  8
250
 10
-140.6750295613131
 20
9.9999999999999751
 30
0.0
 11
-140.6750295613131
 21
7.7699999999999738
 31
0.0
  0
LINE
  5
15B6
  8
250
 10
-140.3033628946464
 20
-7.769999999999996
 30
0.0
 11
-140.6750295613131
 21
-9.9999999999999964
 31
0.0
  0
LINE
  5
15B7
  8
250
 10
-141.04669622797971
 20
-7.769999999999996
 30
0.0
 11
-140.6750295613131
 21
-9.9999999999999964
 31
0.0
  0
LINE
  5
15B8
  8
250
 10
-140.6750295613131
 20
-9.9999999999999964
 30
0.0
 11
-140.6750295613131
 21
-7.769999999999996
 31
0.0
  0
INSERT
  5
17C3
  8
240
  2
A$C5E56080C
 10
0.0
 20
0.0
 30
0.0
  0
LINE
  5
1A6E
  8
250
 10
0.0
 20
7.9783693737773298
 30
0.0
 11
0.0000000000000009
 21
18.618864792934531
 31
0.0
  0
LINE
  5
1A6F
  8
250
 10
-3.6652678534922529
 20
11.143637227269499
 30
0.0
 11
-7.8775198566638114
 21
15.355889230440971
 31
0.0
  0
ARC
  5
1A70
  8
250
 10
0.0
 20
7.4783693737773289
 30
0.0
 40
10.140495419157199
 50
102.6254638105133
 51
122.3745361894872
  0
TEXT
  5
1A74
  8
250
 10
-7.8131146125200557
 20
16.792127503886871
 30
0.0
 40
2.799999999999998
  1
45üï
 50
18.030175680569101
  0
LINE
  5
1A75
  8
250
 10
-5.1974260866285773
 20
15.75257520740467
 30
0.0
 11
-7.1704130754772564
 21
14.648782449254419
 31
0.0
  0
LINE
  5
1A76
  8
250
 10
-5.6620608724529093
 20
16.33279840605017
 30
0.0
 11
-7.1704130754772564
 21
14.648782449254419
 31
0.0
  0
LINE
  5
1A77
  8
250
 10
-7.1704130754772564
 20
14.648782449254419
 30
0.0
 11
-5.4297434795407433
 21
16.042686806727421
 31
0.0
  0
LINE
  5
1A78
  8
250
 10
-2.2573451738528112
 20
17.743077824434941
 30
0.0
 11
0.0000000000000009
 21
17.61886479293452
 31
0.0
  0
LINE
  5
1A79
  8
250
 10
-2.1756118233203621
 20
17.004251658239411
 30
0.0
 11
0.0000000000000009
 21
17.61886479293452
 31
0.0
  0
LINE
  5
1A7A
  8
250
 10
0.0000000000000009
 20
17.61886479293452
 30
0.0
 11
-2.2164784985865871
 21
17.37366474133718
 31
0.0
  0
VIEWPORT
  5
22
 67
     1
  8
0
 10
261.51769911504419
 20
148.5
 30
0.0
 40
523.0353982300885
 41
297.0
 68
     1
 69
     1
1001
ACAD
1000
MVIEW
1002
{
1070
    16
1010
0.0
1020
0.0
1030
0.0
1010
0.0
1020
0.0
1030
1.0
1040
0.0
1040
297.0
1040
261.51769911504419
1040
148.5
1040
50.0
1040
0.0
1040
0.0
1070
     0
1070
   100
1070
     1
1070
     1
1070
     0
1070
     0
1070
     0
1070
     0
1040
0.0
1040
0.0
1040
0.0
1040
1.0
1040
1.0
1040
10.0
1040
10.0
1070
     0
1002
{
1002
}
1002
}
1001
GENIUS_GENODEF_13
1002
{
1000
HIER
1070
     0
1002
}
1002
{
1000
MANEDIT
1070
     0
1002
}
1002
{
1000
NOSEL
1070
     0
1002
}
1002
{
1000
BEHIND
1070
     0
1002
}
1002
{
1000
OTHER
1070
     0
1002
}
1002
{
1000
REACTOR
1002
}
1001
GENIUS_GENOBJ-N-SDF_13
1002
{
1000
OWNER
1000
GEN
1002
}
1001
GENIUS_GENSCREG_15
1000
PF
1040
1.0
1000
DF
1040
1.0
1000
MIN
1011
0.0
1021
6.8719476775200000E+011
1031
0.0
1021
0.0
1031
0.0
1000
MAX
1011
523.0353982300885
1021
6.8719476775200000E+011
1031
0.0
1021
297.0
1031
0.0
1000
FLAGS
1070
     2
  0
ENDSEC
  0
EOF
