  0
SECTION
  2
HEADER
  9
$ACADVER
  1
AC1009
  9
$INSBASE
 10
0.0
 20
0.0
 30
0.0
  9
$EXTMIN
 10
-185.1732033820596
 20
-26.35457580422894
 30
0.0
  9
$EXTMAX
 10
23.999999999999339
 20
47.000000000000007
 30
0.0
  9
$LIMMIN
 10
0.0
 20
0.0
  9
$LIMMAX
 10
297.0
 20
210.0
  9
$ORTHOMODE
 70
     0
  9
$REGENMODE
 70
     1
  9
$FILLMODE
 70
     1
  9
$QTEXTMODE
 70
     0
  9
$MIRRTEXT
 70
     1
  9
$DRAGMODE
 70
     2
  9
$LTSCALE
 40
10.0
  9
$OSMODE
 70
  2799
  9
$ATTMODE
 70
     1
  9
$TEXTSIZE
 40
3.0
  9
$TRACEWID
 40
1.0
  9
$TEXTSTYLE
  7
YOKO
  9
$CLAYER
  8
240
  9
$CELTYPE
  6
BYLAYER
  9
$CECOLOR
 62
   256
  9
$DIMSCALE
 40
1.0
  9
$DIMASZ
 40
2.2299999999999991
  9
$DIMEXO
 40
0.5
  9
$DIMDLI
 40
7.0
  9
$DIMRND
 40
0.0
  9
$DIMDLE
 40
0.0
  9
$DIMEXE
 40
1.0
  9
$DIMTP
 40
0.0
  9
$DIMTM
 40
0.0
  9
$DIMTXT
 40
2.799999999999998
  9
$DIMCEN
 40
0.0
  9
$DIMTSZ
 40
0.0
  9
$DIMTOL
 70
     0
  9
$DIMLIM
 70
     0
  9
$DIMTIH
 70
     0
  9
$DIMTOH
 70
     0
  9
$DIMSE1
 70
     0
  9
$DIMSE2
 70
     0
  9
$DIMTAD
 70
     3
  9
$DIMZIN
 70
     9
  9
$DIMBLK
  1
OPEN
  9
$DIMASO
 70
     1
  9
$DIMSHO
 70
     1
  9
$DIMPOST
  1

  9
$DIMAPOST
  1

  9
$DIMALT
 70
     0
  9
$DIMALTD
 70
     2
  9
$DIMALTF
 40
25.399999999999999
  9
$DIMLFAC
 40
1.0
  9
$DIMTOFL
 70
     1
  9
$DIMTVP
 40
0.0
  9
$DIMTIX
 70
     1
  9
$DIMSOXD
 70
     0
  9
$DIMSAH
 70
     0
  9
$DIMBLK1
  1

  9
$DIMBLK2
  1

  9
$DIMSTYLE
  2
BIGT
  9
$DIMCLRD
 70
   256
  9
$DIMCLRE
 70
   256
  9
$DIMCLRT
 70
    40
  9
$DIMTFAC
 40
1.0
  9
$DIMGAP
 40
1.0
  9
$LUNITS
 70
     2
  9
$LUPREC
 70
     3
  9
$SKETCHINC
 40
1.0
  9
$FILLETRAD
 40
0.5
  9
$AUNITS
 70
     0
  9
$AUPREC
 70
     3
  9
$MENU
  1
.
  9
$ELEVATION
 40
0.0
  9
$PELEVATION
 40
0.0
  9
$THICKNESS
 40
0.0
  9
$LIMCHECK
 70
     0
  9
$BLIPMODE
 70
     0
  9
$CHAMFERA
 40
0.25
  9
$CHAMFERB
 40
0.25
  9
$SKPOLY
 70
     0
  9
$TDCREATE
 40
2452787.4973023268
  9
$TDUPDATE
 40
2454035.4533201042
  9
$TDINDWG
 40
0.0376549306
  9
$TDUSRTIMER
 40
0.0376549306
  9
$USRTIMER
 70
     1
  9
$ANGBASE
 50
0.0
  9
$ANGDIR
 70
     0
  9
$PDMODE
 70
    35
  9
$PDSIZE
 40
-5.0
  9
$PLINEWID
 40
0.0
  9
$COORDS
 70
     0
  9
$SPLFRAME
 70
     0
  9
$SPLINETYPE
 70
     6
  9
$SPLINESEGS
 70
     4
  9
$ATTDIA
 70
     1
  9
$ATTREQ
 70
     1
  9
$HANDLING
 70
     1
  9
$HANDSEED
  5
1FEE
  9
$SURFTAB1
 70
     6
  9
$SURFTAB2
 70
     6
  9
$SURFTYPE
 70
     6
  9
$SURFU
 70
     6
  9
$SURFV
 70
     6
  9
$UCSNAME
  2

  9
$UCSORG
 10
0.0
 20
0.0
 30
0.0
  9
$UCSXDIR
 10
1.0
 20
0.0
 30
0.0
  9
$UCSYDIR
 10
0.0
 20
1.0
 30
0.0
  9
$PUCSNAME
  2

  9
$PUCSORG
 10
0.0
 20
0.0
 30
0.0
  9
$PUCSXDIR
 10
1.0
 20
0.0
 30
0.0
  9
$PUCSYDIR
 10
0.0
 20
1.0
 30
0.0
  9
$USERI1
 70
     1
  9
$USERI2
 70
     0
  9
$USERI3
 70
     0
  9
$USERI4
 70
     0
  9
$USERI5
 70
     0
  9
$USERR1
 40
0.0
  9
$USERR2
 40
0.0
  9
$USERR3
 40
0.0
  9
$USERR4
 40
0.0
  9
$USERR5
 40
0.0
  9
$WORLDVIEW
 70
     1
  9
$SHADEDGE
 70
     3
  9
$SHADEDIF
 70
    70
  9
$TILEMODE
 70
     1
  9
$MAXACTVP
 70
    16
  9
$PLIMCHECK
 70
     0
  9
$PEXTMIN
 10
1.0000000000000000E+020
 20
1.0000000000000000E+020
 30
1.0000000000000000E+020
  9
$PEXTMAX
 10
-1.0000000000000000E+020
 20
-1.0000000000000000E+020
 30
-1.0000000000000000E+020
  9
$PLIMMIN
 10
0.0
 20
0.0
  9
$PLIMMAX
 10
420.0
 20
297.0
  9
$UNITMODE
 70
     0
  9
$VISRETAIN
 70
     1
  9
$PLINEGEN
 70
     0
  9
$PSLTSCALE
 70
     1
  0
ENDSEC
  0
SECTION
  2
TABLES
  0
TABLE
  2
VPORT
 70
     3
  0
VPORT
  2
*ACTIVE
 70
     0
 10
0.0
 20
0.0
 11
1.0
 21
1.0
 12
-80.595900453979155
 22
10.319083312658909
 13
0.0
 23
0.0
 14
7.0
 24
7.0
 15
7.0
 25
7.0
 16
0.0
 26
0.0
 36
1.0
 17
0.0
 27
0.0
 37
0.0
 40
135.84847071981349
 41
1.546099290780141
 42
50.0
 43
0.0
 44
0.0
 50
0.0
 51
0.0
 71
     0
 72
   500
 73
     1
 74
     0
 75
     0
 76
     0
 77
     0
 78
     0
  0
ENDTAB
  0
TABLE
  2
LTYPE
 70
    13
  0
LTYPE
  2
CONTINUOUS
 70
     0
  3
Solid line
 72
    65
 73
     0
 40
0.0
  0
LTYPE
  2
CENTER2
 70
     0
  3
___ _ ___ _ ___ _ ___ _ ___ _ ___ _ ___ _ ___ _
 72
    65
 73
     4
 40
1.125
 49
0.75
 49
-0.125
 49
0.125
 49
-0.125
  0
LTYPE
  2
CENTER
 70
     0
  3
____ _ ____ _ ____ _ ____ _ ____ _ ____ _ ____ 
 72
    65
 73
     4
 40
2.0
 49
1.25
 49
-0.25
 49
0.25
 49
-0.25
  0
LTYPE
  2
AM_ISO02W050
 70
     0
  3
__ __ __ __ __ __ __ __ __ __ __ __ __ __ __
 72
    65
 73
     2
 40
7.5
 49
6.0
 49
-1.5
  0
LTYPE
  2
AMCONSTR
 70
     0
  3
_______________________
 72
    65
 73
     2
 40
9999.0
 49
9999.0
 49
0.0
  0
LTYPE
  2
ACISOWELD
 70
     0
  3
_ _ _ _ _
 72
    65
 73
     2
 40
2.0
 49
2.0
 49
-1.0
  0
LTYPE
  2
ACISOTGB
 70
     0
  3
__ . . __ . .
 72
    65
 73
     6
 40
9.0
 49
4.0
 49
-1.0
 49
1.0
 49
-1.0
 49
1.0
 49
-1.0
  0
LTYPE
  2
ACISOTGL
 70
     0
  3
_ _ _ _ _
 72
    65
 73
     2
 40
3.0
 49
2.0
 49
-1.0
  0
LTYPE
  2
HIDDEN2
 70
     0
  3
_ _ _ _ _ _ _ _ _ _ _ _ _ _ _ _ _ _ _ _ _ _ _ _
 72
    65
 73
     2
 40
0.1875
 49
0.125
 49
-0.0625
  0
LTYPE
  2
PHANTOM2
 70
     0
  3
___ _ _ ___ _ _ ___ _ _ ___ _ _ ___ _ _ ___ _ _
 72
    65
 73
     6
 40
1.25
 49
0.625
 49
-0.125
 49
0.125
 49
-0.125
 49
0.125
 49
-0.125
  0
LTYPE
  2
HIDDEN
 70
     0
  3
Hidden __ __ __ __ __ __ __ __ __ __ __ __ __ _
 72
    65
 73
     2
 40
9.5249999999999986
 49
6.3499999999999988
 49
-3.1749999999999989
  0
LTYPE
  2
ACJISTGB
 70
     0
  3
__ . . __ . .
 72
    65
 73
     6
 40
9.0
 49
4.0
 49
-1.0
 49
1.0
 49
-1.0
 49
1.0
 49
-1.0
  0
LTYPE
  2
ACJISTGL
 70
     0
  3
_ _ _ _ _
 72
    65
 73
     2
 40
3.0
 49
2.0
 49
-1.0
  0
ENDTAB
  0
TABLE
  2
LAYER
 70
     7
  0
LAYER
  2
0
 70
     0
 62
     7
  6
CONTINUOUS
  0
LAYER
  2
DEFPOINTS
 70
     0
 62
     7
  6
CONTINUOUS
  0
LAYER
  2
245
 70
     0
 62
     2
  6
CENTER2
  0
LAYER
  2
240
 70
     0
 62
     4
  6
CONTINUOUS
  0
LAYER
  2
241
 70
     0
 62
   211
  6
CONTINUOUS
  0
LAYER
  2
247
 70
     0
 62
    60
  6
CONTINUOUS
  0
LAYER
  2
250
 70
     0
 62
     3
  6
CONTINUOUS
  0
ENDTAB
  0
TABLE
  2
STYLE
 70
     6
  0
STYLE
  2
STANDARD
 70
     0
 40
0.0
 41
1.0
 50
0.0
 71
     0
 42
3.0
  3
romans.shx
  4
extfont.shx
  0
STYLE
  2
ACISOTS
 70
     0
 40
1.0
 41
1.0
 50
0.0
 71
     0
 42
3.0
  3
amgdt.shx
  4
extfont.shx
  0
STYLE
  2
ACISOGDT
 70
     0
 40
0.0
 41
1.0
 50
0.0
 71
     0
 42
3.0
  3
amgdt.shx
  4
extfont.shx
  0
STYLE
  2
ACJISTS
 70
     0
 40
1.0
 41
1.0
 50
0.0
 71
     0
 42
3.0
  3
amgdt.shx
  4
extfont.shx
  0
STYLE
  2
YOKO
 70
     0
 40
0.0
 41
1.0
 50
0.0
 71
     0
 42
3.0
  3
romans.shx
  4
extfont.shx
  0
STYLE
  2
ACJISGDT
 70
     0
 40
0.0
 41
1.0
 50
0.0
 71
     0
 42
3.0
  3
amgdt.shx
  4
extfont.shx
  0
ENDTAB
  0
TABLE
  2
VIEW
 70
     0
  0
ENDTAB
  0
TABLE
  2
UCS
 70
     0
  0
ENDTAB
  0
TABLE
  2
APPID
 70
    32
  0
APPID
  2
ACAD
 70
     0
  0
APPID
  2
GLOBAL
 70
     0
  0
APPID
  2
DETAIL
 70
     0
  0
APPID
  2
GRPNAME
 70
     0
  0
APPID
  2
GPARA
 70
     0
  0
APPID
  2
MCAD_NO_VIS
 70
     0
  0
APPID
  2
ACAD_TEMP_GRAPHIC
 70
     0
  0
APPID
  2
ACATTRIBSERVICES
 70
     0
  0
APPID
  2
GENIUS_GENSCREG_15
 70
     0
  0
APPID
  2
GENIUS_GENODEF_13
 70
     0
  0
APPID
  2
GENIUS_GENOBJ-N-SDF_13
 70
     0
  0
APPID
  2
GENIUS_GENREC_14
 70
     0
  0
APPID
  2
GENIUS_GENOBJ-N-REC_13
 70
     0
  0
APPID
  2
GENIUS_GENDIMSH_14
 70
     0
  0
APPID
  2
GENIUS_GENOBJ-N-DIM_13
 70
     0
  0
APPID
  2
GENIUS_GENDIM_13
 70
     0
  0
APPID
  2
GENIUS_GENDTOL_13
 70
     0
  0
APPID
  2
GENIUS_GENOLIS_13
 70
     0
  0
APPID
  2
GENIUS_GENOENT_13
 70
     0
  0
APPID
  2
GENIUS_GENOBJ-F-FEM_13
 70
     0
  0
APPID
  2
GENIUS_GENOREF_13
 70
     0
  0
APPID
  2
GENIUS_GEFFEM_13
 70
     0
  0
APPID
  2
GENIUS_GEFFEMP_13
 70
     0
  0
APPID
  2
ITEMNAME
 70
     0
  0
APPID
  2
GENIUS_GENOBJ-N-FIL_13
 70
     0
  0
APPID
  2
HATCH_TYPE
 70
     0
  0
APPID
  2
HATCH_DISPLAY
 70
     0
  0
APPID
  2
HATCH_DISTANCE
 70
     0
  0
APPID
  2
AD_DRAW
 70
     0
  0
APPID
  2
DESIGNERASSEMBLIES
 70
     0
  0
APPID
  2
ACADM_DIM_EDIT
 70
     0
  0
APPID
  2
AMDT_DM_ADJ
 70
     0
  0
ENDTAB
  0
TABLE
  2
DIMSTYLE
 70
    23
  0
DIMSTYLE
  2
BIGT
 70
     0
  3

  4

  5
OPEN
  6

  7

 40
1.0
 41
2.2299999999999991
 42
0.5
 43
7.0
 44
1.0
 45
0.0
 46
0.0
 47
0.0
 48
0.01
140
2.7999999999999989
141
0.0
142
0.0
143
25.399999999999999
144
1.0
145
0.0
146
1.0
147
1.0
 71
     0
 72
     0
 73
     0
 74
     0
 75
     0
 76
     0
 77
     3
 78
     9
170
     0
171
     2
172
     1
173
     0
174
     1
175
     0
176
   256
177
   256
178
    40
  0
DIMSTYLE
  2
AM_ISO
 70
     0
  3

  4
"
  5

  6

  7

 40
1.0
 41
2.5
 42
1.0
 43
10.0
 44
1.0
 45
0.0
 46
0.0
 47
0.1
 48
0.1
140
3.5
141
0.0
142
0.0
143
0.0393701
144
1.0
145
0.0
146
0.71
147
1.5
 71
     0
 72
     0
 73
     0
 74
     0
 75
     0
 76
     0
 77
     1
 78
     8
170
     0
171
     2
172
     1
173
     0
174
     0
175
     0
176
   256
177
   256
178
     2
  0
DIMSTYLE
  2
AM_ISO$3
 70
     0
  3

  4
"
  5

  6

  7

 40
1.0
 41
2.5
 42
1.0
 43
10.0
 44
1.0
 45
0.0
 46
0.0
 47
0.1
 48
0.1
140
3.5
141
0.0
142
0.0
143
0.0393701
144
1.0
145
0.0
146
0.71
147
1.5
 71
     0
 72
     0
 73
     0
 74
     1
 75
     0
 76
     0
 77
     1
 78
     8
170
     0
171
     2
172
     0
173
     0
174
     0
175
     0
176
   256
177
   256
178
     2
  0
DIMSTYLE
  2
AM_ISO$4
 70
     0
  3

  4
"
  5

  6

  7

 40
1.0
 41
2.5
 42
1.0
 43
10.0
 44
1.0
 45
0.0
 46
0.0
 47
0.1
 48
0.1
140
3.5
141
0.0
142
0.0
143
0.0393701
144
1.0
145
0.0
146
0.71
147
1.5
 71
     0
 72
     0
 73
     0
 74
     1
 75
     0
 76
     0
 77
     1
 78
     8
170
     0
171
     2
172
     0
173
     0
174
     0
175
     0
176
   256
177
   256
178
     2
  0
DIMSTYLE
  2
AM_ISO$6
 70
     0
  3

  4
"
  5

  6

  7

 40
1.0
 41
2.5
 42
1.0
 43
10.0
 44
1.0
 45
0.0
 46
0.0
 47
0.1
 48
0.1
140
3.5
141
0.0
142
0.0
143
0.0393701
144
1.0
145
0.0
146
0.71
147
1.5
 71
     0
 72
     0
 73
     0
 74
     0
 75
     0
 76
     0
 77
     0
 78
     8
170
     0
171
     2
172
     1
173
     0
174
     0
175
     0
176
   256
177
   256
178
     2
  0
DIMSTYLE
  2
AM_ISO$7
 70
     0
  3

  4
"
  5

  6

  7

 40
1.0
 41
2.5
 42
1.0
 43
10.0
 44
1.0
 45
0.0
 46
0.0
 47
0.1
 48
0.1
140
5.0
141
0.0
142
0.0
143
0.0393701
144
1.0
145
0.0
146
0.71
147
1.5
 71
     0
 72
     0
 73
     0
 74
     0
 75
     0
 76
     0
 77
     1
 78
     8
170
     0
171
     2
172
     1
173
     0
174
     0
175
     0
176
   256
177
   256
178
     2
  0
DIMSTYLE
  2
AM_ISO$SF
 70
     0
  3

  4
"
  5

  6

  7

 40
1.0
 41
2.5
 42
1.0
 43
10.0
 44
1.0
 45
0.0
 46
0.0
 47
0.1
 48
0.1
140
3.5
141
0.0
142
0.0
143
0.0393701
144
1.0
145
0.0
146
0.71
147
1.5
 71
     0
 72
     0
 73
     0
 74
     0
 75
     1
 76
     1
 77
     1
 78
     8
170
     0
171
     2
172
     1
173
     0
174
     0
175
     0
176
   256
177
   256
178
     2
  0
DIMSTYLE
  2
AM_ISO$SH
 70
     0
  3

  4
"
  5

  6
GENAXEH
  7

 40
1.0
 41
2.5
 42
1.0
 43
10.0
 44
1.0
 45
0.0
 46
0.0
 47
0.1
 48
0.1
140
3.5
141
0.0
142
0.0
143
0.0393701
144
2.0
145
0.0
146
0.71
147
1.5
 71
     0
 72
     0
 73
     0
 74
     0
 75
     1
 76
     1
 77
     1
 78
     8
170
     0
171
     2
172
     1
173
     1
174
     0
175
     0
176
   256
177
   256
178
     2
  0
DIMSTYLE
  2
BIGT$0
 70
     0
  3

  4

  5
OPEN
  6

  7

 40
1.0
 41
2.2299999999999991
 42
0.5
 43
7.0
 44
1.0
 45
0.0
 46
0.0
 47
0.0
 48
0.01
140
2.7999999999999989
141
0.0
142
0.0
143
25.399999999999999
144
1.0
145
0.0
146
1.0
147
1.0
 71
     0
 72
     0
 73
     0
 74
     0
 75
     0
 76
     0
 77
     3
 78
     9
170
     0
171
     2
172
     1
173
     0
174
     0
175
     0
176
   256
177
   256
178
    40
  0
DIMSTYLE
  2
BIGT$2
 70
     0
  3

  4

  5
OPEN
  6

  7

 40
1.0
 41
2.2299999999999991
 42
0.5
 43
7.0
 44
1.0
 45
0.0
 46
0.0
 47
0.0
 48
0.01
140
2.7999999999999989
141
0.0
142
0.0
143
25.399999999999999
144
1.0
145
0.0
146
1.0
147
1.0
 71
     0
 72
     0
 73
     0
 74
     0
 75
     0
 76
     0
 77
     3
 78
     9
170
     0
171
     2
172
     1
173
     0
174
     0
175
     0
176
   256
177
   256
178
    40
  0
DIMSTYLE
  2
BIGT$3
 70
     0
  3

  4

  5
OPEN
  6

  7

 40
1.0
 41
2.2299999999999991
 42
0.5
 43
2.5
 44
1.0
 45
0.0
 46
0.0
 47
0.0
 48
0.01
140
2.7999999999999989
141
0.0
142
0.0
143
25.399999999999999
144
1.0
145
0.0
146
1.0
147
1.0
 71
     0
 72
     0
 73
     0
 74
     0
 75
     0
 76
     0
 77
     3
 78
     9
170
     0
171
     2
172
     1
173
     0
174
     0
175
     0
176
   256
177
   256
178
    40
  0
DIMSTYLE
  2
BIGT$4
 70
     0
  3

  4

  5
OPEN
  6

  7

 40
1.0
 41
2.2299999999999991
 42
0.5
 43
2.5
 44
1.0
 45
0.0
 46
0.0
 47
0.0
 48
0.01
140
2.7999999999999989
141
0.0
142
0.0
143
25.399999999999999
144
1.0
145
0.0
146
1.0
147
1.0
 71
     0
 72
     0
 73
     0
 74
     0
 75
     0
 76
     0
 77
     3
 78
     9
170
     0
171
     2
172
     1
173
     0
174
     0
175
     0
176
   256
177
   256
178
    40
  0
DIMSTYLE
  2
BIGT$6
 70
     0
  3

  4

  5
OPEN
  6

  7

 40
1.0
 41
2.2299999999999991
 42
0.5
 43
2.5
 44
1.0
 45
0.0
 46
0.0
 47
0.0
 48
0.01
140
2.7999999999999989
141
0.0
142
0.0
143
25.399999999999999
144
1.0
145
0.0
146
1.0
147
1.0
 71
     0
 72
     0
 73
     0
 74
     0
 75
     0
 76
     0
 77
     3
 78
     9
170
     0
171
     2
172
     1
173
     0
174
     0
175
     0
176
   256
177
   256
178
    40
  0
DIMSTYLE
  2
BIGT$7
 70
     0
  3

  4

  5
OPEN
  6

  7

 40
0.0
 41
2.2299999999999991
 42
0.5
 43
7.0
 44
1.0
 45
0.0
 46
0.0
 47
0.0
 48
0.01
140
2.7999999999999989
141
0.0
142
0.0
143
25.399999999999999
144
1.0
145
0.0
146
1.0
147
1.0
 71
     0
 72
     0
 73
     0
 74
     0
 75
     0
 76
     0
 77
     3
 78
     9
170
     0
171
     2
172
     0
173
     0
174
     0
175
     0
176
   256
177
   256
178
    40
  0
DIMSTYLE
  2
BIGT$SF
 70
     0
  3

  4

  5
OPEN
  6

  7

 40
1.0
 41
2.2299999999999991
 42
0.5
 43
7.0
 44
1.0
 45
0.0
 46
0.0
 47
0.0
 48
0.0
140
2.7999999999999989
141
0.0
142
0.0
143
25.399999999999999
144
1.0
145
0.0
146
1.0
147
1.0
 71
     0
 72
     0
 73
     0
 74
     0
 75
     0
 76
     0
 77
     3
 78
     9
170
     0
171
     2
172
     1
173
     0
174
     0
175
     0
176
   256
177
   256
178
    40
  0
DIMSTYLE
  2
BIGT$SH
 70
     0
  3

  4

  5
OPEN
  6

  7

 40
1.0
 41
2.2299999999999991
 42
0.5
 43
7.0
 44
1.0
 45
0.0
 46
0.0
 47
0.0
 48
0.0
140
2.7999999999999989
141
0.0
142
0.0
143
25.399999999999999
144
1.0
145
0.0
146
1.0
147
1.0
 71
     0
 72
     0
 73
     0
 74
     0
 75
     0
 76
     0
 77
     3
 78
     9
170
     0
171
     2
172
     1
173
     0
174
     0
175
     0
176
   256
177
   256
178
    40
  0
DIMSTYLE
  2
TECHNICAL_OSAKA
 70
     0
  3

  4
"
  5
OPEN30
  6

  7

 40
1.0
 41
2.5
 42
1.0
 43
10.0
 44
1.0
 45
0.0
 46
0.0
 47
0.1
 48
0.1
140
2.7999999999999989
141
0.0
142
0.0
143
0.0393701
144
1.0
145
0.0
146
0.71
147
1.5
 71
     0
 72
     0
 73
     0
 74
     0
 75
     0
 76
     0
 77
     3
 78
     8
170
     0
171
     2
172
     1
173
     0
174
     0
175
     0
176
   256
177
   256
178
    40
  0
DIMSTYLE
  2
TECHNICAL_OSAKA$3
 70
     0
  3

  4
"
  5
OPEN30
  6

  7

 40
1.0
 41
2.5
 42
1.0
 43
10.0
 44
1.0
 45
0.0
 46
0.0
 47
0.1
 48
0.1
140
2.7999999999999989
141
0.0
142
0.0
143
0.0393701
144
1.0
145
0.0
146
0.71
147
1.5
 71
     0
 72
     0
 73
     0
 74
     1
 75
     0
 76
     0
 77
     3
 78
     8
170
     0
171
     2
172
     0
173
     0
174
     0
175
     0
176
   256
177
   256
178
    40
  0
DIMSTYLE
  2
TECHNICAL_OSAKA$4
 70
     0
  3

  4
"
  5
OPEN30
  6

  7

 40
1.0
 41
2.5
 42
1.0
 43
10.0
 44
1.0
 45
0.0
 46
0.0
 47
0.1
 48
0.1
140
2.7999999999999989
141
0.0
142
0.0
143
0.0393701
144
1.0
145
0.0
146
0.71
147
1.5
 71
     0
 72
     0
 73
     0
 74
     1
 75
     0
 76
     0
 77
     3
 78
     8
170
     0
171
     2
172
     0
173
     0
174
     0
175
     0
176
   256
177
   256
178
    40
  0
DIMSTYLE
  2
TECHNICAL_OSAKA$6
 70
     0
  3

  4
"
  5
OPEN30
  6

  7

 40
1.0
 41
2.5
 42
1.0
 43
10.0
 44
1.0
 45
0.0
 46
0.0
 47
0.1
 48
0.1
140
2.7999999999999989
141
0.0
142
0.0
143
0.0393701
144
1.0
145
0.0
146
0.71
147
1.5
 71
     0
 72
     0
 73
     0
 74
     0
 75
     0
 76
     0
 77
     0
 78
     8
170
     0
171
     2
172
     1
173
     0
174
     0
175
     0
176
   256
177
   256
178
    40
  0
DIMSTYLE
  2
TECHNICAL_OSAKA$7
 70
     0
  3

  4
"
  5
OPEN30
  6

  7

 40
1.0
 41
2.5
 42
1.0
 43
10.0
 44
1.0
 45
0.0
 46
0.0
 47
0.1
 48
0.1
140
2.7999999999999989
141
0.0
142
0.0
143
0.0393701
144
1.0
145
0.0
146
0.71
147
1.5
 71
     0
 72
     0
 73
     0
 74
     0
 75
     0
 76
     0
 77
     3
 78
     8
170
     0
171
     2
172
     1
173
     0
174
     0
175
     0
176
   256
177
   256
178
    40
  0
DIMSTYLE
  2
TECHNICAL_OSAKA$SF
 70
     0
  3

  4
"
  5
OPEN30
  6
OPEN30
  7
OPEN30
 40
1.0
 41
2.5
 42
1.0
 43
10.0
 44
1.0
 45
0.0
 46
0.0
 47
0.1
 48
0.1
140
3.5
141
0.0
142
0.0
143
0.0393701
144
1.0
145
0.0
146
0.71
147
1.5
 71
     0
 72
     0
 73
     0
 74
     0
 75
     1
 76
     1
 77
     3
 78
     8
170
     0
171
     2
172
     1
173
     0
174
     0
175
     0
176
   256
177
   256
178
    40
  0
DIMSTYLE
  2
TECHNICAL_OSAKA$SH
 70
     0
  3

  4
"
  5
OPEN30
  6
GENAXEH
  7
OPEN30
 40
1.0
 41
2.5
 42
1.0
 43
10.0
 44
1.0
 45
0.0
 46
0.0
 47
0.1
 48
0.1
140
3.5
141
0.0
142
0.0
143
0.0393701
144
2.0
145
0.0
146
0.71
147
1.5
 71
     0
 72
     0
 73
     0
 74
     0
 75
     1
 76
     1
 77
     3
 78
     8
170
     0
171
     2
172
     1
173
     1
174
     0
175
     0
176
   256
177
   256
178
    40
  0
ENDTAB
  0
ENDSEC
  0
SECTION
  2
BLOCKS
  0
BLOCK
  8
0
  2
$MODEL_SPACE
 70
     0
 10
0.0
 20
0.0
 30
0.0
  3
$MODEL_SPACE
  1

  0
ENDBLK
  5
1C
  8
0
  0
BLOCK
 67
     1
  8
0
  2
$PAPER_SPACE
 70
     0
 10
0.0
 20
0.0
 30
0.0
  3
$PAPER_SPACE
  1

  0
ENDBLK
  5
19
 67
     1
  8
0
  0
BLOCK
  8
0
  2
_OPEN
 70
     0
 10
0.0
 20
0.0
 30
0.0
  3
_OPEN
  1

  0
LINE
  5
1F85
  8
0
  6
BYBLOCK
 62
     0
 10
-1.0
 20
0.1666666666666666
 30
0.0
 11
0.0
 21
0.0
 31
0.0
  0
LINE
  5
1F86
  8
0
  6
BYBLOCK
 62
     0
 10
-1.0
 20
-0.1666666666666666
 30
0.0
 11
0.0
 21
0.0
 31
0.0
  0
LINE
  5
1F87
  8
0
  6
BYBLOCK
 62
     0
 10
0.0
 20
0.0
 30
0.0
 11
-1.0
 21
0.0
 31
0.0
  0
ENDBLK
  5
1F88
  8
0
  0
BLOCK
  8
0
  2
GENAXEH
 70
     0
 10
0.0
 20
0.0
 30
0.0
  3
GENAXEH
  1

  0
LINE
  5
1FB0
  8
0
 10
-1.0
 20
0.0
 30
0.0
 11
1.0
 21
0.0
 31
0.0
  0
ENDBLK
  5
1FB1
  8
0
  0
BLOCK
  8
0
  2
_OPEN30
 70
     0
 10
0.0
 20
0.0
 30
0.0
  3
_OPEN30
  1

  0
LINE
  5
1FD5
  8
0
  6
BYBLOCK
 62
     0
 10
-1.0
 20
0.26794919
 30
0.0
 11
0.0
 21
0.0
 31
0.0
  0
LINE
  5
1FD6
  8
0
  6
BYBLOCK
 62
     0
 10
0.0
 20
0.0
 30
0.0
 11
-1.0
 21
-0.26794919
 31
0.0
  0
LINE
  5
1FD7
  8
0
  6
BYBLOCK
 62
     0
 10
0.0
 20
0.0
 30
0.0
 11
-1.0
 21
0.0
 31
0.0
  0
ENDBLK
  5
1FD8
  8
0
  0
BLOCK
  8
0
  2
A$C557051F2
 70
     0
 10
0.0
 20
0.0
 30
0.0
  3
A$C557051F2
  1

  0
LINE
  5
1E41
  8
241
  6
CONTINUOUS
 10
-24.000000000000639
 20
-9.5
 30
0.0
 11
-24.000000000000639
 21
9.4999999999999982
 31
0.0
1001
GRPNAME
1000
PASTMD04
  0
LINE
  5
1E42
  8
240
  6
CONTINUOUS
 10
-24.000000000000639
 20
9.4999999999999982
 30
0.0
 11
-24.000000000000639
 21
10.133974596215751
 31
0.0
1001
GRPNAME
1000
PASTMD04
  0
LINE
  5
1E43
  8
247
 10
-73.904197755135399
 20
4.9909010170551653
 30
0.0
 11
-73.726379456795556
 21
4.8130941628071184
 31
0.0
  0
LINE
  5
1E44
  8
247
 10
-74.25296789673699
 20
6.0559228895756121
 30
0.0
 11
-74.166050019539696
 21
6.3590539930912371
 31
0.0
  0
LINE
  5
1E45
  8
247
 10
-74.25296789673699
 20
6.0559228895756121
 30
0.0
 11
-74.000694337166649
 21
6.0559228895756121
 31
0.0
  0
LINE
  5
1E46
  8
247
 10
-74.166050019539696
 20
6.3590539930912371
 30
0.0
 11
-73.283081116951806
 21
6.359053993091222
 31
0.0
  0
LINE
  5
1E47
  8
247
 10
-73.726379456795556
 20
4.8130941628071184
 30
0.0
 11
-73.283081116951806
 21
6.359053993091222
 31
0.0
  0
LINE
  5
1E48
  8
247
 10
-74.195346894539696
 20
5.3770936964603759
 30
0.0
 11
-74.000694337166649
 21
6.0559228895756121
 31
0.0
  0
ARC
  5
1E49
  8
247
 10
-74.092773499764306
 20
6.8895219801517751
 30
0.0
 40
0.3182875066995621
 50
1.710121382064363
 51
163.99839835444871
  0
ARC
  5
1E4A
  8
247
 10
-72.903572144783837
 20
5.9498247145267751
 30
0.0
 40
1.2882993221282939
 50
110.8721834020772
 51
132.54194893738571
  0
ARC
  5
1E4B
  8
247
 10
-72.903572144783837
 20
5.9498247145267751
 30
0.0
 40
1.5914275646209699
 50
110.22964506332011
 51
118.57168892371639
  0
LINE
  5
1E4C
  8
247
 10
-73.362571778572899
 20
7.1535829542728617
 30
0.0
 11
-73.453861298836571
 21
7.4430841444584104
 31
0.0
  0
LINE
  5
1E4D
  8
247
 10
-73.2180214550866
 20
7.1991647718998157
 30
0.0
 11
-73.309310975350243
 21
7.4886659620853617
 31
0.0
  0
LINE
  5
1E4E
  8
247
 10
-74.807262482918631
 20
5.5525545118900661
 30
0.0
 11
-74.398731293953759
 21
6.9772638319584228
 31
0.0
  0
ARC
  5
1E4F
  8
247
 10
-72.903572144783837
 20
5.9498247145267751
 30
0.0
 40
1.5914268493652339
 50
270.0
 51
104.7707939660939
  0
ARC
  5
1E50
  8
247
 10
-72.903572144783837
 20
5.9498247145267751
 30
0.0
 40
1.2882957458496089
 50
270.0
 51
104.1274364964119
  0
LINE
  5
1E51
  8
247
 10
-76.722156586922509
 20
4.8130941628071184
 30
0.0
 11
-76.044162812508446
 21
4.8130941628071184
 31
0.0
  0
LINE
  5
1E52
  8
247
 10
-78.419296050933582
 20
4.8130941628071184
 30
0.0
 11
-78.029401894561914
 21
5.202988319178786
 31
0.0
  0
LINE
  5
1E53
  8
247
 10
-78.898033204354121
 20
4.8130941628071184
 30
0.0
 11
-77.640098634041649
 21
4.8130941628071184
 31
0.0
  0
LINE
  5
1E54
  8
247
 10
-77.352199679801089
 20
4.8699117203192941
 30
0.0
 11
-76.939099519228733
 21
5.2830118808916477
 31
0.0
  0
LINE
  5
1E55
  8
247
 10
-78.756055655473645
 20
4.8130941628071184
 30
0.0
 11
-77.894023248790006
 21
5.6751265694907707
 31
0.0
  0
LINE
  5
1E56
  8
247
 10
-77.79579624723786
 20
6.0176970272006534
 30
0.0
 11
-78.044212865452906
 21
5.1513344867589961
 31
0.0
  0
ARC
  5
1E57
  8
247
 10
-77.978282990731131
 20
5.6012262343021657
 30
0.0
 40
0.4546969681978227
 50
261.66285421114873
 51
66.338192159110093
  0
LINE
  5
1E58
  8
247
 10
-78.819726040010522
 20
5.0861833828103311
 30
0.0
 11
-77.537146568588071
 21
6.3687628542327843
 31
0.0
  0
LINE
  5
1E59
  8
247
 10
-77.74577684185337
 20
4.81309416280709
 30
0.0
 11
-76.888798124494372
 21
5.6700728801661171
 31
0.0
  0
ARC
  5
1E5A
  8
247
 10
-77.640098634041649
 20
5.5709108351322438
 30
0.0
 40
0.7578163146972659
 50
270.0
 51
40.329840654168152
  0
LINE
  5
1E5B
  8
247
 10
-78.082536446393476
 20
4.8130941628071184
 30
0.0
 11
-76.970279506535775
 21
5.925351102664818
 31
0.0
  0
LINE
  5
1E5C
  8
247
 10
-76.145855012215463
 20
7.2078165052982666
 30
0.0
 11
-76.050239625252587
 21
7.5412515638920166
 31
0.0
  0
LINE
  5
1E5D
  8
247
 10
-76.145855012215463
 20
7.2078165052982666
 30
0.0
 11
-76.035476746834604
 21
7.2078165052982666
 31
0.0
  0
LINE
  5
1E5E
  8
247
 10
-78.413569174979585
 20
6.5026190614615293
 30
0.0
 11
-77.374936672549197
 21
7.541251563891902
 31
0.0
  0
LINE
  5
1E5F
  8
247
 10
-77.185623687810192
 20
6.720285735010691
 30
0.0
 11
-76.678363050244201
 21
7.2275463725766818
 31
0.0
  0
LINE
  5
1E60
  8
247
 10
-79.057094636238915
 20
7.5412515638920166
 30
0.0
 11
-78.431091370858056
 21
7.5412515638920166
 31
0.0
  0
LINE
  5
1E61
  8
247
 10
-79.057094636238915
 20
7.2381204603763916
 30
0.0
 11
-78.51800924805535
 21
7.2381204603763916
 31
0.0
  0
LINE
  5
1E62
  8
247
 10
-78.351586985144934
 20
7.2381204603763631
 30
0.0
 11
-78.048455881629323
 21
7.5412515638919881
 31
0.0
  0
LINE
  5
1E63
  8
247
 10
-78.273426118172338
 20
7.5412515638920166
 30
0.0
 11
-78.360343995370116
 21
7.2381204603763916
 31
0.0
  0
LINE
  5
1E64
  8
247
 10
-78.360343995370116
 20
7.2381204603763916
 30
0.0
 11
-78.202667298592772
 21
7.2381204603755132
 31
0.0
  0
LINE
  5
1E65
  8
247
 10
-78.431091370858056
 20
7.5412515638920166
 30
0.0
 11
-78.51800924805535
 21
7.2381204603763916
 31
0.0
  0
LINE
  5
1E66
  8
247
 10
-78.278183553302625
 20
6.9747642876786244
 30
0.0
 11
-77.71169627708926
 21
7.5412515638919597
 31
0.0
  0
LINE
  5
1E67
  8
247
 10
-78.273426118172338
 20
7.5412515638920166
 30
0.0
 11
-77.295539240987779
 21
7.541251563891902
 31
0.0
  0
LINE
  5
1E68
  8
247
 10
-77.224476488785712
 20
7.0181925385752484
 30
0.0
 11
-76.846494405242694
 21
7.3961746221182789
 31
0.0
  0
LINE
  5
1E69
  8
247
 10
-77.383809774933994
 20
7.1956188569670569
 30
0.0
 11
-77.07118229529965
 21
7.5082463366013874
 31
0.0
  0
LINE
  5
1E6A
  8
247
 10
-76.050239625252587
 20
7.5412515638920166
 30
0.0
 11
-75.26187902954949
 21
7.5412515638920166
 31
0.0
  0
LINE
  5
1E6B
  8
247
 10
-76.722156586922509
 20
4.8130941628071184
 30
0.0
 11
-76.035476746834604
 21
7.2078165052982666
 31
0.0
  0
LINE
  5
1E6C
  8
247
 10
-77.448116912282174
 20
7.2301973797179331
 30
0.0
 11
-77.696529443797189
 21
6.3638605356925364
 31
0.0
  0
LINE
  5
1E6D
  8
247
 10
-78.54895479665656
 20
6.0304738352444627
 30
0.0
 11
-77.487870061103806
 21
7.0915585707972184
 31
0.0
  0
ARC
  5
1E6E
  8
247
 10
-77.29241568116079
 20
6.7834352491947438
 30
0.0
 40
0.7578227519989014
 50
287.66957754739798
 51
90.236159842671583
  0
LINE
  5
1E6F
  8
247
 10
-77.651625703195265
 20
5.9175241150854827
 30
0.0
 11
-76.566877495595548
 21
7.0022723226851991
 31
0.0
  0
ARC
  5
1E70
  8
247
 10
-77.630600037850243
 20
6.8137392042728688
 30
0.0
 40
0.4546839594841005
 50
261.66260168792928
 51
66.338155095190061
  0
LINE
  5
1E71
  8
247
 10
-78.684340418333562
 20
5.5583286090273978
 30
0.0
 11
-77.62325121407369
 21
6.6194178132872423
 31
0.0
  0
LINE
  5
1E72
  8
247
 10
-77.534072853376784
 20
5.6983173603638866
 30
0.0
 11
-76.540093177445343
 21
6.6922970362953151
 31
0.0
  0
LINE
  5
1E73
  8
247
 10
-78.898033204354121
 20
4.8130941628071184
 30
0.0
 11
-78.202667298592772
 21
7.2381204603755132
 31
0.0
  0
ARC
  5
1E74
  8
247
 10
-72.858047547615868
 20
5.7464632032963072
 30
0.0
 40
2.5780792236328121
 50
155.20517736984229
 51
172.79482596205051
  0
LINE
  5
1E75
  8
247
 10
-76.044162812508446
 20
4.8130941628071184
 30
0.0
 11
-75.26187902954949
 21
7.5412515638920166
 31
0.0
  0
ARC
  5
1E76
  8
247
 10
-79.057094636238915
 20
5.9498247145267751
 30
0.0
 40
1.5914268493652339
 50
89.999999999999986
 51
270.0
  0
ARC
  5
1E77
  8
247
 10
-79.057094636238915
 20
5.9498247145267751
 30
0.0
 40
1.2882957458496089
 50
89.999999999999986
 51
270.0
  0
LINE
  5
1E78
  8
247
 10
-79.057094636238915
 20
4.3583975153350982
 30
0.0
 11
-72.903572144783837
 21
4.358397515335084
 31
0.0
  0
LINE
  5
1E79
  8
247
 10
-79.057094636238915
 20
4.6615286110493042
 30
0.0
 11
-72.903572144783837
 21
4.6615286110492899
 31
0.0
  0
ARC
  5
1E7A
  8
247
 10
-74.251457276619803
 20
6.5560869215580251
 30
0.0
 40
0.9851660728454588
 50
53.44401219705555
 51
164.00018438768541
  0
ARC
  5
1E7B
  8
247
 10
-74.468757691658837
 20
5.7982591627689626
 30
0.0
 40
0.9851760864257813
 50
163.99975070172749
 51
304.96387329163082
  0
ARC
  5
1E7C
  8
247
 10
-74.501304688729164
 20
5.4648241041752126
 30
0.0
 40
0.3182872831821442
 50
164.00027305718399
 51
344.00027305718402
  0
TEXT
  5
1E7D
  8
247
 10
-70.304846019876067
 20
4.7905930589135917
 30
0.0
 40
2.5
  1
ST20-CBY09022
  7
YOKO
 11
-70.304846019876067
 21
4.7905930589135917
 31
0.0
 73
     1
  0
ARC
  5
1E7E
  8
240
  6
CONTINUOUS
 10
-179.5000000000006
 20
8.5566243270259523
 30
0.0
 40
0.5
 50
119.9999999999997
 51
180.0
1001
GRPNAME
1000
PASTMD04
1001
GENIUS_GENOBJ-N-FIL_13
1002
{
1000
OWNER
1000
GEN
1002
}
1001
GENIUS_GENODEF_13
1002
{
1000
HIER
1070
     0
1002
}
1002
{
1000
MANEDIT
1070
     0
1002
}
1002
{
1000
NOSEL
1070
     0
1002
}
1002
{
1000
BEHIND
1070
     0
1002
}
1002
{
1000
OTHER
1070
     0
1002
}
1002
{
1000
REACTOR
1002
}
  0
ARC
  5
1E7F
  8
240
  6
CONTINUOUS
 10
-179.5000000000006
 20
-8.5566243270259594
 30
0.0
 40
0.5
 50
180.0
 51
240.00000000000031
1001
GENIUS_GENODEF_13
1002
{
1000
HIER
1070
     0
1002
}
1002
{
1000
MANEDIT
1070
     0
1002
}
1002
{
1000
NOSEL
1070
     0
1002
}
1002
{
1000
BEHIND
1070
     0
1002
}
1002
{
1000
OTHER
1070
     0
1002
}
1002
{
1000
REACTOR
1002
}
1001
GENIUS_GENOBJ-N-FIL_13
1002
{
1000
OWNER
1000
GEN
1002
}
  0
LINE
  5
1E80
  8
240
  6
CONTINUOUS
 10
-178.0000000000006
 20
-10.0
 30
0.0
 11
-179.7500000000006
 21
-8.9896370289181782
 31
0.0
  0
LINE
  5
1E81
  8
240
  6
CONTINUOUS
 10
-179.7500000000006
 20
8.9896370289181728
 30
0.0
 11
-178.0000000000006
 21
10.0
 31
0.0
  0
LINE
  5
1E82
  8
240
  6
CONTINUOUS
 10
-180.0000000000006
 20
-8.5566243270259594
 30
0.0
 11
-180.0000000000006
 21
8.5566243270259523
 31
0.0
1001
GRPNAME
1000
PASTMD04
  0
LINE
  5
1E83
  8
240
  6
CONTINUOUS
 10
-0.0000000000006537
 20
0.0
 30
0.0
 11
-11.00000000000116
 21
11.0
 31
0.0
1001
GRPNAME
1000
PASTMD04
  0
ARC
  5
1E84
  8
241
  6
CONTINUOUS
 10
13.99532270208428
 20
34.446980689516288
 30
0.0
 40
37.181494539076617
 50
219.18134566179461
 51
247.88878579895439
1001
GRPNAME
1000
PASTMD04
  0
LINE
  5
1E85
  8
240
  6
CONTINUOUS
 10
-24.500000000000639
 20
10.0
 30
0.0
 11
-24.000000000000639
 21
9.5
 31
0.0
1001
GRPNAME
1000
PASTMD04
  0
LINE
  5
1E86
  8
240
  6
CONTINUOUS
 10
-24.000000000000639
 20
10.133974596215751
 30
0.0
 11
-23.500000000000689
 21
11.0
 31
0.0
1001
GRPNAME
1000
PASTMD04
  0
LINE
  5
1E87
  8
240
  6
CONTINUOUS
 10
-23.500000000000689
 20
11.0
 30
0.0
 11
-11.00000000000116
 21
11.0
 31
0.0
1001
GRPNAME
1000
PASTMD04
  0
LINE
  5
1E88
  8
240
  6
CONTINUOUS
 10
-178.0000000000006
 20
10.0
 30
0.0
 11
-24.500000000000639
 21
10.0
 31
0.0
1001
GRPNAME
1000
PASTMD04
  0
LINE
  5
1E89
  8
240
  6
CONTINUOUS
 10
-24.000000000000639
 20
-9.5
 30
0.0
 11
-24.500000000000639
 21
-10.0
 31
0.0
1001
GRPNAME
1000
PASTMD04
  0
LINE
  5
1E8A
  8
240
  6
CONTINUOUS
 10
-23.500000000000639
 20
-10.99999999999997
 30
0.0
 11
-24.000000000000639
 21
-10.13397459621552
 31
0.0
1001
GRPNAME
1000
PASTMD04
  0
LINE
  5
1E8B
  8
240
  6
CONTINUOUS
 10
-23.500000000000639
 20
-10.99999999999997
 30
0.0
 11
-11.00000000000116
 21
-11.0
 31
0.0
1001
GRPNAME
1000
PASTMD04
  0
LINE
  5
1E8C
  8
240
  6
CONTINUOUS
 10
-178.0000000000006
 20
-10.0
 30
0.0
 11
-24.500000000000639
 21
-10.0
 31
0.0
1001
GRPNAME
1000
PASTMD04
  0
LINE
  5
1E8D
  8
240
  6
CONTINUOUS
 10
-11.00000000000116
 20
-11.0
 30
0.0
 11
-0.0000000000006537
 21
0.0
 31
0.0
1001
GRPNAME
1000
PASTMD04
  0
LINE
  5
1E8E
  8
240
  6
CONTINUOUS
 10
-24.000000000000639
 20
-10.13397459621552
 30
0.0
 11
-24.000000000000639
 21
-9.5
 31
0.0
1001
GRPNAME
1000
PASTMD04
  0
LINE
  5
1E8F
  8
245
  6
CENTER2
 10
-185.1732033820596
 20
0.0
 30
0.0
 11
2.862796241185606
 21
0.0
 31
0.0
  0
LINE
  5
1E90
  8
247
 10
-75.29362010042513
 20
6.5917316951550973
 30
0.0
 11
-74.348932948341897
 21
7.5364188472383367
 31
0.0
  0
LINE
  5
1E91
  8
247
 10
-75.405421871793976
 20
6.1431703192461731
 30
0.0
 11
-74.032076142024323
 21
7.5165160490158272
 31
0.0
  0
LINE
  5
1E92
  8
247
 10
-75.45313896397677
 20
5.7586936225232961
 30
0.0
 11
-74.464729090360493
 21
6.7471034961395802
 31
0.0
  0
LINE
  5
1E93
  8
247
 10
-74.013940277145593
 20
7.1978923093544651
 30
0.0
 11
-73.78695777261089
 21
7.4248748138891818
 31
0.0
  0
LINE
  5
1E94
  8
247
 10
-75.399565538981491
 20
5.4755074429784543
 30
0.0
 11
-74.600115591434545
 21
6.2749573905254081
 31
0.0
  0
LINE
  5
1E95
  8
247
 10
-73.820577479030433
 20
7.0544955029294982
 30
0.0
 11
-73.448617666448811
 21
7.4264553155111344
 31
0.0
  0
LINE
  5
1E96
  8
247
 10
-75.287696162206416
 20
5.2506172152134454
 30
0.0
 11
-74.735502092508625
 21
5.8028112849112281
 31
0.0
  0
LINE
  5
1E97
  8
247
 10
-73.399444695176456
 20
7.1388686822434053
 30
0.0
 11
-73.367884019594953
 21
7.1704293578249141
 31
0.0
  0
LINE
  5
1E98
  8
247
 10
-75.131881456872478
 20
5.0696723160072992
 30
0.0
 11
-74.810843055539124
 21
5.3907107173406379
 31
0.0
  0
LINE
  5
1E99
  8
247
 10
-74.145630883304165
 20
6.0559228895756041
 30
0.0
 11
-73.842499779788525
 21
6.3590539930912442
 31
0.0
  0
LINE
  5
1E9A
  8
247
 10
-74.93460975715503
 20
4.9301844111846611
 30
0.0
 11
-74.669923082282423
 21
5.1948710860572609
 31
0.0
  0
LINE
  5
1E9B
  8
247
 10
-74.077812574860943
 20
5.7869815934787487
 30
0.0
 11
-73.505740175248462
 21
6.359053993091222
 31
0.0
  0
LINE
  5
1E9C
  8
247
 10
-74.689827512009671
 20
4.8382070517899294
 30
0.0
 11
-74.333946634179881
 21
5.1940879296197187
 31
0.0
  0
LINE
  5
1E9D
  8
247
 10
-74.230568514173697
 20
5.2974660496259096
 30
0.0
 11
-73.328952477440509
 21
6.1990820863590983
 31
0.0
  0
LINE
  5
1E9E
  8
247
 10
-74.373583936721701
 20
4.8176910225378
 30
0.0
 11
-73.464338518318229
 21
5.7269364409412651
 31
0.0
  0
LINE
  5
1E9F
  8
247
 10
-73.883905393408384
 20
4.9706099613110117
 30
0.0
 11
-73.599724559195963
 21
5.254790795523447
 31
0.0
  0
LINE
  5
1EA0
  8
247
 10
-80.601026127256006
 20
6.3357197364256592
 30
0.0
 11
-79.442989658137805
 21
7.4937562055438534
 31
0.0
  0
LINE
  5
1EA1
  8
247
 10
-80.648520639643209
 20
5.951465619498328
 30
0.0
 11
-80.295654583690009
 21
6.3043316754515351
 31
0.0
  0
LINE
  5
1EA2
  8
247
 10
-79.411601597163653
 20
7.1883846619778922
 30
0.0
 11
-79.058735541210424
 21
7.5412507179310992
 31
0.0
  0
LINE
  5
1EA3
  8
247
 10
-80.618919910314446
 20
5.6443067442870136
 30
0.0
 11
-80.345002753067291
 21
5.9182239015341764
 31
0.0
  0
LINE
  5
1EA4
  8
247
 10
-79.02510619422506
 20
7.2381204603763933
 30
0.0
 11
-78.721975090709449
 21
7.5412515638920112
 31
0.0
  0
LINE
  5
1EA5
  8
247
 10
-80.54396522700722
 20
5.3825018230541408
 30
0.0
 11
-80.303291382022877
 21
5.6231756680384981
 31
0.0
  0
LINE
  5
1EA6
  8
247
 10
-78.688346589684983
 20
7.2381204603763862
 30
0.0
 11
-78.449533510497645
 21
7.4769335395637171
 31
0.0
  0
LINE
  5
1EA7
  8
247
 10
-80.435415184164455
 20
5.1542922613567788
 30
0.0
 11
-80.211589183871382
 21
5.378118261649881
 31
0.0
  0
LINE
  5
1EA8
  8
247
 10
-80.298673677834003
 20
4.9542741631471472
 30
0.0
 11
-80.08272754938298
 21
5.1702202915981914
 31
0.0
  0
LINE
  5
1EA9
  8
247
 10
-80.136122993442768
 20
4.780065242998325
 30
0.0
 11
-79.921561443092344
 21
4.9946267933487496
 31
0.0
  0
LINE
  5
1EAA
  8
247
 10
-79.948171719446734
 20
4.631256912454254
 30
0.0
 11
-79.728880691104365
 21
4.8505479407966368
 31
0.0
  0
LINE
  5
1EAB
  8
247
 10
-79.733411758855425
 20
4.5092572685054932
 30
0.0
 11
-79.501911628003754
 21
4.7407573993571566
 31
0.0
  0
LINE
  5
1EAC
  8
247
 10
-79.488049805477175
 20
4.4178596173436304
 30
0.0
 11
-79.232397669624447
 21
4.6735117531963652
 31
0.0
  0
LINE
  5
1EAD
  8
247
 10
-79.203960643201256
 20
4.3651891750794496
 30
0.0
 11
-78.907621207231415
 21
4.6615286110492979
 31
0.0
  0
LINE
  5
1EAE
  8
247
 10
-78.87399269840553
 20
4.3583975153350991
 30
0.0
 11
-78.570861602691323
 21
4.6615286110492908
 31
0.0
  0
LINE
  5
1EAF
  8
247
 10
-78.53723309386541
 20
4.358397515335092
 30
0.0
 11
-78.234101998151232
 21
4.6615286110492908
 31
0.0
  0
LINE
  5
1EB0
  8
247
 10
-78.200473489325333
 20
4.3583975153351062
 30
0.0
 11
-77.897342393611126
 21
4.6615286110492979
 31
0.0
  0
LINE
  5
1EB1
  8
247
 10
-77.863713884785241
 20
4.3583975153350991
 30
0.0
 11
-77.560582789071034
 21
4.6615286110492979
 31
0.0
  0
LINE
  5
1EB2
  8
247
 10
-77.52695428024515
 20
4.358397515335092
 30
0.0
 11
-77.223823184530943
 21
4.6615286110492979
 31
0.0
  0
LINE
  5
1EB3
  8
247
 10
-77.190194675705058
 20
4.358397515335084
 30
0.0
 11
-76.887063579990837
 21
4.661528611049305
 31
0.0
  0
LINE
  5
1EB4
  8
247
 10
-76.853435071164981
 20
4.358397515335084
 30
0.0
 11
-76.550303975450745
 21
4.661528611049305
 31
0.0
  0
LINE
  5
1EB5
  8
247
 10
-76.516675466624861
 20
4.358397515335084
 30
0.0
 11
-76.213544370910654
 21
4.661528611049305
 31
0.0
  0
LINE
  5
1EB6
  8
247
 10
-76.179915862084783
 20
4.358397515335084
 30
0.0
 11
-75.876784766370562
 21
4.6615286110492979
 31
0.0
  0
LINE
  5
1EB7
  8
247
 10
-73.247060082213096
 20
7.291253295206757
 30
0.0
 11
-72.999984969437236
 21
7.5383284079826254
 31
0.0
  0
LINE
  5
1EB8
  8
247
 10
-75.843156257544692
 20
4.358397515335084
 30
0.0
 11
-75.540025161830485
 21
4.6615286110492908
 31
0.0
  0
LINE
  5
1EB9
  8
247
 10
-72.964893554700723
 20
7.2366602181790389
 30
0.0
 11
-72.676574610023209
 21
7.5249791628565674
 31
0.0
  0
LINE
  5
1EBA
  8
247
 10
-75.5063966530046
 20
4.358397515335084
 30
0.0
 11
-75.203265557290393
 21
4.6615286110492908
 31
0.0
  0
LINE
  5
1EBB
  8
247
 10
-72.651562520863152
 20
7.2132316474765403
 30
0.0
 11
-72.403990450707767
 21
7.4608037176319106
 31
0.0
  0
LINE
  5
1EBC
  8
247
 10
-75.169637048464523
 20
4.358397515335084
 30
0.0
 11
-74.866505952750316
 21
4.6615286110492908
 31
0.0
  0
LINE
  5
1EBD
  8
247
 10
-72.394682419721562
 20
7.1333521440780308
 30
0.0
 11
-72.167328842162249
 21
7.360705721637359
 31
0.0
  0
LINE
  5
1EBE
  8
247
 10
-74.832877443924417
 20
4.3583975153350769
 30
0.0
 11
-74.52974634821021
 21
4.6615286110492908
 31
0.0
  0
LINE
  5
1EBF
  8
247
 10
-72.177350560134059
 20
7.0139243991254361
 30
0.0
 11
-71.959955890140094
 21
7.2313190691193787
 31
0.0
  0
LINE
  5
1EC0
  8
247
 10
-74.49611783938434
 20
4.3583975153350769
 30
0.0
 11
-74.192986743670119
 21
4.6615286110492837
 31
0.0
  0
LINE
  5
1EC1
  8
247
 10
-71.993168906087675
 20
6.8613464486317417
 30
0.0
 11
-71.778822814505162
 21
7.0756925402142414
 31
0.0
  0
LINE
  5
1EC2
  8
247
 10
-74.159358234844234
 20
4.358397515335084
 30
0.0
 11
-73.856227139130041
 21
4.6615286110492837
 31
0.0
  0
LINE
  5
1EC3
  8
247
 10
-71.840380591217013
 20
6.677375158962306
 30
0.0
 11
-71.623027019668257
 21
6.8947287305110692
 31
0.0
  0
LINE
  5
1EC4
  8
247
 10
-73.822598630304114
 20
4.3583975153350769
 30
0.0
 11
-73.519467534589907
 21
4.6615286110492979
 31
0.0
  0
LINE
  5
1EC5
  8
247
 10
-71.720718207993116
 20
6.4602779376460973
 30
0.0
 11
-71.49345883593395
 21
6.6875373097052631
 31
0.0
  0
LINE
  5
1EC6
  8
247
 10
-73.485839025764037
 20
4.358397515335084
 30
0.0
 11
-73.182707930049816
 21
4.6615286110492979
 31
0.0
  0
LINE
  5
1EC7
  8
247
 10
-71.640538409363813
 20
6.2036981317353082
 30
0.0
 11
-71.393149765706639
 21
6.4510867753924748
 31
0.0
  0
LINE
  5
1EC8
  8
247
 10
-73.149079421223945
 20
4.358397515335084
 30
0.0
 11
-72.844597406986125
 21
4.6628795295729111
 31
0.0
  0
LINE
  5
1EC9
  8
247
 10
-71.616626959829986
 20
5.8908499767290499
 30
0.0
 11
-71.328700547589222
 21
6.1787763889698013
 31
0.0
  0
LINE
  5
1ECA
  8
247
 10
-72.809538951796029
 20
4.3611783802229089
 30
0.0
 11
-72.41151788970582
 21
4.7591994423131183
 31
0.0
  0
LINE
  5
1ECB
  8
247
 10
-71.712946872570186
 20
5.4577704594487519
 30
0.0
 11
-71.314925810479977
 21
5.8557915215389613
 31
0.0
  0
LINE
  5
1ECC
  8
247
 10
-72.390628289472772
 20
4.4433294380060602
 30
0.0
 11
-71.397076868263113
 21
5.4368808592157194
 31
0.0
  0
LINE
  5
1ECD
  8
247
 10
-76.059221972279573
 20
7.5099278460011263
 30
0.0
 11
-76.027898254388703
 21
7.5412515638920041
 31
0.0
  0
LINE
  5
1ECE
  8
247
 10
-76.039860066716443
 20
7.192530147024172
 30
0.0
 11
-75.691138649848625
 21
7.5412515638920041
 31
0.0
  0
LINE
  5
1ECF
  8
247
 10
-76.175246645837419
 20
6.7203839633630897
 30
0.0
 11
-75.354379045308505
 21
7.541251563891997
 31
0.0
  0
LINE
  5
1ED0
  8
247
 10
-76.310633224958423
 20
6.2482377797020092
 30
0.0
 11
-75.360076730240706
 21
7.1987942744197317
 31
0.0
  0
LINE
  5
1ED1
  8
247
 10
-76.446019804079413
 20
5.7760915960409269
 30
0.0
 11
-75.495461461773843
 21
6.7266499383465037
 31
0.0
  0
LINE
  5
1ED2
  8
247
 10
-76.581406383200374
 20
5.3039454123798464
 30
0.0
 11
-75.630846193306951
 21
6.2545056022732828
 31
0.0
  0
LINE
  5
1ED3
  8
247
 10
-76.716792962321392
 20
4.8317992287187641
 30
0.0
 11
-75.766230924840102
 21
5.7823612662000548
 31
0.0
  0
LINE
  5
1ED4
  8
247
 10
-76.398738423692933
 20
4.8130941628071184
 30
0.0
 11
-75.901615656373224
 21
5.3102169301268267
 31
0.0
  0
LINE
  5
1ED5
  8
247
 10
-76.061978819152841
 20
4.8130941628071184
 30
0.0
 11
-76.037000387906346
 21
4.8380725940536129
 31
0.0
  0
LINE
  5
1ED6
  8
247
 10
-76.050239625252587
 20
7.5412515638920112
 30
0.0
 11
-76.145855012215463
 21
7.2078165052982612
 31
0.0
  0
LINE
  5
1ED7
  8
247
 10
-76.145855012215463
 20
7.2078165052982612
 30
0.0
 11
-76.035476746834604
 21
7.2078165052982612
 31
0.0
  0
LINE
  5
1ED8
  8
247
 10
-76.035476746834604
 20
7.2078165052982612
 30
0.0
 11
-76.722156586922509
 21
4.8130941628071113
 31
0.0
  0
LINE
  5
1ED9
  8
247
 10
-76.722156586922509
 20
4.8130941628071113
 30
0.0
 11
-76.044162812508446
 21
4.8130941628071113
 31
0.0
  0
LINE
  5
1EDA
  8
247
 10
-76.044162812508446
 20
4.8130941628071113
 30
0.0
 11
-75.26187902954949
 21
7.5412515638920112
 31
0.0
  0
LINE
  5
1EDB
  8
247
 10
-75.26187902954949
 20
7.5412515638920112
 30
0.0
 11
-76.050239625252587
 21
7.5412515638920112
 31
0.0
  0
LINE
  5
1EDC
  8
247
 10
-76.050239625252587
 20
7.5412515638920112
 30
0.0
 11
-76.145855012215463
 21
7.2078165052982612
 31
0.0
1001
HATCH_DISTANCE
1040
1.0
1001
HATCH_DISPLAY
1070
     0
1001
HATCH_TYPE
1070
     7
  0
LINE
  5
1EDD
  8
247
 10
-76.145855012215463
 20
7.2078165052982612
 30
0.0
 11
-76.035476746834604
 21
7.2078165052982612
 31
0.0
1001
HATCH_DISTANCE
1040
1.0
1001
HATCH_DISPLAY
1070
     0
1001
HATCH_TYPE
1070
     7
  0
LINE
  5
1EDE
  8
247
 10
-76.035476746834604
 20
7.2078165052982612
 30
0.0
 11
-76.722156586922509
 21
4.8130941628071113
 31
0.0
1001
HATCH_DISTANCE
1040
1.0
1001
HATCH_DISPLAY
1070
     0
1001
HATCH_TYPE
1070
     7
  0
LINE
  5
1EDF
  8
247
 10
-76.722156586922509
 20
4.8130941628071113
 30
0.0
 11
-76.044162812508446
 21
4.8130941628071113
 31
0.0
1001
HATCH_DISTANCE
1040
1.0
1001
HATCH_DISPLAY
1070
     0
1001
HATCH_TYPE
1070
     7
  0
LINE
  5
1EE0
  8
247
 10
-76.044162812508446
 20
4.8130941628071113
 30
0.0
 11
-75.26187902954949
 21
7.5412515638920112
 31
0.0
1001
HATCH_DISTANCE
1040
1.0
1001
HATCH_DISPLAY
1070
     0
1001
HATCH_TYPE
1070
     7
  0
LINE
  5
1EE1
  8
247
 10
-75.26187902954949
 20
7.5412515638920112
 30
0.0
 11
-76.050239625252587
 21
7.5412515638920112
 31
0.0
1001
HATCH_DISTANCE
1040
1.0
1001
HATCH_DISPLAY
1070
     0
1001
HATCH_TYPE
1070
     7
  0
LINE
  5
1EE2
  8
247
 10
-73.2180214550866
 20
7.1991647718998211
 30
0.0
 11
-73.309310975350243
 21
7.4886659620853688
 31
0.0
  0
LINE
  5
1EE3
  8
247
 10
-73.309310975350243
 20
7.4886659620853688
 30
0.0
 11
-73.309310975350243
 21
7.4886659620853688
 31
0.0
  0
LINE
  5
1EE4
  8
247
 10
-73.309310975350243
 20
7.4886659620853688
 30
0.0
 11
-73.2180214550866
 21
7.1991647718998211
 31
0.0
  0
LINE
  5
1EE5
  8
247
 10
-73.2180214550866
 20
7.1991647718998211
 30
0.0
 11
-73.2180214550866
 21
7.1991647718998211
 31
0.0
  0
LINE
  5
1EE6
  8
247
 10
-73.2180214550866
 20
7.1991647718998211
 30
0.0
 11
-73.309310975350243
 21
7.4886659620853688
 31
0.0
1001
HATCH_DISTANCE
1040
1.0
1001
HATCH_DISPLAY
1070
     0
1001
HATCH_TYPE
1070
     7
  0
LINE
  5
1EE7
  8
247
 10
-73.309310975350243
 20
7.4886659620853688
 30
0.0
 11
-73.309310975350243
 21
7.4886659620853688
 31
0.0
1001
HATCH_DISTANCE
1040
1.0
1001
HATCH_DISPLAY
1070
     0
1001
HATCH_TYPE
1070
     7
  0
LINE
  5
1EE8
  8
247
 10
-73.309310975350243
 20
7.4886659620853688
 30
0.0
 11
-73.2180214550866
 21
7.1991647718998211
 31
0.0
1001
HATCH_DISTANCE
1040
1.0
1001
HATCH_DISPLAY
1070
     0
1001
HATCH_TYPE
1070
     7
  0
LINE
  5
1EE9
  8
247
 10
-73.2180214550866
 20
7.1991647718998211
 30
0.0
 11
-73.2180214550866
 21
7.1991647718998211
 31
0.0
1001
HATCH_DISTANCE
1040
1.0
1001
HATCH_DISPLAY
1070
     0
1001
HATCH_TYPE
1070
     7
  0
LINE
  5
1EEA
  8
247
 10
-73.2180214550866
 20
7.1991647718998211
 30
0.0
 11
-73.309310975350243
 21
7.4886659620853688
 31
0.0
  0
LINE
  5
1EEB
  8
247
 10
-73.309310975350243
 20
7.4886659620853688
 30
0.0
 11
-73.309310975350243
 21
7.4886659620853688
 31
0.0
  0
LINE
  5
1EEC
  8
247
 10
-73.309310975350243
 20
7.4886659620853688
 30
0.0
 11
-73.2180214550866
 21
7.1991647718998211
 31
0.0
  0
LINE
  5
1EED
  8
247
 10
-73.2180214550866
 20
7.1991647718998211
 30
0.0
 11
-73.2180214550866
 21
7.1991647718998211
 31
0.0
  0
LINE
  5
1EEE
  8
247
 10
-73.2180214550866
 20
7.1991647718998211
 30
0.0
 11
-73.309310975350243
 21
7.4886659620853688
 31
0.0
1001
HATCH_DISTANCE
1040
1.0
1001
HATCH_DISPLAY
1070
     0
1001
HATCH_TYPE
1070
     7
  0
LINE
  5
1EEF
  8
247
 10
-73.309310975350243
 20
7.4886659620853688
 30
0.0
 11
-73.309310975350243
 21
7.4886659620853688
 31
0.0
1001
HATCH_DISTANCE
1040
1.0
1001
HATCH_DISPLAY
1070
     0
1001
HATCH_TYPE
1070
     7
  0
LINE
  5
1EF0
  8
247
 10
-73.309310975350243
 20
7.4886659620853688
 30
0.0
 11
-73.2180214550866
 21
7.1991647718998211
 31
0.0
1001
HATCH_DISTANCE
1040
1.0
1001
HATCH_DISPLAY
1070
     0
1001
HATCH_TYPE
1070
     7
  0
LINE
  5
1EF1
  8
247
 10
-73.2180214550866
 20
7.1991647718998211
 30
0.0
 11
-73.2180214550866
 21
7.1991647718998211
 31
0.0
1001
HATCH_DISTANCE
1040
1.0
1001
HATCH_DISPLAY
1070
     0
1001
HATCH_TYPE
1070
     7
  0
ENDBLK
  5
1EF4
  8
0
  0
ENDSEC
  0
SECTION
  2
ENTITIES
  0
LINE
  5
11B9
  8
250
 10
12.10057447525412
 20
12.10057447525636
 30
0.0
 11
0.3535533905921113
 21
0.3535533905937882
 31
0.0
1001
GRPNAME
1000
DM700003
1001
ITEMNAME
1000
DI320007
  0
LINE
  5
11BA
  8
250
 10
12.100574475780149
 20
-12.10057447578026
 30
0.0
 11
0.3535533905926229
 21
-0.3535533905932624
 31
0.0
1001
GRPNAME
1000
DM700003
1001
ITEMNAME
1000
DI310008
  0
LINE
  5
11BB
  8
250
 10
23.999999999999339
 20
11.0
 30
0.0
 11
-10.50000000000116
 21
11.0
 31
0.0
1001
GRPNAME
1000
DM100007
1001
ITEMNAME
1000
DI310005
  0
LINE
  5
11BC
  8
250
 10
23.999999999999339
 20
-10.99999993531787
 30
0.0
 11
-10.50000005870899
 21
-10.99999993531787
 31
0.0
1001
GRPNAME
1000
DM100007
1001
ITEMNAME
1000
DI320003
  0
TEXT
  5
12A3
  8
250
 10
21.999999999999339
 20
-5.2499999676589351
 30
0.0
 40
2.7999999999999989
  1
ƒÓ22
 50
90.000000000006509
 41
1.05
  7
YOKO
 11
21.999999999999339
 21
-5.2499999676589351
 31
0.0
 73
     1
1001
GRPNAME
1000
DM100007
1001
ITEMNAME
1000
DI010007
  0
ARC
  5
12A4
  8
250
 10
-0.0000000000011653
 20
0.0000000000005116
 30
0.0
 40
16.112796536155258
 50
315.00000000000051
 51
45.000000000001727
1001
GRPNAME
1000
DM700003
1001
ITEMNAME
1000
DI10000B
  0
LINE
  5
12A5
  8
250
 10
22.999999999999339
 20
11.0
 30
0.0
 11
22.999999999999339
 21
-10.99999993531787
 31
0.0
1001
GRPNAME
1000
DM100007
1001
ITEMNAME
1000
DI100007
  0
TEXT
  5
12B5
  8
250
 10
15.112796536234891
 20
-3.500000000024968
 30
0.0
 40
2.7999999999999989
  1
90ß
 50
90.000000000006509
 41
1.05
  7
YOKO
 11
15.112796536234891
 21
-3.500000000024968
 31
0.0
 73
     1
1001
GRPNAME
1000
DM700003
1001
ITEMNAME
1000
DI01000B
  0
TEXT
  5
14A7
  8
241
 10
-175.0
 20
42.0
 30
0.0
 40
5.0
  1
ST20-CBY09022
  7
YOKO
  0
LINE
  5
19A1
  8
250
 10
-0.0000000000000213
 20
0.5
 30
0.0
 11
-0.0000000000000195
 21
29.0
 31
0.0
  0
LINE
  5
19A2
  8
250
 10
-180.0000000000006
 20
9.0566243270259541
 30
0.0
 11
-180.0000000000006
 21
29.0
 31
0.0
  0
LINE
  5
19A3
  8
250
 10
-2.2300000000000191
 20
28.0
 30
0.0
 11
-177.77000000000061
 21
28.0
 31
0.0
  0
LINE
  5
19A7
  8
250
 10
15.19101775596592
 20
-26.35457580422894
 30
0.0
 11
-8.1423155773674125
 21
-26.35457580422894
 31
0.0
  0
LINE
  5
19A8
  8
250
 10
-8.1423155773674125
 20
-26.35457580422894
 30
0.0
 11
-14.43855505686205
 21
-13.016605607448041
 31
0.0
  0
LINE
  5
19A9
  8
250
 10
-14.43855505686205
 20
-13.016605607448041
 30
0.0
 11
-15.390501391488669
 21
-10.99999999999998
 31
0.0
  0
LINE
  5
19AA
  8
250
 10
-14.173063893177311
 20
-12.891279495484451
 30
0.0
 11
-15.390501391488669
 21
-10.99999999999998
 31
0.0
  0
LINE
  5
19AB
  8
250
 10
-15.390501391488669
 20
-10.99999999999998
 30
0.0
 11
-14.704046220546781
 21
-13.14193171941163
 31
0.0
  0
LINE
  5
19AD
  8
250
 10
23.293683932494471
 20
8.7692490619089227
 30
0.0
 11
22.999999999999339
 21
11.0
 31
0.0
1001
GRPNAME
1000
DM100007
1001
ITEMNAME
1000
DI210007
  0
LINE
  5
19AE
  8
250
 10
22.999999999999339
 20
11.0
 30
0.0
 11
22.706316067504211
 21
8.7692490619089227
 31
0.0
1001
GRPNAME
1000
DM100007
1001
ITEMNAME
1000
DI210007
  0
LINE
  5
19AF
  8
250
 10
13.08014901751204
 20
9.9043048040058324
 30
0.0
 11
11.39346769406759
 21
11.393467694069781
 31
0.0
1001
GRPNAME
1000
DM700003
1001
ITEMNAME
1000
DI22000B
  0
LINE
  5
19B0
  8
250
 10
11.39346769406759
 20
11.393467694069781
 30
0.0
 11
12.637253027893561
 21
9.5185015494795948
 31
0.0
1001
GRPNAME
1000
DM700003
1001
ITEMNAME
1000
DI22000B
  0
LINE
  5
19B1
  8
250
 10
22.706316067504211
 20
-8.7692489972267964
 30
0.0
 11
22.999999999999339
 21
-10.99999993531787
 31
0.0
1001
GRPNAME
1000
DM100007
1001
ITEMNAME
1000
DI220007
  0
LINE
  5
19B2
  8
250
 10
22.999999999999339
 20
-10.99999993531787
 30
0.0
 11
23.293683932494471
 21
-8.7692489972267964
 31
0.0
1001
GRPNAME
1000
DM100007
1001
ITEMNAME
1000
DI220007
  0
LINE
  5
19B3
  8
250
 10
12.637253028425331
 20
-9.5185015500073735
 30
0.0
 11
11.393467694593591
 21
-11.393467694593729
 31
0.0
1001
GRPNAME
1000
DM700003
1001
ITEMNAME
1000
DI21000B
  0
LINE
  5
19B4
  8
250
 10
11.393467694593591
 20
-11.393467694593729
 30
0.0
 11
13.08014901804264
 21
-9.9043048045349735
 31
0.0
1001
GRPNAME
1000
DM700003
1001
ITEMNAME
1000
DI21000B
  0
TEXT
  5
19B5
  8
250
 10
-5.7423155773674122
 20
-24.954575804228941
 30
0.0
 40
2.799999999999998
  1
CBY09022
  7
ACJISTS
1001
ACAD
1000
MTEXTBEGIN
1070
    73
1070
     1
1070
    44
1040
1.0
1070
    74
1070
     0
1000
MTEXTEND
  0
TEXT
  5
19B6
  8
250
 10
-94.200000000000315
 20
29.0
 30
0.0
 40
2.799999999999998
  1
180
1001
ACAD
1000
MTEXTBEGIN
1070
    73
1070
     1
1070
    44
1040
1.0
1070
    74
1070
     0
1000
MTEXTEND
  0
LINE
  5
19B7
  8
250
 10
-177.77000000000061
 20
27.62833333333333
 30
0.0
 11
-180.0000000000006
 21
28.0
 31
0.0
  0
LINE
  5
19B8
  8
250
 10
-177.77000000000061
 20
28.371666666666659
 30
0.0
 11
-180.0000000000006
 21
28.0
 31
0.0
  0
LINE
  5
19B9
  8
250
 10
-180.0000000000006
 20
28.0
 30
0.0
 11
-177.77000000000061
 21
28.0
 31
0.0
  0
LINE
  5
19BA
  8
250
 10
-2.2300000000000182
 20
28.371666666666659
 30
0.0
 11
-0.0000000000000196
 21
28.0
 31
0.0
  0
LINE
  5
19BB
  8
250
 10
-2.2300000000000182
 20
27.62833333333333
 30
0.0
 11
-0.0000000000000196
 21
28.0
 31
0.0
  0
LINE
  5
19BC
  8
250
 10
-0.0000000000000196
 20
28.0
 30
0.0
 11
-2.2300000000000182
 21
28.0
 31
0.0
  0
INSERT
  5
1EF5
  8
240
  2
A$C557051F2
 10
0.0
 20
0.0
 30
0.0
  0
VIEWPORT
  5
22
 67
     1
  8
0
 10
261.51769911504419
 20
148.5
 30
0.0
 40
523.0353982300885
 41
297.0
 68
     1
 69
     1
1001
ACAD
1000
MVIEW
1002
{
1070
    16
1010
0.0
1020
0.0
1030
0.0
1010
0.0
1020
0.0
1030
1.0
1040
0.0
1040
297.0
1040
261.51769911504419
1040
148.5
1040
50.0
1040
0.0
1040
0.0
1070
     0
1070
   100
1070
     1
1070
     1
1070
     0
1070
     0
1070
     0
1070
     0
1040
0.0
1040
0.0
1040
0.0
1040
1.0
1040
1.0
1040
10.0
1040
10.0
1070
     0
1002
{
1002
}
1002
}
1001
GENIUS_GENODEF_13
1002
{
1000
HIER
1070
     0
1002
}
1002
{
1000
MANEDIT
1070
     0
1002
}
1002
{
1000
NOSEL
1070
     0
1002
}
1002
{
1000
BEHIND
1070
     0
1002
}
1002
{
1000
OTHER
1070
     0
1002
}
1002
{
1000
REACTOR
1002
}
1001
GENIUS_GENOBJ-N-SDF_13
1002
{
1000
OWNER
1000
GEN
1002
}
1001
GENIUS_GENSCREG_15
1000
PF
1040
1.0
1000
DF
1040
1.0
1000
MIN
1011
0.0
1021
9.9783603010364921E+044
1031
9.3015068625759160E+025
1021
0.0
1031
0.0
1000
MAX
1011
523.0353982300885
1021
9.9783603010364921E+044
1031
9.3015068625759160E+025
1021
297.0
1031
0.0
1000
FLAGS
1070
     2
  0
ENDSEC
  0
EOF
