  0
SECTION
  2
HEADER
  9
$ACADVER
  1
AC1009
  9
$INSBASE
 10
0.0
 20
0.0
 30
0.0
  9
$EXTMIN
 10
-267.39183362060402
 20
-21.0
 30
0.0
  9
$EXTMAX
 10
22.0
 20
54.000000000000007
 30
0.0
  9
$LIMMIN
 10
0.0
 20
0.0
  9
$LIMMAX
 10
297.0
 20
210.0
  9
$ORTHOMODE
 70
     0
  9
$REGENMODE
 70
     1
  9
$FILLMODE
 70
     1
  9
$QTEXTMODE
 70
     0
  9
$MIRRTEXT
 70
     1
  9
$DRAGMODE
 70
     2
  9
$LTSCALE
 40
10.0
  9
$OSMODE
 70
   751
  9
$ATTMODE
 70
     1
  9
$TEXTSIZE
 40
3.0
  9
$TRACEWID
 40
1.0
  9
$TEXTSTYLE
  7
YOKO
  9
$CLAYER
  8
240
  9
$CELTYPE
  6
BYLAYER
  9
$CECOLOR
 62
   256
  9
$DIMSCALE
 40
1.0
  9
$DIMASZ
 40
2.2299999999999991
  9
$DIMEXO
 40
0.5
  9
$DIMDLI
 40
7.0
  9
$DIMRND
 40
0.0
  9
$DIMDLE
 40
0.0
  9
$DIMEXE
 40
1.0
  9
$DIMTP
 40
0.0
  9
$DIMTM
 40
0.0
  9
$DIMTXT
 40
2.799999999999998
  9
$DIMCEN
 40
0.0
  9
$DIMTSZ
 40
0.0
  9
$DIMTOL
 70
     0
  9
$DIMLIM
 70
     0
  9
$DIMTIH
 70
     0
  9
$DIMTOH
 70
     0
  9
$DIMSE1
 70
     0
  9
$DIMSE2
 70
     0
  9
$DIMTAD
 70
     3
  9
$DIMZIN
 70
     9
  9
$DIMBLK
  1
OPEN
  9
$DIMASO
 70
     1
  9
$DIMSHO
 70
     1
  9
$DIMPOST
  1

  9
$DIMAPOST
  1

  9
$DIMALT
 70
     0
  9
$DIMALTD
 70
     2
  9
$DIMALTF
 40
25.399999999999999
  9
$DIMLFAC
 40
1.0
  9
$DIMTOFL
 70
     1
  9
$DIMTVP
 40
0.0
  9
$DIMTIX
 70
     1
  9
$DIMSOXD
 70
     0
  9
$DIMSAH
 70
     0
  9
$DIMBLK1
  1

  9
$DIMBLK2
  1

  9
$DIMSTYLE
  2
BIGT
  9
$DIMCLRD
 70
   256
  9
$DIMCLRE
 70
   256
  9
$DIMCLRT
 70
    40
  9
$DIMTFAC
 40
1.0
  9
$DIMGAP
 40
1.0
  9
$LUNITS
 70
     2
  9
$LUPREC
 70
     3
  9
$SKETCHINC
 40
1.0
  9
$FILLETRAD
 40
0.0
  9
$AUNITS
 70
     0
  9
$AUPREC
 70
     3
  9
$MENU
  1
.
  9
$ELEVATION
 40
0.0
  9
$PELEVATION
 40
0.0
  9
$THICKNESS
 40
0.0
  9
$LIMCHECK
 70
     0
  9
$BLIPMODE
 70
     0
  9
$CHAMFERA
 40
0.25
  9
$CHAMFERB
 40
0.25
  9
$SKPOLY
 70
     0
  9
$TDCREATE
 40
2452787.5336546879
  9
$TDUPDATE
 40
2455313.656041123
  9
$TDINDWG
 40
0.015279213
  9
$TDUSRTIMER
 40
0.0152788426
  9
$USRTIMER
 70
     1
  9
$ANGBASE
 50
0.0
  9
$ANGDIR
 70
     0
  9
$PDMODE
 70
    35
  9
$PDSIZE
 40
-5.0
  9
$PLINEWID
 40
0.0
  9
$COORDS
 70
     2
  9
$SPLFRAME
 70
     0
  9
$SPLINETYPE
 70
     6
  9
$SPLINESEGS
 70
     4
  9
$ATTDIA
 70
     1
  9
$ATTREQ
 70
     1
  9
$HANDLING
 70
     1
  9
$HANDSEED
  5
216B
  9
$SURFTAB1
 70
     6
  9
$SURFTAB2
 70
     6
  9
$SURFTYPE
 70
     6
  9
$SURFU
 70
     6
  9
$SURFV
 70
     6
  9
$UCSNAME
  2

  9
$UCSORG
 10
0.0
 20
0.0
 30
0.0
  9
$UCSXDIR
 10
1.0
 20
0.0
 30
0.0
  9
$UCSYDIR
 10
0.0
 20
1.0
 30
0.0
  9
$PUCSNAME
  2

  9
$PUCSORG
 10
0.0
 20
0.0
 30
0.0
  9
$PUCSXDIR
 10
1.0
 20
0.0
 30
0.0
  9
$PUCSYDIR
 10
0.0
 20
1.0
 30
0.0
  9
$USERI1
 70
     1
  9
$USERI2
 70
     0
  9
$USERI3
 70
     0
  9
$USERI4
 70
     0
  9
$USERI5
 70
     0
  9
$USERR1
 40
0.0
  9
$USERR2
 40
0.0
  9
$USERR3
 40
0.0
  9
$USERR4
 40
0.0
  9
$USERR5
 40
0.0
  9
$WORLDVIEW
 70
     1
  9
$SHADEDGE
 70
     3
  9
$SHADEDIF
 70
    70
  9
$TILEMODE
 70
     1
  9
$MAXACTVP
 70
    16
  9
$PLIMCHECK
 70
     0
  9
$PEXTMIN
 10
1.0000000000000000E+020
 20
1.0000000000000000E+020
 30
1.0000000000000000E+020
  9
$PEXTMAX
 10
-1.0000000000000000E+020
 20
-1.0000000000000000E+020
 30
-1.0000000000000000E+020
  9
$PLIMMIN
 10
0.0
 20
0.0
  9
$PLIMMAX
 10
420.0
 20
297.0
  9
$UNITMODE
 70
     0
  9
$VISRETAIN
 70
     1
  9
$PLINEGEN
 70
     0
  9
$PSLTSCALE
 70
     1
  0
ENDSEC
  0
SECTION
  2
TABLES
  0
TABLE
  2
VPORT
 70
     3
  0
VPORT
  2
*ACTIVE
 70
     0
 10
0.0
 20
0.0
 11
1.0
 21
1.0
 12
-122.69358587552991
 22
16.496612995859039
 13
0.0
 23
0.0
 14
7.0
 24
7.0
 15
7.0
 25
7.0
 16
0.0
 26
0.0
 36
1.0
 17
0.0
 27
0.0
 37
0.0
 40
137.32252886720309
 41
2.1145475372279492
 42
50.0
 43
0.0
 44
0.0
 50
0.0
 51
0.0
 71
     0
 72
   500
 73
     1
 74
     0
 75
     0
 76
     1
 77
     0
 78
     0
  0
ENDTAB
  0
TABLE
  2
LTYPE
 70
    16
  0
LTYPE
  2
CONTINUOUS
 70
     0
  3
Solid line
 72
    65
 73
     0
 40
0.0
  0
LTYPE
  2
CENTER2
 70
     0
  3
___ _ ___ _ ___ _ ___ _ ___ _ ___ _ ___ _ ___ _
 72
    65
 73
     4
 40
1.125
 49
0.75
 49
-0.125
 49
0.125
 49
-0.125
  0
LTYPE
  2
CENTER
 70
     0
  3
____ _ ____ _ ____ _ ____ _ ____ _ ____ _ ____ 
 72
    65
 73
     4
 40
2.0
 49
1.25
 49
-0.25
 49
0.25
 49
-0.25
  0
LTYPE
  2
AMCONSTR
 70
     0
  3
_______________________
 72
    65
 73
     2
 40
9999.0
 49
9999.0
 49
0.0
  0
LTYPE
  2
HIDDEN2
 70
     0
  3
_ _ _ _ _ _ _ _ _ _ _ _ _ _ _ _ _ _ _ _ _ _ _ _
 72
    65
 73
     2
 40
0.1875
 49
0.125
 49
-0.0625
  0
LTYPE
  2
PHANTOM2
 70
     0
  3
___ _ _ ___ _ _ ___ _ _ ___ _ _ ___ _ _ ___ _ _
 72
    65
 73
     6
 40
1.25
 49
0.625
 49
-0.125
 49
0.125
 49
-0.125
 49
0.125
 49
-0.125
  0
LTYPE
  2
HIDDEN
 70
     0
  3
Hidden __ __ __ __ __ __ __ __ __ __ __ __ __ _
 72
    65
 73
     2
 40
9.5249999999999986
 49
6.3499999999999979
 49
-3.174999999999998
  0
LTYPE
  2
AMZIGZAG2
 70
     0
  3
/\/-/\/-/\/-/\/-/\/-/\/
 72
    65
 73
     2
 40
0.4401
 49
0.0001
 49
-0.4400000000000001
  0
LTYPE
  2
ACANSTGB
 70
     0
  3
__ . . __ . .
 72
    65
 73
     6
 40
0.35433070866
 49
0.15748031496
 49
-0.03937007874
 49
0.03937007874
 49
-0.03937007874
 49
0.03937007874
 49
-0.03937007874
  0
LTYPE
  2
ACANSTGL
 70
     0
  3
_ _ _ _ _
 72
    65
 73
     2
 40
0.11811023622
 49
0.07874015748
 49
-0.03937007874
  0
ENDTAB
  0
TABLE
  2
LAYER
 70
     7
  0
LAYER
  2
0
 70
     0
 62
     7
  6
CONTINUOUS
  0
LAYER
  2
240
 70
     0
 62
     4
  6
CONTINUOUS
  0
LAYER
  2
DEFPOINTS
 70
     0
 62
     7
  6
CONTINUOUS
  0
LAYER
  2
245
 70
     0
 62
     2
  6
CENTER2
  0
LAYER
  2
241
 70
     0
 62
   211
  6
CONTINUOUS
  0
LAYER
  2
247
 70
     0
 62
    60
  6
CONTINUOUS
  0
LAYER
  2
250
 70
     0
 62
     7
  6
CONTINUOUS
  0
ENDTAB
  0
TABLE
  2
STYLE
 70
     6
  0
STYLE
  2
STANDARD
 70
     0
 40
0.0
 41
1.0
 50
0.0
 71
     0
 42
3.0
  3
romans.shx
  4
extfont.shx
  0
STYLE
  2
YOKO
 70
     0
 40
0.0
 41
1.0
 50
0.0
 71
     0
 42
3.0
  3
romans.shx
  4
extfont.shx
  0
STYLE
  2
ACJISTS
 70
     0
 40
1.0
 41
1.0
 50
0.0
 71
     0
 42
3.0
  3
amgdt.shx
  4
extfont.shx
  0
STYLE
  2

 70
     1
 40
0.0
 41
1.0
 50
0.0
 71
     0
 42
3.0
  3
ltypeshp.shx
  4

  0
STYLE
  2
ACANSTS
 70
     0
 40
1.0
 41
1.0
 50
0.0
 71
     0
 42
3.0
  3
romans.shx
  4
extfont.shx
  0
STYLE
  2
ACANSGDT
 70
     0
 40
0.0
 41
1.0
 50
0.0
 71
     0
 42
3.0
  3
amgdtans.shx
  4

  0
ENDTAB
  0
TABLE
  2
VIEW
 70
     0
  0
ENDTAB
  0
TABLE
  2
UCS
 70
     0
  0
ENDTAB
  0
TABLE
  2
APPID
 70
    34
  0
APPID
  2
ACAD
 70
     0
  0
APPID
  2
GLOBAL
 70
     0
  0
APPID
  2
DETAIL
 70
     0
  0
APPID
  2
GRPNAME
 70
     0
  0
APPID
  2
GPARA
 70
     0
  0
APPID
  2
MCAD_NO_VIS
 70
     0
  0
APPID
  2
ACAD_TEMP_GRAPHIC
 70
     0
  0
APPID
  2
ACATTRIBSERVICES
 70
     0
  0
APPID
  2
GENIUS_GENSCREG_15
 70
     0
  0
APPID
  2
GENIUS_GENODEF_13
 70
     0
  0
APPID
  2
GENIUS_GENOBJ-N-SDF_13
 70
     0
  0
APPID
  2
GENIUS_GENREC_14
 70
     0
  0
APPID
  2
GENIUS_GENOBJ-N-REC_13
 70
     0
  0
APPID
  2
GENIUS_GENDIMSH_14
 70
     0
  0
APPID
  2
GENIUS_GENOBJ-N-DIM_13
 70
     0
  0
APPID
  2
GENIUS_GENDIM_13
 70
     0
  0
APPID
  2
GENIUS_GENDTOL_13
 70
     0
  0
APPID
  2
GENIUS_GENOLIS_13
 70
     0
  0
APPID
  2
GENIUS_GENOENT_13
 70
     0
  0
APPID
  2
GENIUS_GENOBJ-F-FEM_13
 70
     0
  0
APPID
  2
GENIUS_GENOREF_13
 70
     0
  0
APPID
  2
GENIUS_GEFFEM_13
 70
     0
  0
APPID
  2
GENIUS_GEFFEMP_13
 70
     0
  0
APPID
  2
ITEMNAME
 70
     0
  0
APPID
  2
GENIUS_GENOBJ-N-FIL_13
 70
     0
  0
APPID
  2
HATCH_TYPE
 70
     0
  0
APPID
  2
HATCH_DISPLAY
 70
     0
  0
APPID
  2
HATCH_DISTANCE
 70
     0
  0
APPID
  2
AD_DRAW
 70
     0
  0
APPID
  2
DESIGNERASSEMBLIES
 70
     0
  0
APPID
  2
ACADM_DIM_EDIT
 70
     0
  0
APPID
  2
AMDT_DM_ADJ
 70
     0
  0
APPID
  2
GENIUS_GENFIL_13
 70
     0
  0
APPID
  2
GENIUS_GENOBJ-N-CHA_13
 70
     0
  0
ENDTAB
  0
TABLE
  2
DIMSTYLE
 70
     7
  0
DIMSTYLE
  2
BIGT
 70
     0
  3

  4

  5

  6

  7

 40
1.0
 41
2.2299999999999991
 42
0.5
 43
7.0
 44
1.0
 45
0.0
 46
0.0
 47
0.0
 48
0.01
140
2.799999999999998
141
0.0
142
0.0
143
25.399999999999999
144
1.0
145
0.0
146
1.0
147
1.0
 71
     0
 72
     0
 73
     0
 74
     0
 75
     0
 76
     0
 77
     3
 78
     9
170
     0
171
     2
172
     1
173
     0
174
     1
175
     0
176
   256
177
   256
178
    40
  0
DIMSTYLE
  2
AM_ANSI
 70
     0
  3

  4
mm
  5

  6

  7

 40
1.0
 41
0.1
 42
0.05
 43
0.5
 44
0.1
 45
0.0
 46
0.0
 47
0.1
 48
0.1
140
0.12
141
0.0
142
0.0
143
25.399999999999999
144
1.0
145
0.0
146
0.71
147
0.06
 71
     0
 72
     0
 73
     1
 74
     1
 75
     0
 76
     0
 77
     0
 78
     7
170
     0
171
     2
172
     0
173
     0
174
     0
175
     0
176
   256
177
   256
178
     2
  0
DIMSTYLE
  2
AM_ANSI$3
 70
     0
  3

  4
mm
  5

  6

  7

 40
1.0
 41
0.1
 42
0.05
 43
0.5
 44
0.1
 45
0.0
 46
0.0
 47
0.1
 48
0.1
140
0.12
141
0.0
142
0.0
143
25.399999999999999
144
1.0
145
0.0
146
0.71
147
0.06
 71
     0
 72
     0
 73
     1
 74
     1
 75
     0
 76
     0
 77
     0
 78
     7
170
     0
171
     2
172
     0
173
     0
174
     0
175
     0
176
   256
177
   256
178
     2
  0
DIMSTYLE
  2
AM_ANSI$4
 70
     0
  3

  4
mm
  5

  6

  7

 40
1.0
 41
0.1
 42
0.05
 43
0.5
 44
0.1
 45
0.0
 46
0.0
 47
0.1
 48
0.1
140
0.12
141
0.0
142
0.0
143
25.399999999999999
144
1.0
145
0.0
146
0.71
147
0.06
 71
     0
 72
     0
 73
     1
 74
     1
 75
     0
 76
     0
 77
     0
 78
     7
170
     0
171
     2
172
     0
173
     0
174
     0
175
     0
176
   256
177
   256
178
     2
  0
DIMSTYLE
  2
AM_ANSI$7
 70
     0
  3

  4
mm
  5

  6

  7

 40
1.0
 41
0.1
 42
0.05
 43
0.5
 44
0.1
 45
0.0
 46
0.0
 47
0.1
 48
0.1
140
0.24
141
0.0
142
0.0
143
25.399999999999999
144
1.0
145
0.0
146
0.71
147
0.06
 71
     0
 72
     0
 73
     1
 74
     1
 75
     0
 76
     0
 77
     0
 78
     7
170
     0
171
     2
172
     0
173
     0
174
     0
175
     0
176
   256
177
   256
178
     2
  0
DIMSTYLE
  2
AM_ANSI$SF
 70
     0
  3

  4
mm
  5

  6

  7

 40
1.0
 41
0.1
 42
0.05
 43
0.5
 44
0.1
 45
0.0
 46
0.0
 47
0.1
 48
0.1
140
0.12
141
0.0
142
0.0
143
25.399999999999999
144
1.0
145
0.0
146
0.71
147
0.06
 71
     0
 72
     0
 73
     1
 74
     1
 75
     1
 76
     1
 77
     0
 78
     7
170
     0
171
     2
172
     0
173
     0
174
     0
175
     0
176
   256
177
   256
178
     2
  0
DIMSTYLE
  2
AM_ANSI$SH
 70
     0
  3

  4
mm
  5

  6
GENAXEH
  7

 40
1.0
 41
0.1
 42
0.05
 43
0.5
 44
0.1
 45
0.0
 46
0.0
 47
0.1
 48
0.1
140
0.12
141
0.0
142
0.0
143
25.399999999999999
144
1.0
145
0.0
146
0.71
147
0.06
 71
     0
 72
     0
 73
     1
 74
     1
 75
     1
 76
     1
 77
     0
 78
     7
170
     0
171
     2
172
     0
173
     1
174
     0
175
     0
176
   256
177
   256
178
     2
  0
ENDTAB
  0
ENDSEC
  0
SECTION
  2
BLOCKS
  0
BLOCK
  8
0
  2
$MODEL_SPACE
 70
     0
 10
0.0
 20
0.0
 30
0.0
  3
$MODEL_SPACE
  1

  0
ENDBLK
  5
1AA7
  8
0
  0
BLOCK
 67
     1
  8
0
  2
$PAPER_SPACE
 70
     0
 10
0.0
 20
0.0
 30
0.0
  3
$PAPER_SPACE
  1

  0
ENDBLK
  5
1AA3
 67
     1
  8
0
  0
BLOCK
  8
0
  2
_OPEN
 70
     0
 10
0.0
 20
0.0
 30
0.0
  3
_OPEN
  1

  0
LINE
  5
195B
  8
0
  6
BYBLOCK
 62
     0
 10
-1.0
 20
0.1666666666666666
 30
0.0
 11
0.0
 21
0.0
 31
0.0
  0
LINE
  5
195C
  8
0
  6
BYBLOCK
 62
     0
 10
-1.0
 20
-0.1666666666666666
 30
0.0
 11
0.0
 21
0.0
 31
0.0
  0
LINE
  5
195D
  8
0
  6
BYBLOCK
 62
     0
 10
0.0
 20
0.0
 30
0.0
 11
-1.0
 21
0.0
 31
0.0
  0
ENDBLK
  5
195E
  8
0
  0
BLOCK
  8
0
  2
GENAXEH
 70
     0
 10
0.0
 20
0.0
 30
0.0
  3
GENAXEH
  1

  0
LINE
  5
1986
  8
0
 10
-1.0
 20
0.0
 30
0.0
 11
1.0
 21
0.0
 31
0.0
  0
ENDBLK
  5
1987
  8
0
  0
ENDSEC
  0
SECTION
  2
ENTITIES
  0
TEXT
  5
1461
  8
241
 10
-259.0
 20
49.0
 30
0.0
 40
5.0
  1
ST20-CBY09013-260
  7
YOKO
  0
LINE
  5
1743
  8
250
 10
16.333333333333329
 20
-21.0
 30
0.0
 11
-7.0
 21
-21.0
 31
0.0
  0
LINE
  5
1744
  8
250
 10
-7.0
 20
-21.0
 30
0.0
 11
-9.7455422765516424
 21
-8.6766343806006532
 31
0.0
  0
LINE
  5
1745
  8
250
 10
-9.7455422765516424
 20
-8.6766343806006532
 30
0.0
 11
-10.230478120955009
 21
-6.5
 31
0.0
  0
LINE
  5
1746
  8
250
 10
-9.458982925289515
 20
-8.6127913658001454
 30
0.0
 11
-10.230478120955009
 21
-6.5
 31
0.0
  0
LINE
  5
1747
  8
250
 10
-10.230478120955009
 20
-6.5
 30
0.0
 11
-10.032101627813759
 21
-8.7404773954011592
 31
0.0
  0
LINE
  5
1749
  8
250
 10
0.3535533905932831
 20
-0.3535533905932644
 30
0.0
 11
10.60660171779849
 21
-10.606601717797931
 31
0.0
  0
LINE
  5
174A
  8
250
 10
0.3535533905932829
 20
0.3535533905932645
 30
0.0
 11
10.60660171779849
 21
10.606601717797931
 31
0.0
  0
ARC
  5
174B
  8
250
 10
0.0
 20
0.0
 30
0.0
 40
14.0
 50
324.13607491042171
 51
35.863925089578387
  0
LINE
  5
174F
  8
250
 10
-6.0000000000003411
 20
6.5
 30
0.0
 11
22.0
 21
6.499999999999992
 31
0.0
  0
LINE
  5
1750
  8
250
 10
-6.0000000000004086
 20
-6.5000000000000711
 30
0.0
 11
22.0
 21
-6.500000000000079
 31
0.0
  0
LINE
  5
1751
  8
250
 10
21.0
 20
4.2699999999999889
 30
0.0
 11
21.0
 21
-4.270000000000076
 31
0.0
  0
LINE
  5
1756
  8
250
 10
-0.0000000000000017
 20
0.4999999999999984
 30
0.0
 11
0.0000000000000001
 21
29.0
 31
0.0
  0
TEXT
  5
176F
  8
250
 10
20.000000000000011
 20
-3.800000000000038
 30
0.0
 40
2.799999999999998
  1
\U+220513
 50
90.0
1001
ACAD
1000
MTEXTBEGIN
1070
    73
1070
     1
1070
    44
1040
1.0
1070
    74
1070
     0
1000
MTEXTEND
  0
LINE
  5
1770
  8
250
 10
21.37166666666667
 20
-4.2700000000000786
 30
0.0
 11
21.0
 21
-6.500000000000079
 31
0.0
  0
LINE
  5
1771
  8
250
 10
20.62833333333333
 20
-4.2700000000000786
 30
0.0
 11
21.0
 21
-6.500000000000079
 31
0.0
  0
LINE
  5
1772
  8
250
 10
21.0
 20
-6.500000000000079
 30
0.0
 11
21.0
 21
-4.2700000000000786
 31
0.0
  0
LINE
  5
1773
  8
250
 10
20.62833333333333
 20
4.2699999999999907
 30
0.0
 11
21.0
 21
6.499999999999992
 31
0.0
  0
LINE
  5
1774
  8
250
 10
21.37166666666667
 20
4.2699999999999907
 30
0.0
 11
21.0
 21
6.499999999999992
 31
0.0
  0
LINE
  5
1775
  8
250
 10
21.0
 20
6.499999999999992
 30
0.0
 11
21.0
 21
4.2699999999999907
 31
0.0
  0
TEXT
  5
1776
  8
250
 10
12.999999999999989
 20
-4.5466666666666651
 30
0.0
 40
2.799999999999998
  1
90üï
 50
90.0
1001
ACAD
1000
MTEXTBEGIN
1070
    73
1070
     1
1070
    44
1040
1.0
1070
    74
1070
     0
1000
MTEXTEND
  0
LINE
  5
1777
  8
250
 10
11.062845469261591
 20
7.9610286229255429
 30
0.0
 11
9.8994949366119211
 21
9.899494936611406
 31
0.0
  0
LINE
  5
1778
  8
250
 10
11.62865343409756
 20
8.4431134612814294
 30
0.0
 11
9.8994949366119211
 21
9.899494936611406
 31
0.0
  0
LINE
  5
1779
  8
250
 10
9.8994949366119211
 20
9.899494936611406
 30
0.0
 11
11.34574945167957
 21
8.202071042103487
 31
0.0
  0
LINE
  5
177A
  8
250
 10
11.62865343409756
 20
-8.4431134612814311
 30
0.0
 11
9.8994949366119211
 21
-9.8994949366114042
 31
0.0
  0
LINE
  5
177B
  8
250
 10
11.062845469261591
 20
-7.9610286229255447
 30
0.0
 11
9.8994949366119211
 21
-9.8994949366114042
 31
0.0
  0
LINE
  5
177C
  8
250
 10
9.8994949366119211
 20
-9.8994949366114042
 30
0.0
 11
11.34574945167958
 21
-8.2020710421034888
 31
0.0
  0
TEXT
  5
177D
  8
250
 10
-4.5999999999999988
 20
-19.600000000000001
 30
0.0
 40
2.799999999999998
  1
CBY09013
  7
ACJISTS
1001
ACAD
1000
MTEXTBEGIN
1070
    73
1070
     1
1070
    44
1040
1.0
1070
    74
1070
     0
1000
MTEXTEND
  0
LINE
  5
1BAE
  8
240
 10
-260.0
 20
-8.2679491924310824
 30
0.0
 11
-260.0
 21
8.2679491924310895
 31
0.0
  0
LINE
  5
1BAF
  8
240
 10
-14.00000000000011
 20
5.8071796769724511
 30
0.0
 11
-14.00000000000011
 21
5.75
 31
0.0
  0
LINE
  5
1BB0
  8
240
 10
-14.25000000000011
 20
6.0
 30
0.0
 11
-14.00000000000011
 21
5.75
 31
0.0
1001
GENIUS_GENFIL_13
1070
     0
1040
0.25
1040
0.25
1040
0.2500000000000284
1040
45.00000000000162
1002
{
1002
}
1001
GENIUS_GENODEF_13
1002
{
1000
HIER
1070
     0
1002
}
1002
{
1000
MANEDIT
1070
     0
1002
}
1002
{
1000
NOSEL
1070
     0
1002
}
1002
{
1000
BEHIND
1070
     0
1002
}
1002
{
1000
OTHER
1070
     0
1002
}
1002
{
1000
REACTOR
1002
}
1001
GENIUS_GENOBJ-N-CHA_13
1002
{
1000
OWNER
1000
GEN
1002
}
  0
LINE
  5
1BB1
  8
240
 10
-14.00000000000011
 20
-5.7499999999999991
 30
0.0
 11
-14.00000000000011
 21
-5.8071796769726198
 31
0.0
  0
LINE
  5
1BB2
  8
240
 10
-14.25000000000011
 20
-5.9999999999999991
 30
0.0
 11
-14.00000000000011
 21
-5.7499999999999991
 31
0.0
1001
GENIUS_GENFIL_13
1070
     0
1040
0.25
1040
0.25
1040
0.2500000000000284
1040
45.00000000000162
1002
{
1002
}
1001
GENIUS_GENODEF_13
1002
{
1000
HIER
1070
     0
1002
}
1002
{
1000
MANEDIT
1070
     0
1002
}
1002
{
1000
NOSEL
1070
     0
1002
}
1002
{
1000
BEHIND
1070
     0
1002
}
1002
{
1000
OTHER
1070
     0
1002
}
1002
{
1000
REACTOR
1002
}
1001
GENIUS_GENOBJ-N-CHA_13
1002
{
1000
OWNER
1000
GEN
1002
}
  0
LINE
  5
1BB3
  8
241
  6
CONTINUOUS
 10
-14.00000000000011
 20
5.75
 30
0.0
 11
-14.00000000000011
 21
-5.7499999999999991
 31
0.0
  0
LINE
  5
1CDA
  8
240
  6
CONTINUOUS
 10
0.0
 20
0.0
 30
0.0
 11
-6.5000000000003411
 21
6.5
 31
0.0
  0
LINE
  5
1CDB
  8
245
  6
CENTER2
 10
2.6152947498772501
 20
0.0
 30
0.0
 11
-267.39183362060402
 21
0.0000000000000009
 31
0.0
  0
LINE
  5
1CDC
  8
240
  6
CONTINUOUS
 10
0.0
 20
0.0
 30
0.0
 11
-6.5000000000003411
 21
-6.5
 31
0.0
  0
LINE
  5
1CDD
  8
240
  6
CONTINUOUS
 10
-6.5000000000003411
 20
-6.5
 30
0.0
 11
-13.60000000000012
 21
-6.5
 31
0.0
  0
LINE
  5
1CDE
  8
240
  6
CONTINUOUS
 10
-14.00000000000011
 20
-5.8071796769726198
 30
0.0
 11
-13.60000000000012
 21
-6.5
 31
0.0
  0
LINE
  5
1CDF
  8
240
  6
CONTINUOUS
 10
-6.5000000000003411
 20
6.5
 30
0.0
 11
-13.60000000000012
 21
6.5
 31
0.0
  0
LINE
  5
1CE0
  8
240
  6
CONTINUOUS
 10
-13.60000000000012
 20
6.5
 30
0.0
 11
-14.00000000000011
 21
5.8071796769724511
 31
0.0
  0
LINE
  5
1D2F
  8
240
 10
-140.0
 20
10.0
 30
0.0
 11
-258.0
 21
10.0
 31
0.0
  0
LINE
  5
1D35
  8
240
 10
-140.0
 20
-9.9999999999999982
 30
0.0
 11
-258.0
 21
-9.9999999999999982
 31
0.0
  0
LINE
  5
1D3F
  8
241
 10
-140.0
 20
10.0
 30
0.0
 11
-140.0
 21
-10.0
 31
0.0
  0
LINE
  5
1D56
  8
240
 10
-140.0
 20
-9.9999999999999982
 30
0.0
 11
-139.0
 21
-9.0000000000000036
 31
0.0
  0
LINE
  5
1D5F
  8
240
 10
-140.0
 20
10.0
 30
0.0
 11
-139.0
 21
9.0000000000000053
 31
0.0
  0
LINE
  5
1D78
  8
240
 10
-139.0
 20
9.0000000000000018
 30
0.0
 11
-29.00000000000011
 21
6.0
 31
0.0
  0
LINE
  5
1D79
  8
240
 10
-139.0
 20
-9.0000000000000036
 30
0.0
 11
-29.000000000000121
 21
-6.0000000000000018
 31
0.0
  0
LINE
  5
1D85
  8
241
 10
-258.0
 20
10.0
 30
0.0
 11
-258.0
 21
-10.0
 31
0.0
  0
LINE
  5
1D8F
  8
240
 10
-259.5
 20
9.1339745962155359
 30
0.0
 11
-258.0
 21
9.9999999999999964
 31
0.0
  0
LINE
  5
1D98
  8
240
 10
-259.5
 20
-9.1339745962155305
 30
0.0
 11
-258.0
 21
-9.9999999999999911
 31
0.0
  0
ARC
  5
1D9E
  8
240
 10
-258.99999999999989
 20
-8.2679491924310113
 30
0.0
 40
1.0
 50
180.00000000000401
 51
239.99999999999619
1001
GENIUS_GENOBJ-N-FIL_13
1002
{
1000
OWNER
1000
GEN
1002
}
1001
GENIUS_GENODEF_13
1002
{
1000
HIER
1070
     0
1002
}
1002
{
1000
MANEDIT
1070
     0
1002
}
1002
{
1000
NOSEL
1070
     0
1002
}
1002
{
1000
BEHIND
1070
     0
1002
}
1002
{
1000
OTHER
1070
     0
1002
}
1002
{
1000
REACTOR
1002
}
  0
ARC
  5
1DA0
  8
240
 10
-258.99999999999989
 20
8.2679491924310256
 30
0.0
 40
1.0
 50
120.00000000000411
 51
179.99999999999639
1001
GENIUS_GENODEF_13
1002
{
1000
HIER
1070
     0
1002
}
1002
{
1000
MANEDIT
1070
     0
1002
}
1002
{
1000
NOSEL
1070
     0
1002
}
1002
{
1000
BEHIND
1070
     0
1002
}
1002
{
1000
OTHER
1070
     0
1002
}
1002
{
1000
REACTOR
1002
}
1001
GENIUS_GENOBJ-N-FIL_13
1002
{
1000
OWNER
1000
GEN
1002
}
  0
LINE
  5
1DB2
  8
241
 10
-139.0
 20
9.0000000000000018
 30
0.0
 11
-139.0
 21
-9.0000000000000036
 31
0.0
  0
LINE
  5
1DC3
  8
240
 10
-14.25000000000011
 20
6.0
 30
0.0
 11
-29.00000000000011
 21
6.0
 31
0.0
  0
LINE
  5
1DC9
  8
240
 10
-29.00000000000011
 20
-6.0000000000000018
 30
0.0
 11
-14.25000000000011
 21
-6.0000000000000018
 31
0.0
  0
LINE
  5
1E7C
  8
247
 10
-193.81391922199279
 20
4.8320127707871983
 30
0.0
 11
-193.63610092365309
 21
4.6542059165391487
 31
0.0
  0
LINE
  5
1E7D
  8
247
 10
-194.16268936359461
 20
5.8970346433076504
 30
0.0
 11
-194.07577148639729
 21
6.20016574682327
 31
0.0
  0
LINE
  5
1E7E
  8
247
 10
-194.16268936359461
 20
5.8970346433076504
 30
0.0
 11
-193.91041580402421
 21
5.8970346433076504
 31
0.0
  0
LINE
  5
1E7F
  8
247
 10
-194.07577148639729
 20
6.20016574682327
 30
0.0
 11
-193.1928025838094
 21
6.2001657468232612
 31
0.0
  0
LINE
  5
1E80
  8
247
 10
-193.63610092365309
 20
4.6542059165391487
 30
0.0
 11
-193.1928025838094
 21
6.2001657468232612
 31
0.0
  0
LINE
  5
1E81
  8
247
 10
-194.1050683613972
 20
5.2182054501924098
 30
0.0
 11
-193.91041580402421
 21
5.8970346433076504
 31
0.0
  0
ARC
  5
1E82
  8
247
 10
-194.00249496662181
 20
6.7306337338838089
 30
0.0
 40
0.3182875066995621
 50
1.7101213820643599
 51
163.9983983544486
  0
ARC
  5
1E83
  8
247
 10
-192.8132936116414
 20
5.7909364682588089
 30
0.0
 40
1.288299322128293
 50
110.8721834020772
 51
132.54194893738571
  0
ARC
  5
1E84
  8
247
 10
-192.8132936116414
 20
5.7909364682588089
 30
0.0
 40
1.591427564620969
 50
110.22964506332001
 51
118.57168892371671
  0
LINE
  5
1E85
  8
247
 10
-193.27229324543049
 20
6.9946947080049009
 30
0.0
 11
-193.3635827656941
 21
7.284195898190438
 31
0.0
  0
LINE
  5
1E86
  8
247
 10
-193.12774292194419
 20
7.0402765256318487
 30
0.0
 11
-193.2190324422078
 21
7.3297777158174009
 31
0.0
  0
LINE
  5
1E87
  8
247
 10
-194.71698394977619
 20
5.3936662656220982
 30
0.0
 11
-194.30845276081129
 21
6.8183755856904593
 31
0.0
  0
ARC
  5
1E88
  8
247
 10
-192.8132936116414
 20
5.7909364682588089
 30
0.0
 40
1.591426849365233
 50
270.0
 51
104.7707939660941
  0
ARC
  5
1E89
  8
247
 10
-192.8132936116414
 20
5.7909364682588089
 30
0.0
 40
1.2882957458496069
 50
270.0
 51
104.1274364964119
  0
LINE
  5
1E8A
  8
247
 10
-196.63187805378001
 20
4.6542059165391487
 30
0.0
 11
-195.95388427936601
 21
4.6542059165391487
 31
0.0
  0
LINE
  5
1E8B
  8
247
 10
-198.32901751779119
 20
4.6542059165391487
 30
0.0
 11
-197.93912336141949
 21
5.0441000729108199
 31
0.0
  0
LINE
  5
1E8C
  8
247
 10
-198.80775467121171
 20
4.6542059165391487
 30
0.0
 11
-197.54982010089921
 21
4.6542059165391487
 31
0.0
  0
LINE
  5
1E8D
  8
247
 10
-197.26192114665861
 20
4.7110234740513324
 30
0.0
 11
-196.84882098608631
 21
5.1241236346236798
 31
0.0
  0
LINE
  5
1E8E
  8
247
 10
-198.66577712233121
 20
4.6542059165391487
 30
0.0
 11
-197.80374471564761
 21
5.5162383232228107
 31
0.0
  0
LINE
  5
1E8F
  8
247
 10
-197.70551771409541
 20
5.8588087809326943
 30
0.0
 11
-197.9539343323105
 21
4.9924462404910317
 31
0.0
  0
ARC
  5
1E90
  8
247
 10
-197.88800445758861
 20
5.4423379880341978
 30
0.0
 40
0.4546969681978227
 50
261.6628542111489
 51
66.338192159110037
  0
LINE
  5
1E91
  8
247
 10
-198.7294475068681
 20
4.9272951365423667
 30
0.0
 11
-197.4468680354455
 21
6.2098746079648199
 31
0.0
  0
LINE
  5
1E92
  8
247
 10
-197.6554983087108
 20
4.654205916539131
 30
0.0
 11
-196.79851959135181
 21
5.5111846338981501
 31
0.0
  0
ARC
  5
1E93
  8
247
 10
-197.54982010089921
 20
5.4120225888642777
 30
0.0
 40
0.7578163146972659
 50
270.0
 51
40.329840654167512
  0
LINE
  5
1E94
  8
247
 10
-197.99225791325111
 20
4.6542059165391487
 30
0.0
 11
-196.88000097339341
 21
5.7664628563968474
 31
0.0
  0
LINE
  5
1E95
  8
247
 10
-196.05557647907301
 20
7.0489282590303013
 30
0.0
 11
-195.95996109211021
 21
7.3823633176240513
 31
0.0
  0
LINE
  5
1E96
  8
247
 10
-196.05557647907301
 20
7.0489282590303013
 30
0.0
 11
-195.94519821369221
 21
7.0489282590303013
 31
0.0
  0
LINE
  5
1E97
  8
247
 10
-198.3232906418371
 20
6.3437308151935587
 30
0.0
 11
-197.28465813940679
 21
7.3823633176239394
 31
0.0
  0
LINE
  5
1E98
  8
247
 10
-197.0953451546678
 20
6.5613974887427249
 30
0.0
 11
-196.58808451710181
 21
7.06865812630872
 31
0.0
  0
LINE
  5
1E99
  8
247
 10
-198.96681610309639
 20
7.3823633176240513
 30
0.0
 11
-198.3408128377155
 21
7.3823633176240513
 31
0.0
  0
LINE
  5
1E9A
  8
247
 10
-198.96681610309639
 20
7.0792322141084281
 30
0.0
 11
-198.42773071491291
 21
7.0792322141084281
 31
0.0
  0
LINE
  5
1E9B
  8
247
 10
-198.26130845200251
 20
7.0792322141083988
 30
0.0
 11
-197.95817734848691
 21
7.3823633176240211
 31
0.0
  0
LINE
  5
1E9C
  8
247
 10
-198.1831475850299
 20
7.3823633176240513
 30
0.0
 11
-198.27006546222771
 21
7.0792322141084281
 31
0.0
  0
LINE
  5
1E9D
  8
247
 10
-198.27006546222771
 20
7.0792322141084281
 30
0.0
 11
-198.11238876545031
 21
7.0792322141075523
 31
0.0
  0
LINE
  5
1E9E
  8
247
 10
-198.3408128377155
 20
7.3823633176240513
 30
0.0
 11
-198.42773071491291
 21
7.0792322141084281
 31
0.0
  0
LINE
  5
1E9F
  8
247
 10
-198.1879050201602
 20
6.8158760414106601
 30
0.0
 11
-197.62141774394681
 21
7.3823633176239989
 31
0.0
  0
LINE
  5
1EA0
  8
247
 10
-198.1831475850299
 20
7.3823633176240513
 30
0.0
 11
-197.20526070784541
 21
7.3823633176239394
 31
0.0
  0
LINE
  5
1EA1
  8
247
 10
-197.13419795564329
 20
6.8593042923072778
 30
0.0
 11
-196.75621587210031
 21
7.2372863758503181
 31
0.0
  0
LINE
  5
1EA2
  8
247
 10
-197.29353124179161
 20
7.0367306106990908
 30
0.0
 11
-196.98090376215711
 21
7.3493580903334186
 31
0.0
  0
LINE
  5
1EA3
  8
247
 10
-195.95996109211021
 20
7.3823633176240513
 30
0.0
 11
-195.17160049640711
 21
7.3823633176240513
 31
0.0
  0
LINE
  5
1EA4
  8
247
 10
-196.63187805378001
 20
4.6542059165391487
 30
0.0
 11
-195.94519821369221
 21
7.0489282590303013
 31
0.0
  0
LINE
  5
1EA5
  8
247
 10
-197.35783837913979
 20
7.0713091334499723
 30
0.0
 11
-197.60625091065481
 21
6.2049722894245667
 31
0.0
  0
LINE
  5
1EA6
  8
247
 10
-198.45867626351421
 20
5.8715855889764992
 30
0.0
 11
-197.3975915279614
 21
6.9326703245292487
 31
0.0
  0
ARC
  5
1EA7
  8
247
 10
-197.20213714801821
 20
6.6245470029267777
 30
0.0
 40
0.7578227519989014
 50
287.66957754739798
 51
90.236159842671626
  0
LINE
  5
1EA8
  8
247
 10
-197.5613471700529
 20
5.7586358688175201
 30
0.0
 11
-196.4765989624531
 21
6.84338407641724
 31
0.0
  0
ARC
  5
1EA9
  8
247
 10
-197.5403215047078
 20
6.6548509580049098
 30
0.0
 40
0.4546839594841006
 50
261.6626016879294
 51
66.338155095189776
  0
LINE
  5
1EAA
  8
247
 10
-198.59406188519111
 20
5.399440362759429
 30
0.0
 11
-197.53297268093129
 21
6.4605295670192779
 31
0.0
  0
LINE
  5
1EAB
  8
247
 10
-197.4437943202343
 20
5.5394291140959178
 30
0.0
 11
-196.4498146443029
 21
6.533408790027349
 31
0.0
  0
LINE
  5
1EAC
  8
247
 10
-198.80775467121171
 20
4.6542059165391487
 30
0.0
 11
-198.11238876545031
 21
7.0792322141075523
 31
0.0
  0
ARC
  5
1EAD
  8
247
 10
-192.7677690144734
 20
5.5875749570283393
 30
0.0
 40
2.5780792236328121
 50
155.205177369842
 51
172.79482596205071
  0
LINE
  5
1EAE
  8
247
 10
-195.95388427936601
 20
4.6542059165391487
 30
0.0
 11
-195.17160049640711
 21
7.3823633176240513
 31
0.0
  0
ARC
  5
1EAF
  8
247
 10
-198.96681610309639
 20
5.7909364682588089
 30
0.0
 40
1.591426849365233
 50
90.0
 51
270.0
  0
ARC
  5
1EB0
  8
247
 10
-198.96681610309639
 20
5.7909364682588089
 30
0.0
 40
1.2882957458496069
 50
90.0
 51
270.0
  0
LINE
  5
1EB1
  8
247
 10
-198.96681610309639
 20
4.1995092690671321
 30
0.0
 11
-192.8132936116414
 21
4.1995092690671187
 31
0.0
  0
LINE
  5
1EB2
  8
247
 10
-198.96681610309639
 20
4.5026403647813398
 30
0.0
 11
-192.8132936116414
 21
4.50264036478133
 31
0.0
  0
ARC
  5
1EB3
  8
247
 10
-194.16117874347739
 20
6.3971986752900589
 30
0.0
 40
0.9851660728454588
 50
53.4440121970555
 51
164.00018438768529
  0
ARC
  5
1EB4
  8
247
 10
-194.3784791585164
 20
5.6393709165009991
 30
0.0
 40
0.9851760864257813
 50
163.99975070172769
 51
304.96387329163082
  0
ARC
  5
1EB5
  8
247
 10
-194.41102615558671
 20
5.3059358579072518
 30
0.0
 40
0.3182872831821442
 50
164.00027305718439
 51
344.00027305718447
  0
TEXT
  5
1EB6
  8
247
 10
-190.21456748673361
 20
4.6317048126456308
 30
0.0
 40
2.5
  1
ST20-CBY09013-260
  7
YOKO
 11
-190.21456748673361
 21
4.6317048126456308
 31
0.0
 73
     1
  0
LINE
  5
1EB7
  8
247
 10
-195.20334156728271
 20
6.4328434488871311
 30
0.0
 11
-194.25865441519949
 21
7.3775306009703723
 31
0.0
  0
LINE
  5
1EB8
  8
247
 10
-195.3151433386515
 20
5.9842820729782096
 30
0.0
 11
-193.9417976088819
 21
7.3576278027478601
 31
0.0
  0
LINE
  5
1EB9
  8
247
 10
-195.3628604308343
 20
5.5998053762553299
 30
0.0
 11
-194.3744505572181
 21
6.5882152498716087
 31
0.0
  0
LINE
  5
1EBA
  8
247
 10
-193.92366174400311
 20
7.039004063086499
 30
0.0
 11
-193.69667923946849
 21
7.2659865676212201
 31
0.0
  0
LINE
  5
1EBB
  8
247
 10
-195.30928700583911
 20
5.3166191967104899
 30
0.0
 11
-194.50983705829211
 21
6.1160691442574411
 31
0.0
  0
LINE
  5
1EBC
  8
247
 10
-193.73029894588799
 20
6.8956072566615267
 30
0.0
 11
-193.3583391333064
 21
7.26756706924317
 31
0.0
  0
LINE
  5
1EBD
  8
247
 10
-195.19741762906401
 20
5.0917289689454801
 30
0.0
 11
-194.6452235593662
 21
5.6439230386432602
 31
0.0
  0
LINE
  5
1EBE
  8
247
 10
-193.3091661620339
 20
6.97998043597544
 30
0.0
 11
-193.2776054864525
 21
7.0115411115569488
 31
0.0
  0
LINE
  5
1EBF
  8
247
 10
-195.04160292373001
 20
4.9107840697393303
 30
0.0
 11
-194.7205645223967
 21
5.2318224710726682
 31
0.0
  0
LINE
  5
1EC0
  8
247
 10
-194.05535235016171
 20
5.8970346433076388
 30
0.0
 11
-193.75222124664609
 21
6.2001657468232798
 31
0.0
  0
LINE
  5
1EC1
  8
247
 10
-194.84433122401259
 20
4.7712961649166976
 30
0.0
 11
-194.57964454914
 21
5.0359828397893001
 31
0.0
  0
LINE
  5
1EC2
  8
247
 10
-193.9875340417185
 20
5.628093347210779
 30
0.0
 11
-193.41546164210601
 21
6.2001657468232612
 31
0.0
  0
LINE
  5
1EC3
  8
247
 10
-194.5995489788672
 20
4.6793188055219623
 30
0.0
 11
-194.24366810103751
 21
5.0351996833517516
 31
0.0
  0
LINE
  5
1EC4
  8
247
 10
-194.14028998103129
 20
5.138577803357939
 30
0.0
 11
-193.23867394429811
 21
6.040193840091125
 31
0.0
  0
LINE
  5
1EC5
  8
247
 10
-194.28330540357931
 20
4.6588027762698392
 30
0.0
 11
-193.37405998517579
 21
5.568048194673298
 31
0.0
  0
LINE
  5
1EC6
  8
247
 10
-193.7936268602659
 20
4.8117217150430474
 30
0.0
 11
-193.50944602605341
 21
5.0959025492554799
 31
0.0
  0
LINE
  5
1EC7
  8
247
 10
-200.51074759411361
 20
6.1768314901576904
 30
0.0
 11
-199.35271112499541
 21
7.3348679592758907
 31
0.0
  0
LINE
  5
1EC8
  8
247
 10
-200.55824210650081
 20
5.79257737323036
 30
0.0
 11
-200.20537605054761
 21
6.1454434291835698
 31
0.0
  0
LINE
  5
1EC9
  8
247
 10
-199.32132306402119
 20
7.0294964157099278
 30
0.0
 11
-198.96845700806799
 21
7.3823624716631322
 31
0.0
  0
LINE
  5
1ECA
  8
247
 10
-200.52864137717191
 20
5.4854184980190466
 30
0.0
 11
-200.25472421992481
 21
5.7593356552662049
 31
0.0
  0
LINE
  5
1ECB
  8
247
 10
-198.93482766108261
 20
7.0792322141084281
 30
0.0
 11
-198.6316965575671
 21
7.3823633176240513
 31
0.0
  0
LINE
  5
1ECC
  8
247
 10
-200.4536866938648
 20
5.2236135767861667
 30
0.0
 11
-200.2130128488804
 21
5.4642874217705302
 31
0.0
  0
LINE
  5
1ECD
  8
247
 10
-198.59806805654239
 20
7.0792322141084192
 30
0.0
 11
-198.35925497735511
 21
7.31804529329575
 31
0.0
  0
LINE
  5
1ECE
  8
247
 10
-200.3451366510221
 20
4.9954040150888117
 30
0.0
 11
-200.1213106507289
 21
5.2192300153819211
 31
0.0
  0
LINE
  5
1ECF
  8
247
 10
-200.20839514469159
 20
4.7953859168791801
 30
0.0
 11
-199.9924490162405
 21
5.0113320453302306
 31
0.0
  0
LINE
  5
1ED0
  8
247
 10
-200.0458444603002
 20
4.6211769967303598
 30
0.0
 11
-199.83128290994989
 21
4.835738547080779
 31
0.0
  0
LINE
  5
1ED1
  8
247
 10
-199.8578931863043
 20
4.4723686661862869
 30
0.0
 11
-199.6386021579618
 21
4.6916596945286724
 31
0.0
  0
LINE
  5
1ED2
  8
247
 10
-199.643133225713
 20
4.3503690222375289
 30
0.0
 11
-199.41163309486129
 21
4.5818691530891904
 31
0.0
  0
LINE
  5
1ED3
  8
247
 10
-199.39777127233481
 20
4.2589713710756589
 30
0.0
 11
-199.14211913648191
 21
4.5146235069283991
 31
0.0
  0
LINE
  5
1ED4
  8
247
 10
-199.1136821100587
 20
4.2063009288114808
 30
0.0
 11
-198.81734267408899
 21
4.50264036478133
 31
0.0
  0
LINE
  5
1ED5
  8
247
 10
-198.78371416526301
 20
4.1995092690671321
 30
0.0
 11
-198.48058306954891
 21
4.50264036478133
 31
0.0
  0
LINE
  5
1ED6
  8
247
 10
-198.44695456072299
 20
4.1995092690671321
 30
0.0
 11
-198.14382346500881
 21
4.50264036478133
 31
0.0
  0
LINE
  5
1ED7
  8
247
 10
-198.11019495618291
 20
4.1995092690671401
 30
0.0
 11
-197.8070638604687
 21
4.50264036478133
 31
0.0
  0
LINE
  5
1ED8
  8
247
 10
-197.7734353516428
 20
4.1995092690671321
 30
0.0
 11
-197.4703042559286
 21
4.50264036478133
 31
0.0
  0
LINE
  5
1ED9
  8
247
 10
-197.43667574710261
 20
4.1995092690671321
 30
0.0
 11
-197.13354465138849
 21
4.50264036478133
 31
0.0
  0
LINE
  5
1EDA
  8
247
 10
-197.09991614256271
 20
4.1995092690671187
 30
0.0
 11
-196.79678504684841
 21
4.5026403647813398
 31
0.0
  0
LINE
  5
1EDB
  8
247
 10
-196.7631565380226
 20
4.1995092690671187
 30
0.0
 11
-196.46002544230831
 21
4.5026403647813398
 31
0.0
  0
LINE
  5
1EDC
  8
247
 10
-196.42639693348241
 20
4.1995092690671187
 30
0.0
 11
-196.1232658377682
 21
4.5026403647813398
 31
0.0
  0
LINE
  5
1EDD
  8
247
 10
-196.0896373289423
 20
4.1995092690671187
 30
0.0
 11
-195.78650623322821
 21
4.50264036478133
 31
0.0
  0
LINE
  5
1EDE
  8
247
 10
-193.1567815490707
 20
7.1323650489387944
 30
0.0
 11
-192.90970643629481
 21
7.379440161714661
 31
0.0
  0
LINE
  5
1EDF
  8
247
 10
-195.75287772440231
 20
4.1995092690671187
 30
0.0
 11
-195.4497466286881
 21
4.50264036478133
 31
0.0
  0
LINE
  5
1EE0
  8
247
 10
-192.8746150215583
 20
7.0777719719110674
 30
0.0
 11
-192.58629607688081
 21
7.3660909165886004
 31
0.0
  0
LINE
  5
1EE1
  8
247
 10
-195.4161181198622
 20
4.1995092690671187
 30
0.0
 11
-195.11298702414791
 21
4.50264036478133
 31
0.0
  0
LINE
  5
1EE2
  8
247
 10
-192.56128398772071
 20
7.0543434012085688
 30
0.0
 11
-192.3137119175654
 21
7.3019154713639489
 31
0.0
  0
LINE
  5
1EE3
  8
247
 10
-195.0793585153221
 20
4.1995092690671187
 30
0.0
 11
-194.77622741960781
 21
4.50264036478133
 31
0.0
  0
LINE
  5
1EE4
  8
247
 10
-192.30440388657911
 20
6.974463897810069
 30
0.0
 11
-192.0770503090198
 21
7.2018174753693911
 31
0.0
  0
LINE
  5
1EE5
  8
247
 10
-194.74259891078191
 20
4.1995092690671116
 30
0.0
 11
-194.43946781506779
 21
4.50264036478133
 31
0.0
  0
LINE
  5
1EE6
  8
247
 10
-192.08707202699171
 20
6.8550361528574717
 30
0.0
 11
-191.8696773569977
 21
7.0724308228514117
 31
0.0
  0
LINE
  5
1EE7
  8
247
 10
-194.40583930624189
 20
4.1995092690671116
 30
0.0
 11
-194.10270821052771
 21
4.5026403647813193
 31
0.0
  0
LINE
  5
1EE8
  8
247
 10
-191.90289037294531
 20
6.7024582023637791
 30
0.0
 11
-191.68854428136271
 21
6.9168042939462788
 31
0.0
  0
LINE
  5
1EE9
  8
247
 10
-194.06907970170181
 20
4.1995092690671187
 30
0.0
 11
-193.7659486059876
 21
4.5026403647813193
 31
0.0
  0
LINE
  5
1EEA
  8
247
 10
-191.75010205807459
 20
6.5184869126943381
 30
0.0
 11
-191.5327484865258
 21
6.7358404842431003
 31
0.0
  0
LINE
  5
1EEB
  8
247
 10
-193.7323200971617
 20
4.1995092690671116
 30
0.0
 11
-193.4291890014475
 21
4.50264036478133
 31
0.0
  0
LINE
  5
1EEC
  8
247
 10
-191.63043967485061
 20
6.3013896913781302
 30
0.0
 11
-191.4031803027915
 21
6.5286490634372987
 31
0.0
  0
LINE
  5
1EED
  8
247
 10
-193.3955604926216
 20
4.1995092690671187
 30
0.0
 11
-193.09242939690739
 21
4.50264036478133
 31
0.0
  0
LINE
  5
1EEE
  8
247
 10
-191.55025987622139
 20
6.0448098854673411
 30
0.0
 11
-191.3028712325642
 21
6.2921985291245104
 31
0.0
  0
LINE
  5
1EEF
  8
247
 10
-193.05880088808149
 20
4.1995092690671187
 30
0.0
 11
-192.75431887384369
 21
4.5039912833049476
 31
0.0
  0
LINE
  5
1EF0
  8
247
 10
-191.5263484266876
 20
5.7319617304610802
 30
0.0
 11
-191.23842201444671
 21
6.0198881427018387
 31
0.0
  0
LINE
  5
1EF1
  8
247
 10
-192.71926041865359
 20
4.2022901339549392
 30
0.0
 11
-192.3212393565633
 21
4.6003111960451468
 31
0.0
  0
LINE
  5
1EF2
  8
247
 10
-191.62266833942769
 20
5.2988822131807867
 30
0.0
 11
-191.22464727733751
 21
5.6969032752710014
 31
0.0
  0
LINE
  5
1EF3
  8
247
 10
-192.30034975633041
 20
4.2844411917380887
 30
0.0
 11
-191.3067983351207
 21
5.2779926129477523
 31
0.0
  0
LINE
  5
1EF4
  8
247
 10
-195.96894343913709
 20
7.3510395997331592
 30
0.0
 11
-195.93761972124631
 21
7.382363317624038
 31
0.0
  0
LINE
  5
1EF5
  8
247
 10
-195.94958153357391
 20
7.0336419007562121
 30
0.0
 11
-195.6008601167062
 21
7.382363317624038
 31
0.0
  0
LINE
  5
1EF6
  8
247
 10
-196.08496811269501
 20
6.5614957170951316
 30
0.0
 11
-195.26410051216601
 21
7.3823633176240291
 31
0.0
  0
LINE
  5
1EF7
  8
247
 10
-196.220354691816
 20
6.0893495334340377
 30
0.0
 11
-195.26979819709831
 21
7.0399060281517674
 31
0.0
  0
LINE
  5
1EF8
  8
247
 10
-196.35574127093699
 20
5.6172033497729599
 30
0.0
 11
-195.4051829286314
 21
6.5677616920785367
 31
0.0
  0
LINE
  5
1EF9
  8
247
 10
-196.49112785005789
 20
5.1450571661118811
 30
0.0
 11
-195.5405676601645
 21
6.0956173560053202
 31
0.0
  0
LINE
  5
1EFA
  8
247
 10
-196.626514429179
 20
4.6729109824508006
 30
0.0
 11
-195.67595239169771
 21
5.6234730199320877
 31
0.0
  0
LINE
  5
1EFB
  8
247
 10
-196.30845989055049
 20
4.6542059165391487
 30
0.0
 11
-195.8113371232308
 21
5.1513286838588579
 31
0.0
  0
LINE
  5
1EFC
  8
247
 10
-195.9717002860103
 20
4.6542059165391487
 30
0.0
 11
-195.94672185476389
 21
4.6791843477856503
 31
0.0
  0
LINE
  5
1EFD
  8
247
 10
-195.95996109211021
 20
7.3823633176240513
 30
0.0
 11
-196.05557647907301
 21
7.0489282590303013
 31
0.0
  0
LINE
  5
1EFE
  8
247
 10
-196.05557647907301
 20
7.0489282590303013
 30
0.0
 11
-195.94519821369221
 21
7.0489282590303013
 31
0.0
  0
LINE
  5
1EFF
  8
247
 10
-195.94519821369221
 20
7.0489282590303013
 30
0.0
 11
-196.63187805378001
 21
4.6542059165391487
 31
0.0
  0
LINE
  5
1F00
  8
247
 10
-196.63187805378001
 20
4.6542059165391487
 30
0.0
 11
-195.95388427936601
 21
4.6542059165391487
 31
0.0
  0
LINE
  5
1F01
  8
247
 10
-195.95388427936601
 20
4.6542059165391487
 30
0.0
 11
-195.17160049640711
 21
7.3823633176240513
 31
0.0
  0
LINE
  5
1F02
  8
247
 10
-195.17160049640711
 20
7.3823633176240513
 30
0.0
 11
-195.95996109211021
 21
7.3823633176240513
 31
0.0
  0
LINE
  5
1F03
  8
247
 10
-195.95996109211021
 20
7.3823633176240513
 30
0.0
 11
-196.05557647907301
 21
7.0489282590303013
 31
0.0
1001
HATCH_DISTANCE
1040
1.0
1001
HATCH_DISPLAY
1070
     0
1001
HATCH_TYPE
1070
     7
  0
LINE
  5
1F04
  8
247
 10
-196.05557647907301
 20
7.0489282590303013
 30
0.0
 11
-195.94519821369221
 21
7.0489282590303013
 31
0.0
1001
HATCH_DISTANCE
1040
1.0
1001
HATCH_DISPLAY
1070
     0
1001
HATCH_TYPE
1070
     7
  0
LINE
  5
1F05
  8
247
 10
-195.94519821369221
 20
7.0489282590303013
 30
0.0
 11
-196.63187805378001
 21
4.6542059165391487
 31
0.0
1001
HATCH_DISTANCE
1040
1.0
1001
HATCH_DISPLAY
1070
     0
1001
HATCH_TYPE
1070
     7
  0
LINE
  5
1F06
  8
247
 10
-196.63187805378001
 20
4.6542059165391487
 30
0.0
 11
-195.95388427936601
 21
4.6542059165391487
 31
0.0
1001
HATCH_DISTANCE
1040
1.0
1001
HATCH_DISPLAY
1070
     0
1001
HATCH_TYPE
1070
     7
  0
LINE
  5
1F07
  8
247
 10
-195.95388427936601
 20
4.6542059165391487
 30
0.0
 11
-195.17160049640711
 21
7.3823633176240513
 31
0.0
1001
HATCH_DISTANCE
1040
1.0
1001
HATCH_DISPLAY
1070
     0
1001
HATCH_TYPE
1070
     7
  0
LINE
  5
1F08
  8
247
 10
-195.17160049640711
 20
7.3823633176240513
 30
0.0
 11
-195.95996109211021
 21
7.3823633176240513
 31
0.0
1001
HATCH_DISTANCE
1040
1.0
1001
HATCH_DISPLAY
1070
     0
1001
HATCH_TYPE
1070
     7
  0
LINE
  5
1F09
  8
247
 10
-193.12774292194419
 20
7.0402765256318576
 30
0.0
 11
-193.2190324422078
 21
7.3297777158174098
 31
0.0
  0
LINE
  5
1F0A
  8
247
 10
-193.2190324422078
 20
7.3297777158174098
 30
0.0
 11
-193.2190324422078
 21
7.3297777158174098
 31
0.0
  0
LINE
  5
1F0B
  8
247
 10
-193.2190324422078
 20
7.3297777158174098
 30
0.0
 11
-193.12774292194419
 21
7.0402765256318576
 31
0.0
  0
LINE
  5
1F0C
  8
247
 10
-193.12774292194419
 20
7.0402765256318576
 30
0.0
 11
-193.12774292194419
 21
7.0402765256318576
 31
0.0
  0
LINE
  5
1F0D
  8
247
 10
-193.12774292194419
 20
7.0402765256318576
 30
0.0
 11
-193.2190324422078
 21
7.3297777158174098
 31
0.0
1001
HATCH_DISTANCE
1040
1.0
1001
HATCH_DISPLAY
1070
     0
1001
HATCH_TYPE
1070
     7
  0
LINE
  5
1F0E
  8
247
 10
-193.2190324422078
 20
7.3297777158174098
 30
0.0
 11
-193.2190324422078
 21
7.3297777158174098
 31
0.0
1001
HATCH_DISTANCE
1040
1.0
1001
HATCH_DISPLAY
1070
     0
1001
HATCH_TYPE
1070
     7
  0
LINE
  5
1F0F
  8
247
 10
-193.2190324422078
 20
7.3297777158174098
 30
0.0
 11
-193.12774292194419
 21
7.0402765256318576
 31
0.0
1001
HATCH_DISTANCE
1040
1.0
1001
HATCH_DISPLAY
1070
     0
1001
HATCH_TYPE
1070
     7
  0
LINE
  5
1F10
  8
247
 10
-193.12774292194419
 20
7.0402765256318576
 30
0.0
 11
-193.12774292194419
 21
7.0402765256318576
 31
0.0
1001
HATCH_DISTANCE
1040
1.0
1001
HATCH_DISPLAY
1070
     0
1001
HATCH_TYPE
1070
     7
  0
LINE
  5
1F11
  8
247
 10
-193.12774292194419
 20
7.0402765256318576
 30
0.0
 11
-193.2190324422078
 21
7.3297777158174098
 31
0.0
  0
LINE
  5
1F12
  8
247
 10
-193.2190324422078
 20
7.3297777158174098
 30
0.0
 11
-193.2190324422078
 21
7.3297777158174098
 31
0.0
  0
LINE
  5
1F13
  8
247
 10
-193.2190324422078
 20
7.3297777158174098
 30
0.0
 11
-193.12774292194419
 21
7.0402765256318576
 31
0.0
  0
LINE
  5
1F14
  8
247
 10
-193.12774292194419
 20
7.0402765256318576
 30
0.0
 11
-193.12774292194419
 21
7.0402765256318576
 31
0.0
  0
LINE
  5
1F15
  8
247
 10
-193.12774292194419
 20
7.0402765256318576
 30
0.0
 11
-193.2190324422078
 21
7.3297777158174098
 31
0.0
1001
HATCH_DISTANCE
1040
1.0
1001
HATCH_DISPLAY
1070
     0
1001
HATCH_TYPE
1070
     7
  0
LINE
  5
1F16
  8
247
 10
-193.2190324422078
 20
7.3297777158174098
 30
0.0
 11
-193.2190324422078
 21
7.3297777158174098
 31
0.0
1001
HATCH_DISTANCE
1040
1.0
1001
HATCH_DISPLAY
1070
     0
1001
HATCH_TYPE
1070
     7
  0
LINE
  5
1F17
  8
247
 10
-193.2190324422078
 20
7.3297777158174098
 30
0.0
 11
-193.12774292194419
 21
7.0402765256318576
 31
0.0
1001
HATCH_DISTANCE
1040
1.0
1001
HATCH_DISPLAY
1070
     0
1001
HATCH_TYPE
1070
     7
  0
LINE
  5
1F18
  8
247
 10
-193.12774292194419
 20
7.0402765256318576
 30
0.0
 11
-193.12774292194419
 21
7.0402765256318576
 31
0.0
1001
HATCH_DISTANCE
1040
1.0
1001
HATCH_DISPLAY
1070
     0
1001
HATCH_TYPE
1070
     7
  0
LINE
  5
1F72
  8
250
 10
-260.0
 20
8.7679491924310256
 30
0.0
 11
-260.0
 21
29.0
 31
0.0
  0
LINE
  5
1F73
  8
250
 10
-140.0
 20
10.5
 30
0.0
 11
-140.0
 21
29.0
 31
0.0
  0
LINE
  5
1F74
  8
250
 10
-257.76999999999998
 20
28.0
 30
0.0
 11
-142.22999999999999
 21
28.0
 31
0.0
  0
LINE
  5
1F78
  8
250
 10
-260.0
 20
8.7679491924310256
 30
0.0
 11
-260.0
 21
36.0
 31
0.0
  0
LINE
  5
1F79
  8
250
 10
0.0
 20
0.5
 30
0.0
 11
0.0000000000000022
 21
36.0
 31
0.0
  0
LINE
  5
1F7A
  8
250
 10
-257.76999999999998
 20
35.0
 30
0.0
 11
-2.229999999999996
 21
35.0
 31
0.0
  0
LINE
  5
1F7E
  8
241
 10
-0.213847
 20
0.272594
 30
0.0
 11
-0.273259
 21
0.266341
 31
0.0
  0
LINE
  5
1F7F
  8
241
 10
-0.273259
 20
0.266341
 30
0.0
 11
-0.3326659999999999
 21
0.2601179999999999
 31
0.0
  0
LINE
  5
1F80
  8
241
 10
-0.3326659999999999
 20
0.2601179999999999
 30
0.0
 11
-0.392067
 21
0.253952
 31
0.0
  0
LINE
  5
1F81
  8
241
 10
-0.392067
 20
0.253952
 30
0.0
 11
-0.451457
 21
0.247872
 31
0.0
  0
LINE
  5
1F82
  8
241
 10
-0.451457
 20
0.247872
 30
0.0
 11
-0.510834
 21
0.241908
 31
0.0
  0
LINE
  5
1F83
  8
241
 10
-0.510834
 20
0.241908
 30
0.0
 11
-0.5701920000000001
 21
0.236088
 31
0.0
  0
LINE
  5
1F84
  8
241
 10
-0.5701920000000001
 20
0.236088
 30
0.0
 11
-0.6295300000000002
 21
0.230441
 31
0.0
  0
LINE
  5
1F85
  8
241
 10
-0.6295300000000002
 20
0.230441
 30
0.0
 11
-0.688843
 21
0.224996
 31
0.0
  0
LINE
  5
1F86
  8
241
 10
-0.688843
 20
0.224996
 30
0.0
 11
-0.7481290000000002
 21
0.219781
 31
0.0
  0
LINE
  5
1F87
  8
241
 10
-0.7481290000000002
 20
0.219781
 30
0.0
 11
-0.8073829999999999
 21
0.214826
 31
0.0
  0
LINE
  5
1F88
  8
241
 10
-0.8073829999999999
 20
0.214826
 30
0.0
 11
-0.8666020000000001
 21
0.210159
 31
0.0
  0
LINE
  5
1F89
  8
241
 10
-0.8666020000000001
 20
0.210159
 30
0.0
 11
-0.925782
 21
0.205809
 31
0.0
  0
LINE
  5
1F8A
  8
241
 10
-0.925782
 20
0.205809
 30
0.0
 11
-0.9849209999999999
 21
0.201806
 31
0.0
  0
LINE
  5
1F8B
  8
241
 10
-0.9849209999999999
 20
0.201806
 30
0.0
 11
-1.0440100000000001
 21
0.198177
 31
0.0
  0
LINE
  5
1F8C
  8
241
 10
-1.0440100000000001
 20
0.198177
 30
0.0
 11
-1.103059999999999
 21
0.194952
 31
0.0
  0
LINE
  5
1F8D
  8
241
 10
-1.103059999999999
 20
0.194952
 30
0.0
 11
-1.16205
 21
0.192159
 31
0.0
  0
LINE
  5
1F8E
  8
241
 10
-1.16205
 20
0.192159
 30
0.0
 11
-1.22099
 21
0.189827
 31
0.0
  0
LINE
  5
1F8F
  8
241
 10
-1.22099
 20
0.189827
 30
0.0
 11
-1.2798599999999991
 21
0.187986
 31
0.0
  0
LINE
  5
1F90
  8
241
 10
-1.2798599999999991
 20
0.187986
 30
0.0
 11
-1.338679999999999
 21
0.186663
 31
0.0
  0
LINE
  5
1F91
  8
241
 10
-1.338679999999999
 20
0.186663
 30
0.0
 11
-1.3974200000000001
 21
0.185889
 31
0.0
  0
LINE
  5
1F92
  8
241
 10
-1.3974200000000001
 20
0.185889
 30
0.0
 11
-1.4560999999999991
 21
0.185691
 31
0.0
  0
LINE
  5
1F93
  8
241
 10
-1.4560999999999991
 20
0.185691
 30
0.0
 11
-1.514699999999999
 21
0.186098
 31
0.0
  0
LINE
  5
1F94
  8
241
 10
-1.514699999999999
 20
0.186098
 30
0.0
 11
-1.573229999999999
 21
0.18714
 31
0.0
  0
LINE
  5
1F95
  8
241
 10
-1.573229999999999
 20
0.18714
 30
0.0
 11
-1.63168
 21
0.188844
 31
0.0
  0
LINE
  5
1F96
  8
241
 10
-1.63168
 20
0.188844
 30
0.0
 11
-1.69004
 21
0.191241
 31
0.0
  0
LINE
  5
1F97
  8
241
 10
-1.69004
 20
0.191241
 30
0.0
 11
-1.7483200000000001
 21
0.194358
 31
0.0
  0
LINE
  5
1F98
  8
241
 10
-1.7483200000000001
 20
0.194358
 30
0.0
 11
-1.8064999999999991
 21
0.198225
 31
0.0
  0
LINE
  5
1F99
  8
241
 10
-1.8064999999999991
 20
0.198225
 30
0.0
 11
-1.86459
 21
0.202871
 31
0.0
  0
LINE
  5
1F9A
  8
241
 10
-1.86459
 20
0.202871
 30
0.0
 11
-1.9225799999999991
 21
0.208324
 31
0.0
  0
LINE
  5
1F9B
  8
241
 10
-1.9225799999999991
 20
0.208324
 30
0.0
 11
-1.98047
 21
0.214604
 31
0.0
  0
LINE
  5
1F9C
  8
241
 10
-1.98047
 20
0.214604
 30
0.0
 11
-2.0382599999999989
 21
0.221708
 31
0.0
  0
LINE
  5
1F9D
  8
241
 10
-2.0382599999999989
 20
0.221708
 30
0.0
 11
-2.0959400000000001
 21
0.229625
 31
0.0
  0
LINE
  5
1F9E
  8
241
 10
-2.0959400000000001
 20
0.229625
 30
0.0
 11
-2.1535099999999989
 21
0.238348
 31
0.0
  0
LINE
  5
1F9F
  8
241
 10
-2.1535099999999989
 20
0.238348
 30
0.0
 11
-2.2109700000000001
 21
0.247867
 31
0.0
  0
LINE
  5
1FA0
  8
241
 10
-2.2109700000000001
 20
0.247867
 30
0.0
 11
-2.26831
 21
0.258172
 31
0.0
  0
LINE
  5
1FA1
  8
241
 10
-2.26831
 20
0.258172
 30
0.0
 11
-2.3255400000000002
 21
0.269254
 31
0.0
  0
LINE
  5
1FA2
  8
241
 10
-2.3255400000000002
 20
0.269254
 30
0.0
 11
-2.3826399999999999
 21
0.281105
 31
0.0
  0
LINE
  5
1FA3
  8
241
 10
-2.3826399999999999
 20
0.281105
 30
0.0
 11
-2.4396200000000001
 21
0.293715
 31
0.0
  0
LINE
  5
1FA4
  8
241
 10
-2.4396200000000001
 20
0.293715
 30
0.0
 11
-2.49648
 21
0.307075
 31
0.0
  0
LINE
  5
1FA5
  8
241
 10
-2.49648
 20
0.307075
 30
0.0
 11
-2.5532099999999991
 21
0.321176
 31
0.0
  0
LINE
  5
1FA6
  8
241
 10
-2.5532099999999991
 20
0.321176
 30
0.0
 11
-2.609799999999999
 21
0.336009
 31
0.0
  0
LINE
  5
1FA7
  8
241
 10
-2.609799999999999
 20
0.336009
 30
0.0
 11
-2.666269999999999
 21
0.351564
 31
0.0
  0
LINE
  5
1FA8
  8
241
 10
-2.666269999999999
 20
0.351564
 30
0.0
 11
-2.7225899999999998
 21
0.367833
 31
0.0
  0
LINE
  5
1FA9
  8
241
 10
-2.7225899999999998
 20
0.367833
 30
0.0
 11
-2.7787799999999989
 21
0.384806
 31
0.0
  0
LINE
  5
1FAA
  8
241
 10
-2.7787799999999989
 20
0.384806
 30
0.0
 11
-2.8348200000000001
 21
0.402475
 31
0.0
  0
LINE
  5
1FAB
  8
241
 10
-2.8348200000000001
 20
0.402475
 30
0.0
 11
-2.8907199999999991
 21
0.420829
 31
0.0
  0
LINE
  5
1FAC
  8
241
 10
-2.8907199999999991
 20
0.420829
 30
0.0
 11
-2.9464700000000001
 21
0.43986
 31
0.0
  0
LINE
  5
1FAD
  8
241
 10
-2.9464700000000001
 20
0.43986
 30
0.0
 11
-3.0020699999999998
 21
0.459559
 31
0.0
  0
LINE
  5
1FAE
  8
241
 10
-3.0020699999999998
 20
0.459559
 30
0.0
 11
-3.0575199999999998
 21
0.4799160000000001
 31
0.0
  0
LINE
  5
1FAF
  8
241
 10
-3.0575199999999998
 20
0.4799160000000001
 30
0.0
 11
-3.1128099999999992
 21
0.5009230000000001
 31
0.0
  0
LINE
  5
1FB0
  8
241
 10
-3.1128099999999992
 20
0.5009230000000001
 30
0.0
 11
-3.1679400000000002
 21
0.52257
 31
0.0
  0
LINE
  5
1FB1
  8
241
 10
-3.1679400000000002
 20
0.52257
 30
0.0
 11
-3.2229099999999988
 21
0.544848
 31
0.0
  0
LINE
  5
1FB2
  8
241
 10
-3.2229099999999988
 20
0.544848
 30
0.0
 11
-3.277709999999999
 21
0.567748
 31
0.0
  0
LINE
  5
1FB3
  8
241
 10
-3.277709999999999
 20
0.567748
 30
0.0
 11
-3.332349999999999
 21
0.5912609999999999
 31
0.0
  0
LINE
  5
1FB4
  8
241
 10
-3.332349999999999
 20
0.5912609999999999
 30
0.0
 11
-3.3868199999999988
 21
0.615378
 31
0.0
  0
LINE
  5
1FB5
  8
241
 10
-3.3868199999999988
 20
0.615378
 30
0.0
 11
-3.4411199999999988
 21
0.6400890000000001
 31
0.0
  0
LINE
  5
1FB6
  8
241
 10
-3.4411199999999988
 20
0.6400890000000001
 30
0.0
 11
-3.4952399999999999
 21
0.6653850000000001
 31
0.0
  0
LINE
  5
1FB7
  8
241
 10
-3.4952399999999999
 20
0.6653850000000001
 30
0.0
 11
-3.5491799999999998
 21
0.6912580000000002
 31
0.0
  0
LINE
  5
1FB8
  8
241
 10
-3.5491799999999998
 20
0.6912580000000002
 30
0.0
 11
-3.602949999999999
 21
0.717698
 31
0.0
  0
LINE
  5
1FB9
  8
241
 10
-3.602949999999999
 20
0.717698
 30
0.0
 11
-3.6565300000000001
 21
0.7446950000000001
 31
0.0
  0
LINE
  5
1FBA
  8
241
 10
-3.6565300000000001
 20
0.7446950000000001
 30
0.0
 11
-3.709919999999999
 21
0.772242
 31
0.0
  0
LINE
  5
1FBB
  8
241
 10
-3.709919999999999
 20
0.772242
 30
0.0
 11
-3.7631299999999999
 21
0.800328
 31
0.0
  0
LINE
  5
1FBC
  8
241
 10
-3.7631299999999999
 20
0.800328
 30
0.0
 11
-3.8161399999999999
 21
0.828944
 31
0.0
  0
LINE
  5
1FBD
  8
241
 10
-3.8161399999999999
 20
0.828944
 30
0.0
 11
-3.8689599999999991
 21
0.8580819999999999
 31
0.0
  0
LINE
  5
1FBE
  8
241
 10
-3.8689599999999991
 20
0.8580819999999999
 30
0.0
 11
-3.9215800000000001
 21
0.8877319999999999
 31
0.0
  0
LINE
  5
1FBF
  8
241
 10
-3.9215800000000001
 20
0.8877319999999999
 30
0.0
 11
-3.9740000000000002
 21
0.917885
 31
0.0
  0
LINE
  5
1FC0
  8
241
 10
-3.9740000000000002
 20
0.917885
 30
0.0
 11
-4.0262199999999986
 21
0.9485319999999999
 31
0.0
  0
LINE
  5
1FC1
  8
241
 10
-4.0262199999999986
 20
0.9485319999999999
 30
0.0
 11
-4.0782400000000001
 21
0.979664
 31
0.0
  0
LINE
  5
1FC2
  8
241
 10
-4.0782400000000001
 20
0.979664
 30
0.0
 11
-4.1300400000000002
 21
1.0112699999999999
 31
0.0
  0
LINE
  5
1FC3
  8
241
 10
-4.1300400000000002
 20
1.0112699999999999
 30
0.0
 11
-4.1816399999999989
 21
1.0433499999999989
 31
0.0
  0
LINE
  5
1FC4
  8
241
 10
-4.1816399999999989
 20
1.0433499999999989
 30
0.0
 11
-4.2330199999999989
 21
1.0758799999999991
 31
0.0
  0
LINE
  5
1FC5
  8
241
 10
-4.2330199999999989
 20
1.0758799999999991
 30
0.0
 11
-4.2841899999999988
 21
1.1088599999999991
 31
0.0
  0
LINE
  5
1FC6
  8
241
 10
-4.2841899999999988
 20
1.1088599999999991
 30
0.0
 11
-4.3351300000000004
 21
1.1422699999999999
 31
0.0
  0
LINE
  5
1FC7
  8
241
 10
-4.3351300000000004
 20
1.1422699999999999
 30
0.0
 11
-4.3858600000000001
 21
1.1761200000000001
 31
0.0
  0
LINE
  5
1FC8
  8
241
 10
-4.3858600000000001
 20
1.1761200000000001
 30
0.0
 11
-4.4363599999999987
 21
1.210389999999999
 31
0.0
  0
LINE
  5
1FC9
  8
241
 10
-4.4363599999999987
 20
1.210389999999999
 30
0.0
 11
-4.486629999999999
 21
1.2450699999999999
 31
0.0
  0
LINE
  5
1FCA
  8
241
 10
-4.486629999999999
 20
1.2450699999999999
 30
0.0
 11
-4.5366799999999996
 21
1.280149999999999
 31
0.0
  0
LINE
  5
1FCB
  8
241
 10
-4.5366799999999996
 20
1.280149999999999
 30
0.0
 11
-4.5864900000000004
 21
1.315629999999999
 31
0.0
  0
LINE
  5
1FCC
  8
241
 10
-4.5864900000000004
 20
1.315629999999999
 30
0.0
 11
-4.6360599999999987
 21
1.351489999999999
 31
0.0
  0
LINE
  5
1FCD
  8
241
 10
-4.6360599999999987
 20
1.351489999999999
 30
0.0
 11
-4.6853999999999987
 21
1.3877200000000001
 31
0.0
  0
LINE
  5
1FCE
  8
241
 10
-4.6853999999999987
 20
1.3877200000000001
 30
0.0
 11
-4.7344999999999988
 21
1.4243199999999989
 31
0.0
  0
LINE
  5
1FCF
  8
241
 10
-4.7344999999999988
 20
1.4243199999999989
 30
0.0
 11
-4.7833500000000004
 21
1.461279999999999
 31
0.0
  0
LINE
  5
1FD0
  8
241
 10
-4.7833500000000004
 20
1.461279999999999
 30
0.0
 11
-4.8319599999999987
 21
1.498589999999999
 31
0.0
  0
LINE
  5
1FD1
  8
241
 10
-4.8319599999999987
 20
1.498589999999999
 30
0.0
 11
-4.8803099999999988
 21
1.5362299999999991
 31
0.0
  0
LINE
  5
1FD2
  8
241
 10
-4.8803099999999988
 20
1.5362299999999991
 30
0.0
 11
-4.92842
 21
1.5742
 31
0.0
  0
LINE
  5
1FD3
  8
241
 10
-4.92842
 20
1.5742
 30
0.0
 11
-4.9762699999999986
 21
1.6125
 31
0.0
  0
LINE
  5
1FD4
  8
241
 10
-4.9762699999999986
 20
1.6125
 30
0.0
 11
-5.0238699999999987
 21
1.6511
 31
0.0
  0
LINE
  5
1FD5
  8
241
 10
-5.0238699999999987
 20
1.6511
 30
0.0
 11
-5.0712000000000002
 21
1.6899999999999991
 31
0.0
  0
LINE
  5
1FD6
  8
241
 10
-5.0712000000000002
 20
1.6899999999999991
 30
0.0
 11
-5.118269999999999
 21
1.7292000000000001
 31
0.0
  0
LINE
  5
1FD7
  8
241
 10
-5.118269999999999
 20
1.7292000000000001
 30
0.0
 11
-5.1650799999999997
 21
1.7686799999999989
 31
0.0
  0
LINE
  5
1FD8
  8
241
 10
-5.1650799999999997
 20
1.7686799999999989
 30
0.0
 11
-5.211619999999999
 21
1.80844
 31
0.0
  0
LINE
  5
1FD9
  8
241
 10
-5.211619999999999
 20
1.80844
 30
0.0
 11
-5.2578800000000001
 21
1.8484599999999991
 31
0.0
  0
LINE
  5
1FDA
  8
241
 10
-5.2578800000000001
 20
1.8484599999999991
 30
0.0
 11
-5.3038800000000004
 21
1.8887400000000001
 31
0.0
  0
LINE
  5
1FDB
  8
241
 10
-5.3038800000000004
 20
1.8887400000000001
 30
0.0
 11
-5.3495900000000001
 21
1.9292599999999991
 31
0.0
  0
LINE
  5
1FDC
  8
241
 10
-5.3495900000000001
 20
1.9292599999999991
 30
0.0
 11
-5.3950300000000002
 21
1.9700200000000001
 31
0.0
  0
LINE
  5
1FDD
  8
241
 10
-5.3950300000000002
 20
1.9700200000000001
 30
0.0
 11
-5.4401900000000003
 21
2.0110099999999989
 31
0.0
  0
LINE
  5
1FDE
  8
241
 10
-5.4401900000000003
 20
2.0110099999999989
 30
0.0
 11
-5.4850599999999989
 21
2.0522200000000002
 31
0.0
  0
LINE
  5
1FDF
  8
241
 10
-5.4850599999999989
 20
2.0522200000000002
 30
0.0
 11
-5.5296399999999997
 21
2.0936400000000002
 31
0.0
  0
LINE
  5
1FE0
  8
241
 10
-5.5296399999999997
 20
2.0936400000000002
 30
0.0
 11
-5.5739299999999998
 21
2.1352599999999988
 31
0.0
  0
LINE
  5
1FE1
  8
241
 10
-5.5739299999999998
 20
2.1352599999999988
 30
0.0
 11
-5.617939999999999
 21
2.1770700000000001
 31
0.0
  0
LINE
  5
1FE2
  8
241
 10
-5.617939999999999
 20
2.1770700000000001
 30
0.0
 11
-5.6616400000000002
 21
2.219069999999999
 31
0.0
  0
LINE
  5
1FE3
  8
241
 10
-5.6616400000000002
 20
2.219069999999999
 30
0.0
 11
-5.7050599999999987
 21
2.2612499999999991
 31
0.0
  0
LINE
  5
1FE4
  8
241
 10
-5.7050599999999987
 20
2.2612499999999991
 30
0.0
 11
-5.7481900000000001
 21
2.303609999999999
 31
0.0
  0
LINE
  5
1FE5
  8
241
 10
-5.7481900000000001
 20
2.303609999999999
 30
0.0
 11
-5.7910300000000001
 21
2.3461500000000002
 31
0.0
  0
LINE
  5
1FE6
  8
241
 10
-5.7910300000000001
 20
2.3461500000000002
 30
0.0
 11
-5.8335999999999988
 21
2.3888699999999998
 31
0.0
  0
LINE
  5
1FE7
  8
241
 10
-5.8335999999999988
 20
2.3888699999999998
 30
0.0
 11
-5.8758800000000004
 21
2.4317599999999988
 31
0.0
  0
LINE
  5
1FE8
  8
241
 10
-5.8758800000000004
 20
2.4317599999999988
 30
0.0
 11
-5.917889999999999
 21
2.4748199999999998
 31
0.0
  0
LINE
  5
1FE9
  8
241
 10
-5.917889999999999
 20
2.4748199999999998
 30
0.0
 11
-5.9596299999999998
 21
2.5180599999999989
 31
0.0
  0
LINE
  5
1FEA
  8
241
 10
-5.9596299999999998
 20
2.5180599999999989
 30
0.0
 11
-6.0011000000000001
 21
2.561459999999999
 31
0.0
  0
LINE
  5
1FEB
  8
241
 10
-6.0011000000000001
 20
2.561459999999999
 30
0.0
 11
-6.0423099999999987
 21
2.6050299999999988
 31
0.0
  0
LINE
  5
1FEC
  8
241
 10
-6.0423099999999987
 20
2.6050299999999988
 30
0.0
 11
-6.0832499999999987
 21
2.6487599999999989
 31
0.0
  0
LINE
  5
1FED
  8
241
 10
-6.0832499999999987
 20
2.6487599999999989
 30
0.0
 11
-6.1239400000000002
 21
2.6926499999999991
 31
0.0
  0
LINE
  5
1FEE
  8
241
 10
-6.1239400000000002
 20
2.6926499999999991
 30
0.0
 11
-6.164369999999999
 21
2.7367099999999991
 31
0.0
  0
LINE
  5
1FEF
  8
241
 10
-6.164369999999999
 20
2.7367099999999991
 30
0.0
 11
-6.2045399999999988
 21
2.7809200000000001
 31
0.0
  0
LINE
  5
1FF0
  8
241
 10
-6.2045399999999988
 20
2.7809200000000001
 30
0.0
 11
-6.2444699999999989
 21
2.8252899999999999
 31
0.0
  0
LINE
  5
1FF1
  8
241
 10
-6.2444699999999989
 20
2.8252899999999999
 30
0.0
 11
-6.2841599999999991
 21
2.8698099999999989
 31
0.0
  0
LINE
  5
1FF2
  8
241
 10
-6.2841599999999991
 20
2.8698099999999989
 30
0.0
 11
-6.323599999999999
 21
2.9144899999999998
 31
0.0
  0
LINE
  5
1FF3
  8
241
 10
-6.323599999999999
 20
2.9144899999999998
 30
0.0
 11
-6.3628
 21
2.959309999999999
 31
0.0
  0
LINE
  5
1FF4
  8
241
 10
-6.3628
 20
2.959309999999999
 30
0.0
 11
-6.4017599999999986
 21
3.0042900000000001
 31
0.0
  0
LINE
  5
1FF5
  8
241
 10
-6.4017599999999986
 20
3.0042900000000001
 30
0.0
 11
-6.4405000000000001
 21
3.049399999999999
 31
0.0
  0
LINE
  5
1FF6
  8
241
 10
-6.4405000000000001
 20
3.049399999999999
 30
0.0
 11
-6.4790000000000001
 21
3.0946699999999998
 31
0.0
  0
LINE
  5
1FF7
  8
241
 10
-6.4790000000000001
 20
3.0946699999999998
 30
0.0
 11
-6.5172800000000004
 21
3.1400700000000001
 31
0.0
  0
LINE
  5
1FF8
  8
241
 10
-6.5172800000000004
 20
3.1400700000000001
 30
0.0
 11
-6.5553299999999997
 21
3.1856200000000001
 31
0.0
  0
LINE
  5
1FF9
  8
241
 10
-6.5553299999999997
 20
3.1856200000000001
 30
0.0
 11
-6.5931699999999989
 21
3.2313000000000001
 31
0.0
  0
LINE
  5
1FFA
  8
241
 10
-6.5931699999999989
 20
3.2313000000000001
 30
0.0
 11
-6.6307899999999993
 21
3.2771199999999991
 31
0.0
  0
LINE
  5
1FFB
  8
241
 10
-6.6307899999999993
 20
3.2771199999999991
 30
0.0
 11
-6.6681899999999992
 21
3.3230699999999991
 31
0.0
  0
LINE
  5
1FFC
  8
241
 10
-6.6681899999999992
 20
3.3230699999999991
 30
0.0
 11
-6.7053899999999986
 21
3.369159999999999
 31
0.0
  0
LINE
  5
1FFD
  8
241
 10
-6.7053899999999986
 20
3.369159999999999
 30
0.0
 11
-6.7423699999999993
 21
3.4153699999999989
 31
0.0
  0
LINE
  5
1FFE
  8
241
 10
-6.7423699999999993
 20
3.4153699999999989
 30
0.0
 11
-6.7791600000000001
 21
3.4617199999999988
 31
0.0
  0
LINE
  5
1FFF
  8
241
 10
-6.7791600000000001
 20
3.4617199999999988
 30
0.0
 11
-6.815739999999999
 21
3.5081799999999999
 31
0.0
  0
LINE
  5
2000
  8
241
 10
-6.815739999999999
 20
3.5081799999999999
 30
0.0
 11
-6.8521299999999998
 21
3.5547800000000001
 31
0.0
  0
LINE
  5
2001
  8
241
 10
-6.8521299999999998
 20
3.5547800000000001
 30
0.0
 11
-6.8883199999999993
 21
3.6014900000000001
 31
0.0
  0
LINE
  5
2002
  8
241
 10
-6.8883199999999993
 20
3.6014900000000001
 30
0.0
 11
-6.9243199999999989
 21
3.6483199999999991
 31
0.0
  0
LINE
  5
2003
  8
241
 10
-6.9243199999999989
 20
3.6483199999999991
 30
0.0
 11
-6.9601399999999991
 21
3.6952699999999989
 31
0.0
  0
LINE
  5
2004
  8
241
 10
-6.9601399999999991
 20
3.6952699999999989
 30
0.0
 11
-6.9957699999999994
 21
3.7423399999999991
 31
0.0
  0
LINE
  5
2005
  8
241
 10
-6.9957699999999994
 20
3.7423399999999991
 30
0.0
 11
-7.0312199999999994
 21
3.7895199999999991
 31
0.0
  0
LINE
  5
2006
  8
241
 10
-7.0312199999999994
 20
3.7895199999999991
 30
0.0
 11
-7.066489999999999
 21
3.8368099999999989
 31
0.0
  0
LINE
  5
2007
  8
241
 10
-7.066489999999999
 20
3.8368099999999989
 30
0.0
 11
-7.101589999999999
 21
3.8842099999999991
 31
0.0
  0
LINE
  5
2008
  8
241
 10
-7.101589999999999
 20
3.8842099999999991
 30
0.0
 11
-7.1365100000000004
 21
3.931719999999999
 31
0.0
  0
LINE
  5
2009
  8
241
 10
-7.1365100000000004
 20
3.931719999999999
 30
0.0
 11
-7.1712699999999989
 21
3.9793400000000001
 31
0.0
  0
LINE
  5
200A
  8
241
 10
-7.1712699999999989
 20
3.9793400000000001
 30
0.0
 11
-7.2058600000000004
 21
4.02705
 31
0.0
  0
LINE
  5
200B
  8
241
 10
-7.2058600000000004
 20
4.02705
 30
0.0
 11
-7.240289999999999
 21
4.0748699999999989
 31
0.0
  0
LINE
  5
200C
  8
241
 10
-7.240289999999999
 20
4.0748699999999989
 30
0.0
 11
-7.2745699999999989
 21
4.1227900000000002
 31
0.0
  0
LINE
  5
200D
  8
241
 10
-7.2745699999999989
 20
4.1227900000000002
 30
0.0
 11
-7.3086899999999986
 21
4.1708099999999986
 31
0.0
  0
LINE
  5
200E
  8
241
 10
-7.3086899999999986
 20
4.1708099999999986
 30
0.0
 11
-7.342649999999999
 21
4.2189199999999989
 31
0.0
  0
LINE
  5
200F
  8
241
 10
-7.342649999999999
 20
4.2189199999999989
 30
0.0
 11
-7.3764699999999994
 21
4.2671199999999994
 31
0.0
  0
LINE
  5
2010
  8
241
 10
-7.3764699999999994
 20
4.2671199999999994
 30
0.0
 11
-7.4101399999999993
 21
4.3154199999999987
 31
0.0
  0
LINE
  5
2011
  8
241
 10
-7.4101399999999993
 20
4.3154199999999987
 30
0.0
 11
-7.44367
 21
4.3638000000000003
 31
0.0
  0
LINE
  5
2012
  8
241
 10
-7.44367
 20
4.3638000000000003
 30
0.0
 11
-7.4770599999999998
 21
4.4122799999999991
 31
0.0
  0
LINE
  5
2013
  8
241
 10
-7.4770599999999998
 20
4.4122799999999991
 30
0.0
 11
-7.5103200000000001
 21
4.4608299999999996
 31
0.0
  0
LINE
  5
2014
  8
241
 10
-7.5103200000000001
 20
4.4608299999999996
 30
0.0
 11
-7.5434399999999986
 21
4.5094699999999994
 31
0.0
  0
LINE
  5
2015
  8
241
 10
-7.5434399999999986
 20
4.5094699999999994
 30
0.0
 11
-7.5764300000000002
 21
4.5582000000000003
 31
0.0
  0
LINE
  5
2016
  8
241
 10
-7.5764300000000002
 20
4.5582000000000003
 30
0.0
 11
-7.6093000000000002
 21
4.6070000000000002
 31
0.0
  0
LINE
  5
2017
  8
241
 10
-7.6093000000000002
 20
4.6070000000000002
 30
0.0
 11
-7.6420399999999988
 21
4.6558699999999993
 31
0.0
  0
LINE
  5
2018
  8
241
 10
-7.6420399999999988
 20
4.6558699999999993
 30
0.0
 11
-7.674669999999999
 21
4.7048300000000003
 31
0.0
  0
LINE
  5
2019
  8
241
 10
-7.674669999999999
 20
4.7048300000000003
 30
0.0
 11
-7.7071800000000001
 21
4.753849999999999
 31
0.0
  0
LINE
  5
201A
  8
241
 10
-7.7071800000000001
 20
4.753849999999999
 30
0.0
 11
-7.7395699999999987
 21
4.8029500000000001
 31
0.0
  0
LINE
  5
201B
  8
241
 10
-7.7395699999999987
 20
4.8029500000000001
 30
0.0
 11
-7.7718600000000002
 21
4.8521199999999993
 31
0.0
  0
LINE
  5
201C
  8
241
 10
-7.7718600000000002
 20
4.8521199999999993
 30
0.0
 11
-7.80403
 21
4.901349999999999
 31
0.0
  0
LINE
  5
201D
  8
241
 10
-7.80403
 20
4.901349999999999
 30
0.0
 11
-7.8361099999999997
 21
4.9506500000000004
 31
0.0
  0
LINE
  5
201E
  8
241
 10
-7.8361099999999997
 20
4.9506500000000004
 30
0.0
 11
-7.8680799999999991
 21
5.0000099999999987
 31
0.0
  0
LINE
  5
201F
  8
241
 10
-7.8680799999999991
 20
5.0000099999999987
 30
0.0
 11
-7.8999600000000001
 21
5.0494300000000001
 31
0.0
  0
LINE
  5
2020
  8
241
 10
-7.8999600000000001
 20
5.0494300000000001
 30
0.0
 11
-7.9317500000000001
 21
5.0989100000000001
 31
0.0
  0
LINE
  5
2021
  8
241
 10
-7.9317500000000001
 20
5.0989100000000001
 30
0.0
 11
-7.9634399999999994
 21
5.1484500000000004
 31
0.0
  0
LINE
  5
2022
  8
241
 10
-7.9634399999999994
 20
5.1484500000000004
 30
0.0
 11
-7.9950499999999991
 21
5.1980399999999989
 31
0.0
  0
LINE
  5
2023
  8
241
 10
-7.9950499999999991
 20
5.1980399999999989
 30
0.0
 11
-8.0265699999999995
 21
5.247679999999999
 31
0.0
  0
LINE
  5
2024
  8
241
 10
-8.0265699999999995
 20
5.247679999999999
 30
0.0
 11
-8.0580100000000012
 21
5.2973800000000004
 31
0.0
  0
LINE
  5
2025
  8
241
 10
-8.0580100000000012
 20
5.2973800000000004
 30
0.0
 11
-8.0893800000000002
 21
5.3471199999999994
 31
0.0
  0
LINE
  5
2026
  8
241
 10
-8.0893800000000002
 20
5.3471199999999994
 30
0.0
 11
-8.1206700000000005
 21
5.3969100000000001
 31
0.0
  0
LINE
  5
2027
  8
241
 10
-8.1206700000000005
 20
5.3969100000000001
 30
0.0
 11
-8.1518800000000002
 21
5.4467499999999989
 31
0.0
  0
LINE
  5
2028
  8
241
 10
-8.1518800000000002
 20
5.4467499999999989
 30
0.0
 11
-8.1830400000000001
 21
5.4966200000000001
 31
0.0
  0
LINE
  5
2029
  8
241
 10
-8.1830400000000001
 20
5.4966200000000001
 30
0.0
 11
-8.2141199999999994
 21
5.5465400000000002
 31
0.0
  0
LINE
  5
202A
  8
241
 10
-8.2141199999999994
 20
5.5465400000000002
 30
0.0
 11
-8.2451500000000006
 21
5.5964999999999989
 31
0.0
  0
LINE
  5
202B
  8
241
 10
-8.2451500000000006
 20
5.5964999999999989
 30
0.0
 11
-8.2761099999999992
 21
5.64649
 31
0.0
  0
LINE
  5
202C
  8
241
 10
-8.2761099999999992
 20
5.64649
 30
0.0
 11
-8.307030000000001
 21
5.6965199999999987
 31
0.0
  0
LINE
  5
202D
  8
241
 10
-8.307030000000001
 20
5.6965199999999987
 30
0.0
 11
-8.3378899999999998
 21
5.7465799999999998
 31
0.0
  0
LINE
  5
202E
  8
241
 10
-8.3378899999999998
 20
5.7465799999999998
 30
0.0
 11
-8.3687000000000005
 21
5.7966699999999989
 31
0.0
  0
LINE
  5
202F
  8
241
 10
-8.3687000000000005
 20
5.7966699999999989
 30
0.0
 11
-8.3994600000000013
 21
5.8467900000000004
 31
0.0
  0
LINE
  5
2030
  8
241
 10
-8.3994600000000013
 20
5.8467900000000004
 30
0.0
 11
-8.4301899999999996
 21
5.896939999999999
 31
0.0
  0
LINE
  5
2031
  8
241
 10
-8.4301899999999996
 20
5.896939999999999
 30
0.0
 11
-8.4608699999999981
 21
5.9471099999999986
 31
0.0
  0
LINE
  5
2032
  8
241
 10
-8.4608699999999981
 20
5.9471099999999986
 30
0.0
 11
-8.4915199999999995
 21
5.9973000000000001
 31
0.0
  0
LINE
  5
2033
  8
241
 10
-8.4915199999999995
 20
5.9973000000000001
 30
0.0
 11
-8.5221400000000003
 21
6.0475099999999991
 31
0.0
  0
LINE
  5
2034
  8
241
 10
-8.5221400000000003
 20
6.0475099999999991
 30
0.0
 11
-8.5527300000000004
 21
6.097739999999999
 31
0.0
  0
LINE
  5
2035
  8
241
 10
-8.5527300000000004
 20
6.097739999999999
 30
0.0
 11
-8.5832899999999999
 21
6.1479900000000001
 31
0.0
  0
LINE
  5
2036
  8
241
 10
-8.5832899999999999
 20
6.1479900000000001
 30
0.0
 11
-8.6138300000000001
 21
6.1982499999999989
 31
0.0
  0
LINE
  5
2037
  8
241
 10
-8.6138300000000001
 20
6.1982499999999989
 30
0.0
 11
-8.6443499999999993
 21
6.2485200000000001
 31
0.0
  0
LINE
  5
2038
  8
241
 10
-8.6443499999999993
 20
6.2485200000000001
 30
0.0
 11
-8.6748600000000007
 21
6.2988099999999987
 31
0.0
  0
LINE
  5
2039
  8
241
 10
-8.6748600000000007
 20
6.2988099999999987
 30
0.0
 11
-8.7053499999999993
 21
6.3490999999999991
 31
0.0
  0
LINE
  5
203A
  8
241
 10
-8.7053499999999993
 20
6.3490999999999991
 30
0.0
 11
-8.7358299999999982
 21
6.3993900000000004
 31
0.0
  0
LINE
  5
203B
  8
241
 10
-8.7358299999999982
 20
6.3993900000000004
 30
0.0
 11
-8.7663100000000007
 21
6.4496999999999991
 31
0.0
  0
LINE
  5
203C
  8
241
 10
-8.7663100000000007
 20
6.4496999999999991
 30
0.0
 11
-8.79678
 21
6.5
 31
0.0
  0
TEXT
  5
203D
  8
250
 10
-134.0
 20
36.0
 30
0.0
 40
2.799999999999998
  1
260
  0
LINE
  5
203E
  8
250
 10
-2.229999999999996
 20
35.37166666666667
 30
0.0
 11
0.0000000000000021
 21
35.0
 31
0.0
  0
LINE
  5
203F
  8
250
 10
-2.229999999999996
 20
34.62833333333333
 30
0.0
 11
0.0000000000000021
 21
35.0
 31
0.0
  0
LINE
  5
2040
  8
250
 10
0.0000000000000021
 20
35.0
 30
0.0
 11
-2.229999999999996
 21
35.0
 31
0.0
  0
LINE
  5
2041
  8
250
 10
-257.76999999999998
 20
34.62833333333333
 30
0.0
 11
-260.0
 21
35.0
 31
0.0
  0
LINE
  5
2042
  8
250
 10
-257.76999999999998
 20
35.371666666666663
 30
0.0
 11
-260.0
 21
35.0
 31
0.0
  0
LINE
  5
2043
  8
250
 10
-260.0
 20
35.0
 30
0.0
 11
-257.76999999999998
 21
35.0
 31
0.0
  0
TEXT
  5
2044
  8
250
 10
-204.19999999999999
 20
29.0
 30
0.0
 40
2.799999999999998
  1
120
  0
LINE
  5
2045
  8
250
 10
-142.22999999999999
 20
28.371666666666659
 30
0.0
 11
-140.0
 21
28.0
 31
0.0
  0
LINE
  5
2046
  8
250
 10
-142.22999999999999
 20
27.62833333333333
 30
0.0
 11
-140.0
 21
28.0
 31
0.0
  0
LINE
  5
2047
  8
250
 10
-140.0
 20
28.0
 30
0.0
 11
-142.22999999999999
 21
28.0
 31
0.0
  0
LINE
  5
2048
  8
250
 10
-257.76999999999998
 20
27.62833333333333
 30
0.0
 11
-260.0
 21
28.0
 31
0.0
  0
LINE
  5
2049
  8
250
 10
-257.76999999999998
 20
28.371666666666659
 30
0.0
 11
-260.0
 21
28.0
 31
0.0
  0
LINE
  5
204A
  8
250
 10
-260.0
 20
28.0
 30
0.0
 11
-257.76999999999998
 21
28.0
 31
0.0
  0
VIEWPORT
  5
22
 67
     1
  8
0
 10
261.51769911504419
 20
148.5
 30
0.0
 40
523.0353982300885
 41
297.0
 68
     1
 69
     1
1001
ACAD
1000
MVIEW
1002
{
1070
    16
1010
0.0
1020
0.0
1030
0.0
1010
0.0
1020
0.0
1030
1.0
1040
0.0
1040
297.0
1040
261.51769911504419
1040
148.5
1040
50.0
1040
0.0
1040
0.0
1070
     0
1070
   100
1070
     1
1070
     1
1070
     0
1070
     0
1070
     0
1070
     0
1040
0.0
1040
0.0
1040
0.0
1040
1.0
1040
1.0
1040
10.0
1040
10.0
1070
     0
1002
{
1002
}
1002
}
1001
GENIUS_GENODEF_13
1002
{
1000
HIER
1070
     0
1002
}
1002
{
1000
MANEDIT
1070
     0
1002
}
1002
{
1000
NOSEL
1070
     0
1002
}
1002
{
1000
BEHIND
1070
     0
1002
}
1002
{
1000
OTHER
1070
     0
1002
}
1002
{
1000
REACTOR
1002
}
1001
GENIUS_GENOBJ-N-SDF_13
1002
{
1000
OWNER
1000
GEN
1002
}
1001
GENIUS_GENSCREG_15
1000
PF
1040
1.0
1000
DF
1040
1.0
1000
MIN
1011
0.0
1021
0.0
1031
0.0
1021
0.0
1031
0.0
1000
MAX
1011
523.0353982300885
1021
0.0
1031
0.0
1021
297.0
1031
0.0
1000
FLAGS
1070
     2
  0
ENDSEC
  0
EOF
