  0
SECTION
  2
HEADER
  9
$ACADVER
  1
AC1009
  9
$INSBASE
 10
0.0
 20
0.0
 30
0.0
  9
$EXTMIN
 10
-91.999997999999962
 20
-20.162866204807528
 30
0.0
  9
$EXTMAX
 10
18.000000310512011
 20
46.000000000000043
 30
0.0
  9
$LIMMIN
 10
0.0
 20
0.0
  9
$LIMMAX
 10
297.0
 20
210.0
  9
$ORTHOMODE
 70
     0
  9
$REGENMODE
 70
     1
  9
$FILLMODE
 70
     1
  9
$QTEXTMODE
 70
     0
  9
$MIRRTEXT
 70
     1
  9
$DRAGMODE
 70
     2
  9
$LTSCALE
 40
10.0
  9
$OSMODE
 70
  3071
  9
$ATTMODE
 70
     1
  9
$TEXTSIZE
 40
3.0
  9
$TRACEWID
 40
1.0
  9
$TEXTSTYLE
  7
YOKO
  9
$CLAYER
  8
240
  9
$CELTYPE
  6
BYLAYER
  9
$CECOLOR
 62
   256
  9
$DIMSCALE
 40
1.0
  9
$DIMASZ
 40
2.2299999999999991
  9
$DIMEXO
 40
0.5
  9
$DIMDLI
 40
2.5
  9
$DIMRND
 40
0.0
  9
$DIMDLE
 40
0.0
  9
$DIMEXE
 40
1.0
  9
$DIMTP
 40
0.0
  9
$DIMTM
 40
0.0
  9
$DIMTXT
 40
3.0
  9
$DIMCEN
 40
0.0
  9
$DIMTSZ
 40
0.0
  9
$DIMTOL
 70
     0
  9
$DIMLIM
 70
     0
  9
$DIMTIH
 70
     0
  9
$DIMTOH
 70
     0
  9
$DIMSE1
 70
     0
  9
$DIMSE2
 70
     0
  9
$DIMTAD
 70
     3
  9
$DIMZIN
 70
     8
  9
$DIMBLK
  1
OPEN
  9
$DIMASO
 70
     1
  9
$DIMSHO
 70
     1
  9
$DIMPOST
  1

  9
$DIMAPOST
  1

  9
$DIMALT
 70
     0
  9
$DIMALTD
 70
     2
  9
$DIMALTF
 40
25.399999999999999
  9
$DIMLFAC
 40
1.0
  9
$DIMTOFL
 70
     1
  9
$DIMTVP
 40
0.0
  9
$DIMTIX
 70
     0
  9
$DIMSOXD
 70
     0
  9
$DIMSAH
 70
     0
  9
$DIMBLK1
  1

  9
$DIMBLK2
  1

  9
$DIMSTYLE
  2
BIGT
  9
$DIMCLRD
 70
   256
  9
$DIMCLRE
 70
   256
  9
$DIMCLRT
 70
    40
  9
$DIMTFAC
 40
1.0
  9
$DIMGAP
 40
1.0
  9
$LUNITS
 70
     2
  9
$LUPREC
 70
     2
  9
$SKETCHINC
 40
1.0
  9
$FILLETRAD
 40
0.0
  9
$AUNITS
 70
     0
  9
$AUPREC
 70
     3
  9
$MENU
  1
.
  9
$ELEVATION
 40
0.0
  9
$PELEVATION
 40
0.0
  9
$THICKNESS
 40
0.0
  9
$LIMCHECK
 70
     0
  9
$BLIPMODE
 70
     0
  9
$CHAMFERA
 40
10.0
  9
$CHAMFERB
 40
10.0
  9
$SKPOLY
 70
     0
  9
$TDCREATE
 40
2452291.581264283
  9
$TDUPDATE
 40
2455812.5686251158
  9
$TDINDWG
 40
0.0227404282
  9
$TDUSRTIMER
 40
0.0227400694
  9
$USRTIMER
 70
     1
  9
$ANGBASE
 50
0.0
  9
$ANGDIR
 70
     0
  9
$PDMODE
 70
    35
  9
$PDSIZE
 40
2.0
  9
$PLINEWID
 40
0.0
  9
$COORDS
 70
     1
  9
$SPLFRAME
 70
     0
  9
$SPLINETYPE
 70
     6
  9
$SPLINESEGS
 70
     8
  9
$ATTDIA
 70
     1
  9
$ATTREQ
 70
     1
  9
$HANDLING
 70
     1
  9
$HANDSEED
  5
135C
  9
$SURFTAB1
 70
     6
  9
$SURFTAB2
 70
     6
  9
$SURFTYPE
 70
     6
  9
$SURFU
 70
     6
  9
$SURFV
 70
     6
  9
$UCSNAME
  2

  9
$UCSORG
 10
0.0
 20
0.0
 30
0.0
  9
$UCSXDIR
 10
1.0
 20
0.0
 30
0.0
  9
$UCSYDIR
 10
0.0
 20
1.0
 30
0.0
  9
$PUCSNAME
  2

  9
$PUCSORG
 10
0.0
 20
0.0
 30
0.0
  9
$PUCSXDIR
 10
1.0
 20
0.0
 30
0.0
  9
$PUCSYDIR
 10
0.0
 20
1.0
 30
0.0
  9
$USERI1
 70
     1
  9
$USERI2
 70
     0
  9
$USERI3
 70
     0
  9
$USERI4
 70
     0
  9
$USERI5
 70
     0
  9
$USERR1
 40
0.0
  9
$USERR2
 40
0.0
  9
$USERR3
 40
0.0
  9
$USERR4
 40
0.0
  9
$USERR5
 40
0.0
  9
$WORLDVIEW
 70
     1
  9
$SHADEDGE
 70
     3
  9
$SHADEDIF
 70
    70
  9
$TILEMODE
 70
     1
  9
$MAXACTVP
 70
    16
  9
$PLIMCHECK
 70
     0
  9
$PEXTMIN
 10
1.0000000000000000E+020
 20
1.0000000000000000E+020
 30
1.0000000000000000E+020
  9
$PEXTMAX
 10
-1.0000000000000000E+020
 20
-1.0000000000000000E+020
 30
-1.0000000000000000E+020
  9
$PLIMMIN
 10
0.0
 20
0.0
  9
$PLIMMAX
 10
420.0
 20
297.0
  9
$UNITMODE
 70
     0
  9
$VISRETAIN
 70
     0
  9
$PLINEGEN
 70
     0
  9
$PSLTSCALE
 70
     1
  0
ENDSEC
  0
SECTION
  2
TABLES
  0
TABLE
  2
VPORT
 70
     1
  0
VPORT
  2
*ACTIVE
 70
     0
 10
0.0
 20
0.0
 11
1.0
 21
1.0
 12
-36.998767303109958
 22
12.92098361382943
 13
0.0
 23
0.0
 14
7.0
 24
7.0
 15
7.0
 25
7.0
 16
0.0
 26
0.0
 36
1.0
 17
0.0
 27
0.0
 37
0.0
 40
66.699800581601806
 41
1.8471023427866831
 42
50.0
 43
0.0
 44
0.0
 50
0.0
 51
0.0
 71
     0
 72
  2000
 73
     1
 74
     0
 75
     0
 76
     0
 77
     0
 78
     0
  0
ENDTAB
  0
TABLE
  2
LTYPE
 70
    16
  0
LTYPE
  2
CONTINUOUS
 70
     0
  3
Solid line
 72
    65
 73
     0
 40
0.0
  0
LTYPE
  2
CENTER2
 70
     0
  3
___ _ ___ _ ___ _ ___ _ ___ _ ___ _ ___ _ ___ _
 72
    65
 73
     4
 40
1.125
 49
0.75
 49
-0.125
 49
0.125
 49
-0.125
  0
LTYPE
  2
AMCONSTR
 70
     0
  3
_______________________
 72
    65
 73
     2
 40
9999.0
 49
9999.0
 49
0.0
  0
LTYPE
  2
CENTER
 70
     0
  3
__ . __
 72
    65
 73
     4
 40
7.0
 49
4.0
 49
-1.0
 49
1.0
 49
-1.0
  0
LTYPE
  2
HIDDEN
 70
     0
  3
Hidden __ __ __ __ __ __ __ __ __ __ __ __ __ _
 72
    65
 73
     2
 40
9.5249999999999986
 49
6.3499999999999979
 49
-3.174999999999998
  0
LTYPE
  2
PHANTOM2
 70
     0
  3
Phantom (.5x) ___ _ _ ___ _ _ ___ _ _ ___ _ _
 72
    65
 73
     6
 40
31.75
 49
15.875
 49
-3.174999999999998
 49
3.174999999999998
 49
-3.174999999999998
 49
3.174999999999998
 49
-3.174999999999998
  0
LTYPE
  2
HIDDEN2
 70
     0
  3
Hidden (.5x) _ _ _ _ _ _ _ _ _ _ _ _ _ _ _ _ _
 72
    65
 73
     2
 40
0.1875
 49
0.125
 49
-0.0625
  0
LTYPE
  2
AMZIGZAG2
 70
     0
  3
/\/-/\/-/\/-/\/-/\/-/\/
 72
    65
 73
     2
 40
0.4401
 49
0.0001
 49
-0.4400000000000001
  0
LTYPE
  2
ACANSTGB
 70
     0
  3
__ . . __ . .
 72
    65
 73
     6
 40
0.35433070866
 49
0.15748031496
 49
-0.03937007874
 49
0.03937007874
 49
-0.03937007874
 49
0.03937007874
 49
-0.03937007874
  0
LTYPE
  2
ACANSTGL
 70
     0
  3
_ _ _ _ _
 72
    65
 73
     2
 40
0.11811023622
 49
0.07874015748
 49
-0.03937007874
  0
ENDTAB
  0
TABLE
  2
LAYER
 70
     7
  0
LAYER
  2
0
 70
     0
 62
     7
  6
CONTINUOUS
  0
LAYER
  2
240
 70
     0
 62
     4
  6
CONTINUOUS
  0
LAYER
  2
241
 70
     0
 62
   211
  6
CONTINUOUS
  0
LAYER
  2
245
 70
     0
 62
     2
  6
CENTER2
  0
LAYER
  2
247
 70
     0
 62
    60
  6
CONTINUOUS
  0
LAYER
  2
250
 70
     0
 62
     3
  6
CONTINUOUS
  0
LAYER
  2
DEFPOINTS
 70
     0
 62
     7
  6
CONTINUOUS
  0
ENDTAB
  0
TABLE
  2
STYLE
 70
     5
  0
STYLE
  2
STANDARD
 70
     0
 40
0.0
 41
1.0
 50
0.0
 71
     0
 42
3.0
  3
romans.shx
  4
BIGFONT.SHX
  0
STYLE
  2
YOKO
 70
     0
 40
0.0
 41
1.0
 50
0.0
 71
     0
 42
3.0
  3
romans.shx
  4
extfont.shx
  0
STYLE
  2

 70
     1
 40
0.0
 41
1.0
 50
0.0
 71
     0
 42
3.0
  3
genltshp.shx
  4

  0
STYLE
  2
ACANSGDT
 70
     0
 40
0.0
 41
1.0
 50
0.0
 71
     0
 42
3.0
  3
amgdt.shx
  4

  0
ENDTAB
  0
TABLE
  2
VIEW
 70
     0
  0
ENDTAB
  0
TABLE
  2
UCS
 70
     0
  0
ENDTAB
  0
TABLE
  2
APPID
 70
    28
  0
APPID
  2
ACAD
 70
     0
  0
APPID
  2
ACADANNOTATIVE
 70
     0
  0
APPID
  2
GLOBAL
 70
     0
  0
APPID
  2
DETAIL
 70
     0
  0
APPID
  2
GRPNAME
 70
     0
  0
APPID
  2
GPARA
 70
     0
  0
APPID
  2
ITEMNAME
 70
     0
  0
APPID
  2
HATCH_TYPE
 70
     0
  0
APPID
  2
HATCH_DISPLAY
 70
     0
  0
APPID
  2
HATCH_DISTANCE
 70
     0
  0
APPID
  2
MCAD_NO_VIS
 70
     0
  0
APPID
  2
ACAD_TEMP_GRAPHIC
 70
     0
  0
APPID
  2
ACATTRIBSERVICES
 70
     0
  0
APPID
  2
GENIUS_GENSCREG_15
 70
     0
  0
APPID
  2
GENIUS_GENODEF_13
 70
     0
  0
APPID
  2
GENIUS_GENOBJ-N-SDF_13
 70
     0
  0
APPID
  2
AD_DRAW
 70
     0
  0
APPID
  2
DESIGNERASSEMBLIES
 70
     0
  0
APPID
  2
ACADM_DIM_EDIT
 70
     0
  0
APPID
  2
AMDT_DM_ADJ
 70
     0
  0
APPID
  2
ACAD_DSTYLE_DIMJAG
 70
     0
  0
APPID
  2
ACAD_DSTYLE_DIMBREAK
 70
     0
  0
APPID
  2
ACAD_EXEMPT_FROM_CAD_STANDARDS
 70
     0
  0
APPID
  2
ACAD_MLEADERVER
 70
     0
  0
APPID
  2
ACAD_DSTYLE_DIMARC_LENGTH_
 70
     0
  0
APPID
  2
ACAD_DSTYLE_DIM_LINETYPE
 70
     0
  0
APPID
  2
ACAD_DSTYLE_DIM_EXT1_LINETYPE
 70
     0
  0
APPID
  2
ACAD_DSTYLE_DIM_EXT2_LINETYPE
 70
     0
  0
ENDTAB
  0
TABLE
  2
DIMSTYLE
 70
     8
  0
DIMSTYLE
  2
STANDARD
 70
     0
  3

  4

  5

  6

  7

 40
1.0
 41
2.0
 42
2.0
 43
3.75
 44
2.0
 45
0.0
 46
0.0
 47
0.0
 48
0.0
140
4.0
141
0.09
142
0.0
143
25.399999999999999
144
1.0
145
0.0
146
1.0
147
1.0
 71
     0
 72
     0
 73
     1
 74
     1
 75
     0
 76
     0
 77
     0
 78
     8
170
     0
171
     2
172
     0
173
     1
174
     0
175
     0
176
   256
177
   256
178
   256
  0
DIMSTYLE
  2
BIGT
 70
     0
  3

  4

  5

  6

  7

 40
1.0
 41
2.2299999999999991
 42
0.5
 43
2.5
 44
1.0
 45
0.0
 46
0.0
 47
0.0
 48
0.0
140
3.5
141
0.0
142
0.0
143
25.399999999999999
144
1.0
145
0.0
146
1.0
147
1.0
 71
     0
 72
     0
 73
     0
 74
     0
 75
     0
 76
     0
 77
     3
 78
     9
170
     0
171
     2
172
     1
173
     0
174
     0
175
     0
176
   256
177
   256
178
    40
  0
DIMSTYLE
  2
AM_ANSI
 70
     0
  3

  4
mm
  5

  6

  7

 40
1.0
 41
0.12
 42
0.05
 43
0.5
 44
0.1
 45
0.0
 46
0.0
 47
0.1
 48
0.1
140
0.12
141
0.0
142
0.0
143
25.399999999999999
144
1.0
145
0.0
146
0.71
147
0.06
 71
     0
 72
     0
 73
     1
 74
     1
 75
     0
 76
     0
 77
     0
 78
     7
170
     0
171
     2
172
     0
173
     0
174
     0
175
     0
176
   256
177
   256
178
     2
  0
DIMSTYLE
  2
AM_ANSI$3
 70
     0
  3

  4
mm
  5

  6

  7

 40
1.0
 41
0.12
 42
0.05
 43
0.5
 44
0.1
 45
0.0
 46
0.0
 47
0.1
 48
0.1
140
0.12
141
0.0
142
0.0
143
25.399999999999999
144
1.0
145
0.0
146
0.71
147
0.06
 71
     0
 72
     0
 73
     1
 74
     1
 75
     0
 76
     0
 77
     0
 78
     7
170
     0
171
     2
172
     0
173
     0
174
     0
175
     0
176
   256
177
   256
178
     2
  0
DIMSTYLE
  2
AM_ANSI$4
 70
     0
  3

  4
mm
  5

  6

  7

 40
1.0
 41
0.12
 42
0.05
 43
0.5
 44
0.1
 45
0.0
 46
0.0
 47
0.1
 48
0.1
140
0.12
141
0.0
142
0.0
143
25.399999999999999
144
1.0
145
0.0
146
0.71
147
0.06
 71
     0
 72
     0
 73
     1
 74
     1
 75
     0
 76
     0
 77
     0
 78
     7
170
     0
171
     2
172
     0
173
     0
174
     0
175
     0
176
   256
177
   256
178
     2
  0
DIMSTYLE
  2
AM_ANSI$7
 70
     0
  3

  4
mm
  5

  6

  7

 40
1.0
 41
0.12
 42
0.05
 43
0.5
 44
0.1
 45
0.0
 46
0.0
 47
0.1
 48
0.1
140
0.12
141
0.0
142
0.0
143
25.399999999999999
144
1.0
145
0.0
146
0.71
147
0.06
 71
     0
 72
     0
 73
     1
 74
     1
 75
     0
 76
     0
 77
     0
 78
     7
170
     0
171
     2
172
     0
173
     0
174
     0
175
     0
176
   256
177
   256
178
     2
  0
DIMSTYLE
  2
AM_ANSI$SF
 70
     0
  3

  4
mm
  5

  6

  7

 40
1.0
 41
0.12
 42
0.05
 43
0.5
 44
0.1
 45
0.0
 46
0.0
 47
0.1
 48
0.1
140
0.12
141
0.0
142
0.0
143
25.399999999999999
144
1.0
145
0.0
146
0.71
147
0.06
 71
     0
 72
     0
 73
     1
 74
     1
 75
     1
 76
     1
 77
     0
 78
     7
170
     0
171
     2
172
     0
173
     0
174
     0
175
     0
176
   256
177
   256
178
     2
  0
DIMSTYLE
  2
AM_ANSI$SH
 70
     0
  3

  4
mm
  5

  6
GENAXEH
  7

 40
1.0
 41
0.12
 42
0.05
 43
0.5
 44
0.1
 45
0.0
 46
0.0
 47
0.1
 48
0.1
140
0.12
141
0.0
142
0.0
143
25.399999999999999
144
1.0
145
0.0
146
0.71
147
0.06
 71
     0
 72
     0
 73
     1
 74
     1
 75
     1
 76
     1
 77
     0
 78
     7
170
     0
171
     2
172
     0
173
     1
174
     0
175
     0
176
   256
177
   256
178
     2
  0
ENDTAB
  0
ENDSEC
  0
SECTION
  2
BLOCKS
  0
BLOCK
  8
0
  2
$MODEL_SPACE
 70
     0
 10
0.0
 20
0.0
 30
0.0
  3
$MODEL_SPACE
  1

  0
ENDBLK
  5
F84
  8
0
  0
BLOCK
 67
     1
  8
0
  2
$PAPER_SPACE
 70
     0
 10
0.0
 20
0.0
 30
0.0
  3
$PAPER_SPACE
  1

  0
ENDBLK
  5
F80
 67
     1
  8
0
  0
BLOCK
  8
0
  2
_OPEN
 70
     0
 10
0.0
 20
0.0
 30
0.0
  3
_OPEN
  1

  0
LINE
  5
595
  8
0
  6
BYBLOCK
 62
     0
 10
-1.0
 20
0.1666666666666666
 30
0.0
 11
0.0
 21
0.0
 31
0.0
  0
LINE
  5
596
  8
0
  6
BYBLOCK
 62
     0
 10
-1.0
 20
-0.1666666666666666
 30
0.0
 11
0.0
 21
0.0
 31
0.0
  0
LINE
  5
597
  8
0
  6
BYBLOCK
 62
     0
 10
0.0
 20
0.0
 30
0.0
 11
-1.0
 21
0.0
 31
0.0
  0
ENDBLK
  5
599
  8
0
  0
BLOCK
  8
0
  2
GENAXEH
 70
     0
 10
0.0
 20
0.0
 30
0.0
  3
GENAXEH
  1

  0
LINE
  5
D90
  8
0
 10
-1.0
 20
0.0
 30
0.0
 11
1.0
 21
0.0
 31
0.0
  0
ENDBLK
  5
D92
  8
0
  0
ENDSEC
  0
SECTION
  2
ENTITIES
  0
LINE
  5
80E
  8
250
 10
-68.951881408746104
 20
-20.162866204807528
 30
0.0
 11
-84.951881408746061
 21
-20.162866204807528
 31
0.0
1001
ITEMNAME
1000
LNSP2
  0
TEXT
  5
C59
  8
241
 10
-73.999997999999977
 20
42.0
 30
0.0
 40
4.0
  1
ST20-C0525C
  7
YOKO
 11
-73.999997999999977
 21
42.0
 31
0.0
 73
     1
  0
LINE
  5
E5F
  8
250
 10
-9.8585946760763914
 20
12.500000000000011
 30
0.0
 11
18.000000310512011
 21
12.5
 31
0.0
  0
LINE
  5
E60
  8
250
 10
17.000000310512011
 20
10.27
 30
0.0
 11
17.000000310512
 21
-4.7857150536627211
 31
0.0
  0
LINE
  5
E63
  8
250
 10
0.1414186016636165
 20
2.5000000000000142
 30
0.0
 11
11.00000338230768
 21
2.500000000000008
 31
0.0
  0
LINE
  5
E64
  8
250
 10
10.00000338230768
 20
4.7300000000000111
 30
0.0
 11
10.00000338230768
 21
6.960000000000008
 31
0.0
  0
LINE
  5
E66
  8
250
 10
10.00000338230768
 20
2.5000000000000102
 30
0.0
 11
10.00000338230768
 21
-2.5000000000000151
 31
0.0
  0
LINE
  5
E68
  8
250
 10
-71.366021999999987
 20
-10.0
 30
0.0
 11
-88.999997999999962
 21
-9.9999999999999911
 31
0.0
  0
LINE
  5
E69
  8
250
 10
-71.366021999999987
 20
10.000000000000011
 30
0.0
 11
-88.999997999999962
 21
10.000000000000011
 31
0.0
  0
LINE
  5
E6A
  8
250
 10
-87.999997999999962
 20
-7.7699999999999934
 30
0.0
 11
-87.999997999999962
 21
7.7700000000000191
 31
0.0
  0
TEXT
  5
E6E
  8
250
 10
-82.380452837317549
 20
-19.162866204807521
 30
0.0
 40
3.0
  1
ST20
  7
YOKO
1001
ITEMNAME
1000
LNSP3
1001
ACAD
1000
MTEXTBEGIN
1070
    73
1070
     1
1070
    44
1040
1.0
1070
    74
1070
     0
1000
MTEXTEND
  0
LINE
  5
E71
  8
250
 10
-24.99999799999997
 20
16.5
 30
0.0
 11
-24.99999799999997
 21
29.0
 31
0.0
  0
LINE
  5
E72
  8
250
 10
0.0
 20
2.5585749999999901
 30
0.0
 11
0.0000000000000016
 21
29.0
 31
0.0
  0
LINE
  5
E73
  8
250
 10
-22.769997999999958
 20
28.0
 30
0.0
 11
-2.229999999999996
 21
28.0
 31
0.0
  0
LINE
  5
E77
  8
250
 10
-72.999998000000005
 20
9.0566249999999968
 30
0.0
 11
-72.999998000000005
 21
29.0
 31
0.0
  0
LINE
  5
E78
  8
250
 10
-24.99999799999997
 20
16.5
 30
0.0
 11
-24.99999799999997
 21
29.0
 31
0.0
  0
LINE
  5
E79
  8
250
 10
-70.769998000000001
 20
28.0
 30
0.0
 11
-27.22999799999997
 21
28.0
 31
0.0
  0
TEXT
  5
E7D
  8
250
 10
-51.857140857142852
 20
29.0
 30
0.0
 40
3.0
  1
48
1001
ACAD
1000
MTEXTBEGIN
1070
    73
1070
     1
1070
    44
1040
1.0
1070
    74
1070
     0
1000
MTEXTEND
  0
LINE
  5
E7E
  8
250
 10
-27.22999799999997
 20
28.371666666666659
 30
0.0
 11
-24.99999799999997
 21
28.0
 31
0.0
  0
LINE
  5
E7F
  8
250
 10
-27.22999799999997
 20
27.62833333333333
 30
0.0
 11
-24.99999799999997
 21
28.0
 31
0.0
  0
LINE
  5
E80
  8
250
 10
-24.99999799999997
 20
28.0
 30
0.0
 11
-27.22999799999997
 21
28.0
 31
0.0
  0
LINE
  5
E81
  8
250
 10
-70.769998000000015
 20
27.62833333333333
 30
0.0
 11
-72.999998000000005
 21
28.0
 31
0.0
  0
LINE
  5
E82
  8
250
 10
-70.769998000000015
 20
28.371666666666659
 30
0.0
 11
-72.999998000000005
 21
28.0
 31
0.0
  0
LINE
  5
E83
  8
250
 10
-72.999998000000005
 20
28.0
 30
0.0
 11
-70.769998000000015
 21
28.0
 31
0.0
  0
TEXT
  5
E84
  8
250
 10
-15.35714185714283
 20
29.0
 30
0.0
 40
3.0
  1
25
1001
ACAD
1000
MTEXTBEGIN
1070
    73
1070
     1
1070
    44
1040
1.0
1070
    74
1070
     0
1000
MTEXTEND
  0
LINE
  5
E85
  8
250
 10
-2.229999999999996
 20
28.371666666666659
 30
0.0
 11
0.0000000000000016
 21
28.0
 31
0.0
  0
LINE
  5
E86
  8
250
 10
-2.229999999999996
 20
27.62833333333333
 30
0.0
 11
0.0000000000000016
 21
28.0
 31
0.0
  0
LINE
  5
E87
  8
250
 10
0.0000000000000016
 20
28.0
 30
0.0
 11
-2.229999999999996
 21
28.0
 31
0.0
  0
LINE
  5
E88
  8
250
 10
-22.769997999999958
 20
27.62833333333333
 30
0.0
 11
-24.99999799999997
 21
28.0
 31
0.0
  0
LINE
  5
E89
  8
250
 10
-22.769997999999958
 20
28.371666666666659
 30
0.0
 11
-24.99999799999997
 21
28.0
 31
0.0
  0
LINE
  5
E8A
  8
250
 10
-24.99999799999997
 20
28.0
 30
0.0
 11
-22.769997999999958
 21
28.0
 31
0.0
  0
LINE
  5
E8B
  8
250
 10
-64.19934786966229
 20
-11.93123665043929
 30
0.0
 11
-68.951881408746104
 21
-20.162866204807528
 31
0.0
1001
ACAD
1000
DSTYLE
1002
{
1070
     5
1000
OPEN
1070
    78
1070
     8
1070
   140
1040
3.0
1002
}
  0
LINE
  5
E8C
  8
250
 10
-64.521220644735521
 20
-11.745403317105961
 30
0.0
 11
-63.084347869662302
 21
-10.0
 31
0.0
  0
LINE
  5
E8D
  8
250
 10
-63.87747509458908
 20
-12.11706998377263
 30
0.0
 11
-63.084347869662302
 21
-10.0
 31
0.0
  0
LINE
  5
E8E
  8
250
 10
-63.084347869662302
 20
-10.0
 30
0.0
 11
-64.19934786966229
 21
-11.93123665043929
 31
0.0
  0
TEXT
  5
E8F
  8
250
 10
-88.999997999999962
 20
-4.0714285714285721
 30
0.0
 40
3.0
  1
\U+2205
 50
90.0
1001
ACAD
1000
MTEXTBEGIN
1070
    73
1070
     1
1070
    44
1040
1.0
1070
    74
1070
     0
1000
MTEXTEND
  0
TEXT
  5
E90
  8
250
 10
-88.999997999999962
 20
-1.3571428571428581
 30
0.0
 40
3.0
  1
20
 50
90.0
1001
ACAD
1000
MTEXTBEGIN
1070
    73
1070
     1
1070
    44
1040
1.0
1070
    74
1070
     0
1000
MTEXTEND
  0
LINE
  5
E91
  8
250
 10
-88.371664666666646
 20
7.7700000000000093
 30
0.0
 11
-87.999997999999962
 21
10.000000000000011
 31
0.0
  0
LINE
  5
E92
  8
250
 10
-87.628331333333307
 20
7.7700000000000093
 30
0.0
 11
-87.999997999999962
 21
10.000000000000011
 31
0.0
  0
LINE
  5
E93
  8
250
 10
-87.999997999999962
 20
10.000000000000011
 30
0.0
 11
-87.999997999999962
 21
7.7700000000000093
 31
0.0
  0
LINE
  5
E94
  8
250
 10
-87.628331333333307
 20
-7.769999999999996
 30
0.0
 11
-87.999997999999962
 21
-9.9999999999999911
 31
0.0
  0
LINE
  5
E95
  8
250
 10
-88.371664666666646
 20
-7.769999999999996
 30
0.0
 11
-87.999997999999962
 21
-9.9999999999999911
 31
0.0
  0
LINE
  5
E96
  8
250
 10
-87.999997999999962
 20
-9.9999999999999911
 30
0.0
 11
-87.999997999999962
 21
-7.769999999999996
 31
0.0
  0
LINE
  5
E97
  8
250
 10
10.371670048974339
 20
4.7300000000000084
 30
0.0
 11
10.00000338230768
 21
2.5000000000000102
 31
0.0
  0
LINE
  5
E98
  8
250
 10
9.628336715641014
 20
4.7300000000000084
 30
0.0
 11
10.00000338230768
 21
2.5000000000000102
 31
0.0
  0
LINE
  5
E99
  8
250
 10
10.00000338230768
 20
2.5000000000000102
 30
0.0
 11
10.00000338230768
 21
4.7300000000000084
 31
0.0
  0
TEXT
  5
E9A
  8
250
 10
9.1190223406546522
 20
-5.6613973408396161
 30
0.0
 40
3.0
  1
\U+2205
 50
90.0
  0
TEXT
  5
E9B
  8
250
 10
9.1190223406546522
 20
-2.9471116265539021
 30
0.0
 40
3.0
  1
5
 50
90.0
  0
TEXT
  5
E9C
  8
250
 10
16.000000310511979
 20
-4.0714293393770049
 30
0.0
 40
3.0
  1
\U+2205
 50
90.0
1001
ACAD
1000
MTEXTBEGIN
1070
    73
1070
     1
1070
    44
1040
1.0
1070
    74
1070
     0
1000
MTEXTEND
  0
TEXT
  5
E9D
  8
250
 10
16.000000310511979
 20
-1.357143625091292
 30
0.0
 40
3.0
  1
25
 50
90.0
1001
ACAD
1000
MTEXTBEGIN
1070
    73
1070
     1
1070
    44
1040
1.0
1070
    74
1070
     0
1000
MTEXTEND
  0
LINE
  5
E9E
  8
250
 10
16.628333643845341
 20
10.27
 30
0.0
 11
17.000000310512011
 21
12.5
 31
0.0
  0
LINE
  5
E9F
  8
250
 10
17.37166697717867
 20
10.27
 30
0.0
 11
17.000000310512011
 21
12.5
 31
0.0
  0
LINE
  5
EA0
  8
250
 10
17.000000310512011
 20
12.5
 30
0.0
 11
17.000000310512011
 21
10.27
 31
0.0
  0
LINE
  5
105C
  8
245
 10
-74.729114999999979
 20
0.0
 30
0.0
 11
1.7625349999999851
 21
0.0
 31
0.0
  0
LINE
  5
105D
  8
240
 10
-24.499998000000001
 20
-16.5
 30
0.0
 11
-18.39283800000003
 21
-16.5
 31
0.0
  0
LINE
  5
105E
  8
240
 10
-24.499998000000001
 20
16.5
 30
0.0
 11
-18.352820999999992
 21
16.5
 31
0.0
  0
LINE
  5
105F
  8
241
 10
-24.999998000000019
 20
10.00000000000005
 30
0.0
 11
-24.999998000000112
 21
-9.999999999999984
 31
0.0
  0
LINE
  5
1060
  8
241
 10
-70.999998000000019
 20
-10.0
 30
0.0
 11
-70.999998000000019
 21
9.981716000000004
 31
0.0
  0
LINE
  5
1061
  8
240
 10
-72.999998000000005
 20
8.5566249999999968
 30
0.0
 11
-72.999998000000005
 21
0.0
 31
0.0
  0
LINE
  5
1062
  8
240
 10
-70.999998000000019
 20
-10.0
 30
0.0
 11
-24.999997999999991
 21
-9.999999999999984
 31
0.0
  0
LINE
  5
1063
  8
240
 10
-72.999998000000005
 20
-8.5566259999999943
 30
0.0
 11
-72.999998000000005
 21
0.0
 31
0.0
  0
ARC
  5
1064
  8
240
 10
-72.499998000000005
 20
-8.5566259999999943
 30
0.0
 40
0.5
 50
180.0
 51
240.0000049999999
  0
LINE
  5
1065
  8
240
 10
-71.116022000000001
 20
-9.9330140000000124
 30
0.0
 11
-72.749998000000005
 21
-8.9896400000000085
 31
0.0
  0
ARC
  5
1066
  8
240
 10
-70.866022000000001
 20
-9.5
 30
0.0
 40
0.5
 50
240.00000600000061
 51
270.0
  0
ARC
  5
1067
  8
240
 10
-24.499998000000001
 20
-16.0
 30
0.0
 40
0.5
 50
180.0
 51
270.0
  0
LINE
  5
1068
  8
240
 10
-24.999997999999991
 20
-16.0
 30
0.0
 11
-24.999997999999991
 21
-9.999999999999984
 31
0.0
  0
LINE
  5
1069
  8
240
 10
-70.866022000000001
 20
10.0
 30
0.0
 11
-24.999997999999909
 21
10.000000000000011
 31
0.0
  0
ARC
  5
106A
  8
240
 10
-72.499998000000005
 20
8.5566249999999968
 30
0.0
 40
0.5
 50
120.000004000001
 51
180.0
  0
LINE
  5
106B
  8
240
 10
-72.749998000000005
 20
8.989639000000011
 30
0.0
 11
-71.116022000000001
 21
9.9330129999999865
 31
0.0
  0
ARC
  5
106C
  8
240
 10
-70.866022000000001
 20
9.5
 30
0.0
 40
0.5
 50
90.0
 51
120.00000300000021
  0
ARC
  5
106D
  8
240
 10
-24.499998000000001
 20
16.0
 30
0.0
 40
0.5
 50
90.0
 51
180.0
  0
LINE
  5
106E
  8
240
 10
-24.999997999999991
 20
16.0
 30
0.0
 11
-24.999997999999909
 21
10.000000000000011
 31
0.0
  0
TEXT
  5
106F
  8
247
 10
-20.95839636123431
 20
-4.0000000000001821
 30
0.0
 40
2.0
  1
ST20-C0525
 50
90.0
 41
0.7
  7
YOKO
 11
-20.95839636123431
 21
-4.0000000000001821
 31
0.0
 73
     1
  0
LINE
  5
1070
  8
241
 10
-12.44999799999999
 20
-14.225495999999991
 30
0.0
 11
-12.44999799999999
 21
3.150000000000003
 31
0.0
  0
LINE
  5
1071
  8
241
 10
-18.299999
 20
9.0000009999999691
 30
0.0
 11
-18.299999
 21
-16.491306000000009
 31
0.0
  0
ARC
  5
1072
  8
241
 10
-7.6000280000000009
 20
3.9568839999999721
 30
0.0
 40
4.0
 50
225.0
 51
279.99997200000041
  0
LINE
  5
1073
  8
240
 10
-0.1999979999999795
 20
-1.7928939999999871
 30
0.0
 11
-0.1999979999999795
 21
1.7928929999999621
 31
0.0
  0
ARC
  5
1074
  8
240
 10
-0.6999979999999937
 20
-1.7928939999999871
 30
0.0
 40
0.5
 50
314.99999999999989
 51
0.0
  0
LINE
  5
1075
  8
240
 10
-18.213347999999979
 20
-16.466672999999979
 30
0.0
 11
-12.549032
 21
-14.288091
 31
0.0
  0
LINE
  5
1076
  8
240
 10
-21.299999
 20
-16.5
 30
0.0
 11
-18.39283800000003
 21
-16.5
 31
0.0
  0
ARC
  5
1077
  8
240
 10
-18.39283800000003
 20
-16.0
 30
0.0
 40
0.5
 50
270.0
 51
291.03750700000018
  0
LINE
  5
1078
  8
240
 10
-0.3464440000000124
 20
-2.146447000000022
 30
0.0
 11
-12.374969000000011
 21
-14.174970999999999
 31
0.0
  0
LINE
  5
107C
  8
247
 10
-23.106039546601771
 20
-8.6677485270259655
 30
0.0
 11
-23.106039546601771
 21
-8.0622875895259636
 31
0.0
  0
POLYLINE
  5
107D
  8
247
 66
     1
 10
0.0
 20
0.0
 30
0.0
 70
     1
1001
HATCH_DISTANCE
1040
1.0
1001
HATCH_DISPLAY
1070
     0
1001
HATCH_TYPE
1070
     7
  0
VERTEX
  5
107E
  8
247
 10
-23.106039546601771
 20
-8.6677485270259655
 30
0.0
  0
VERTEX
  5
107F
  8
247
 10
-22.84996142160178
 20
-8.7411811442134564
 30
0.0
  0
VERTEX
  5
1080
  8
247
 10
-22.84996142160178
 20
-8.6564106364009632
 30
0.0
  0
VERTEX
  5
1081
  8
247
 10
-21.010814662568588
 20
-9.183780753588481
 30
0.0
  0
VERTEX
  5
1082
  8
247
 10
-21.010814662568588
 20
-8.6630815348384669
 30
0.0
  0
VERTEX
  5
1083
  8
247
 10
-23.106039546601771
 20
-8.0622875895259636
 30
0.0
  0
SEQEND
  5
1084
  8
247
  0
POLYLINE
  5
1085
  8
247
 66
     1
 10
0.0
 20
0.0
 30
0.0
 70
     1
1001
ACAD
1000
ASC_BOUNDS
1002
{
1070
    19
1005
107A
1002
}
  0
VERTEX
  5
1086
  8
247
 10
-23.106039546601771
 20
-8.6677485270259655
 30
0.0
  0
VERTEX
  5
1087
  8
247
 10
-22.84996142160178
 20
-8.7411811442134564
 30
0.0
  0
VERTEX
  5
1088
  8
247
 10
-22.84996142160178
 20
-8.6564106364009632
 30
0.0
  0
VERTEX
  5
1089
  8
247
 10
-21.010814662568588
 20
-9.183780753588481
 30
0.0
  0
VERTEX
  5
108A
  8
247
 10
-21.010814662568588
 20
-8.6630815348384669
 30
0.0
  0
VERTEX
  5
108B
  8
247
 10
-23.106039546601771
 20
-8.0622875895259636
 30
0.0
  0
SEQEND
  5
108C
  8
247
  0
LINE
  5
108D
  8
247
 10
-21.010814662568588
 20
-8.6630815348384669
 30
0.0
 11
-23.106039546601771
 21
-8.0622875895259636
 31
0.0
  0
LINE
  5
108E
  8
247
 10
-20.66160763731007
 20
-10.977013175463441
 30
0.0
 11
-20.66160763731007
 21
-6.2511079020259759
 31
0.0
1001
ACAD
1000
ASC_BOUNDS
1002
{
1070
    19
1005
1079
1002
}
  0
LINE
  5
108F
  8
247
 10
-20.894412318818581
 20
-10.977013175463441
 30
0.0
 11
-20.894412318818581
 21
-6.2511079020259759
 31
0.0
1001
ACAD
1000
ASC_BOUNDS
1002
{
1070
    19
1005
1079
1002
}
  0
ARC
  5
1090
  8
247
 10
-21.767421382539268
 20
-7.453170402025961
 30
0.0
 40
0.756615234375
 50
253.99975070172931
 51
34.963873291630136
1001
ACAD
1000
ASC_BOUNDS
1002
{
1070
    19
1005
107B
1002
}
  0
ARC
  5
1091
  8
247
 10
-21.883823726289268
 20
-10.977013175463441
 30
0.0
 40
0.9894111328124999
 50
180.0
 51
0.0
1001
ACAD
1000
ASC_BOUNDS
1002
{
1070
    19
1005
1079
1002
}
  0
ARC
  5
1092
  8
247
 10
-21.883823726289268
 20
-10.977013175463441
 30
0.0
 40
1.2222158203124971
 50
180.0
 51
0.0
1001
ACAD
1000
ASC_BOUNDS
1002
{
1070
    19
1005
1079
1002
}
  0
LINE
  5
1093
  8
247
 10
-21.010814662568588
 20
-9.183780753588481
 30
0.0
 11
-21.010814662568588
 21
-8.6630815348384669
 31
0.0
  0
LINE
  5
1094
  8
247
 10
-21.054450546737929
 20
-9.6676538489191834
 30
0.0
 11
-21.371711470057502
 21
-9.3503929255996194
 31
0.0
  0
LINE
  5
1095
  8
247
 10
-21.010814662568588
 20
-10.74581523823567
 30
0.0
 11
-21.672855550901559
 21
-10.083774349902679
 31
0.0
  0
LINE
  5
1096
  8
247
 10
-21.010814662568588
 20
-10.487183861948941
 30
0.0
 11
-21.310253374662
 21
-10.187745149855481
 31
0.0
  0
LINE
  5
1097
  8
247
 10
-21.010814662568571
 20
-9.9699211093753473
 30
0.0
 11
-21.6689743175003
 21
-9.3117614544436265
 31
0.0
  0
LINE
  5
1098
  8
247
 10
-21.9359496624228
 20
-10.008336012710631
 30
0.0
 11
-21.270583231363609
 21
-10.19911997549981
 31
0.0
  0
ARC
  5
1099
  8
247
 10
-21.616100093476788
 20
-10.148485831713471
 30
0.0
 40
0.3492072715759277
 50
351.66285421114799
 51
156.33819215911359
  0
LINE
  5
109A
  8
247
 10
-21.010814662568588
 20
-10.228552485662149
 30
0.0
 11
-21.86502799237924
 21
-9.3743391558514304
 31
0.0
  0
LINE
  5
109B
  8
247
 10
-21.010814662568588
 20
-10.85485399577594
 30
0.0
 11
-21.010814662568588
 21
-9.8887602457759556
 31
0.0
  0
LINE
  5
109C
  8
247
 10
-21.220547183531028
 20
-10.79471409356003
 30
0.0
 11
-22.205568217583469
 21
-9.8096930595075928
 31
0.0
  0
LINE
  5
109D
  8
247
 10
-21.583154717265721
 20
-10.690737936112081
 30
0.0
 11
-22.39807122613734
 21
-9.8758214272405667
 31
0.0
  0
ARC
  5
109E
  8
247
 10
-21.592817866914249
 20
-9.8887602457759556
 30
0.0
 40
0.5820029296875
 50
0.0
 51
130.3298406541675
  0
LINE
  5
109F
  8
247
 10
-21.690666078292161
 20
-9.8073324462253311
 30
0.0
 11
-22.454042469407511
 21
-9.0439560551099998
 31
0.0
  0
LINE
  5
10A0
  8
247
 10
-22.84996142160178
 20
-8.7411811442134564
 30
0.0
 11
-23.106039546601771
 21
-8.6677485270259655
 31
0.0
  0
LINE
  5
10A1
  8
247
 10
-22.84996142160178
 20
-8.7411811442134564
 30
0.0
 11
-22.84996142160178
 21
-8.6564106364009632
 31
0.0
  0
LINE
  5
10A2
  8
247
 10
-22.840593627683401
 20
-9.6919304019812529
 30
0.0
 11
-23.080691532042572
 21
-9.4518324976220924
 31
0.0
  0
LINE
  5
10A3
  8
247
 10
-22.873234859101721
 20
-10.435183299423279
 30
0.0
 11
-23.106039546601711
 21
-10.202378611923271
 31
0.0
  0
LINE
  5
10A4
  8
247
 10
-23.106039546601771
 20
-10.496242667650931
 30
0.0
 11
-22.873234859101778
 21
-10.56299559733842
 31
0.0
1001
ACAD
1000
ASC_BOUNDS
1002
{
1070
    19
1005
1079
1002
}
  0
LINE
  5
10A5
  8
247
 10
-23.106039546601771
 20
-10.375155753588301
 30
0.0
 11
-22.873234859101778
 21
-10.44190868327621
 31
0.0
  0
LINE
  5
10A6
  8
247
 10
-23.106039546601771
 20
-10.375155753588301
 30
0.0
 11
-23.106039546601679
 21
-9.6241386319105686
 31
0.0
  0
LINE
  5
10A7
  8
247
 10
-23.106039546601771
 20
-10.977013175463441
 30
0.0
 11
-23.106039546601771
 21
-10.496242667650931
 31
0.0
1001
ACAD
1000
ASC_BOUNDS
1002
{
1070
    19
1005
1079
1002
}
  0
LINE
  5
10A8
  8
247
 10
-22.704330215158439
 20
-9.5695624382193767
 30
0.0
 11
-22.994620455319581
 21
-9.2792721980583224
 31
0.0
  0
LINE
  5
10A9
  8
247
 10
-22.873234859101778
 20
-10.44190868327621
 30
0.0
 11
-22.873234859101029
 21
-10.320812980151199
 31
0.0
  0
LINE
  5
10AA
  8
247
 10
-22.873234859101778
 20
-10.977013175463441
 30
0.0
 11
-22.873234859101778
 21
-10.56299559733842
 31
0.0
1001
ACAD
1000
ASC_BOUNDS
1002
{
1070
    19
1005
1079
1002
}
  0
LINE
  5
10AB
  8
247
 10
-22.670977318469902
 20
-10.37880946376837
 30
0.0
 11
-23.106039546601711
 21
-9.9437472356365184
 31
0.0
  0
LINE
  5
10AC
  8
247
 10
-22.475537790020891
 20
-9.5397234870701872
 30
0.0
 11
-22.865113959671611
 21
-9.1501473174194956
 31
0.0
  0
ARC
  5
10AD
  8
247
 10
-22.52403661691428
 20
-9.6217397379634662
 30
0.0
 40
0.5820078735351563
 50
17.669577547398951
 51
180.2361598426715
  0
LINE
  5
10AE
  8
247
 10
-22.308369784735149
 20
-10.48278562121625
 30
0.0
 11
-23.106039546601679
 21
-9.6851158593497608
 31
0.0
  0
LINE
  5
10AF
  8
247
 10
-21.859016865918331
 20
-9.897613034885909
 30
0.0
 11
-22.69210348935496
 21
-9.06452641144935
 31
0.0
  0
LINE
  5
10B0
  8
247
 10
-21.010814662568588
 20
-9.183780753588481
 30
0.0
 11
-22.84996142160178
 21
-8.6564106364009632
 31
0.0
  0
LINE
  5
10B1
  8
247
 10
-22.867149933156071
 20
-9.7413182834646914
 30
0.0
 11
-22.201803236944521
 21
-9.9320991076681633
 31
0.0
  0
ARC
  5
10B2
  8
247
 10
-22.54731005441424
 20
-9.8814653239009687
 30
0.0
 40
0.349197280883789
 50
351.66260168792923
 51
156.3381550951899
  0
LINE
  5
10B3
  8
247
 10
-21.94576225100046
 20
-10.58676177866419
 30
0.0
 11
-22.760675327904941
 21
-9.77184870175968
 31
0.0
  0
LINE
  5
10B4
  8
247
 10
-21.010814662568588
 20
-10.85485399577594
 30
0.0
 11
-22.873234859101029
 21
-10.320812980151199
 31
0.0
  0
ARC
  5
10B5
  8
240
 10
-12.728521999999989
 20
-13.821418000000021
 30
0.0
 40
0.5
 50
291.03750700000018
 51
314.99999999999989
  0
ARC
  5
10B6
  8
247
 10
-21.883823726289268
 20
-6.2511079020259759
 30
0.0
 40
1.2222158203124971
 50
0.0
 51
194.77079396609301
1001
ACAD
1000
ASC_BOUNDS
1002
{
1070
    19
1005
1079
1002
}
  0
ARC
  5
10B7
  8
247
 10
-21.883823726289268
 20
-6.2511079020259759
 30
0.0
 40
0.9894111328124999
 50
0.0
 51
194.12743649641109
1001
ACAD
1000
ASC_BOUNDS
1002
{
1070
    19
1005
1079
1002
}
  0
LINE
  5
10B8
  8
247
 10
-21.443966304414278
 20
-7.243190909838475
 30
0.0
 11
-21.965307124726781
 21
-7.0936977457759669
 31
0.0
1001
ACAD
1000
ASC_BOUNDS
1002
{
1070
    19
1005
107B
1002
}
  0
LINE
  5
10B9
  8
247
 10
-21.965307124726781
 20
-7.2874438395259631
 30
0.0
 11
-21.965307124726781
 21
-7.0936977457759669
 31
0.0
1001
ACAD
1000
ASC_BOUNDS
1002
{
1070
    19
1005
107B
1002
}
  0
LINE
  5
10BA
  8
247
 10
-21.147370326631052
 20
-7.0195883707759634
 30
0.0
 11
-21.010814662568588
 21
-6.8830239176509709
 31
0.0
1001
ACAD
1000
ASC_BOUNDS
1002
{
1070
    19
1005
107B
1002
}
  0
LINE
  5
10BB
  8
247
 10
-21.965307124726781
 20
-7.2874438395259631
 30
0.0
 11
-22.19811181222677
 21
-7.2206909098384813
 31
0.0
1001
ACAD
1000
ASC_BOUNDS
1002
{
1070
    19
1005
107B
1002
}
  0
LINE
  5
10BC
  8
247
 10
-22.19811181222677
 20
-7.2206909098384813
 30
0.0
 11
-22.19811181222677
 21
-6.5425707926509631
 31
0.0
1001
ACAD
1000
ASC_BOUNDS
1002
{
1070
    19
1005
107B
1002
}
  0
LINE
  5
10BD
  8
247
 10
-21.010814662568588
 20
-6.8830239176509709
 30
0.0
 11
-22.19811181222677
 21
-6.5425707926509631
 31
0.0
1001
ACAD
1000
ASC_BOUNDS
1002
{
1070
    19
1005
107B
1002
}
  0
POLYLINE
  5
10BE
  8
247
 66
     1
 10
0.0
 20
0.0
 30
0.0
 70
     1
1001
HATCH_DISTANCE
1040
1.0
1001
HATCH_DISPLAY
1070
     0
1001
HATCH_TYPE
1070
     7
  0
VERTEX
  5
10BF
  8
247
 10
-22.84331689035178
 20
-6.4926049723384676
 30
0.0
  0
VERTEX
  5
10C0
  8
247
 10
-23.065653804414261
 20
-6.5627153239009717
 30
0.0
  0
VERTEX
  5
10C1
  8
247
 10
-23.065653804414261
 20
-6.5627153239009717
 30
0.0
  0
VERTEX
  5
10C2
  8
247
 10
-22.84331689035178
 20
-6.4926049723384676
 30
0.0
  0
SEQEND
  5
10C3
  8
247
  0
POLYLINE
  5
10C4
  8
247
 66
     1
 10
0.0
 20
0.0
 30
0.0
 70
     1
  0
VERTEX
  5
10C5
  8
247
 10
-22.84331689035178
 20
-6.4926049723384676
 30
0.0
  0
VERTEX
  5
10C6
  8
247
 10
-23.065653804414261
 20
-6.5627153239009717
 30
0.0
  0
VERTEX
  5
10C7
  8
247
 10
-23.065653804414261
 20
-6.5627153239009717
 30
0.0
  0
VERTEX
  5
10C8
  8
247
 10
-22.84331689035178
 20
-6.4926049723384676
 30
0.0
  0
SEQEND
  5
10C9
  8
247
  0
LINE
  5
10CA
  8
247
 10
-22.84331689035178
 20
-6.4926049723384676
 30
0.0
 11
-23.065653804414261
 21
-6.5627153239009717
 31
0.0
1001
ACAD
1000
ASC_BOUNDS
1002
{
1070
    19
1005
1079
1002
}
  0
POLYLINE
  5
10CB
  8
247
 66
     1
 10
0.0
 20
0.0
 30
0.0
 70
     1
1001
HATCH_DISTANCE
1040
1.0
1001
HATCH_DISPLAY
1070
     0
1001
HATCH_TYPE
1070
     7
  0
VERTEX
  5
10CC
  8
247
 10
-22.84331689035178
 20
-6.4926049723384676
 30
0.0
  0
VERTEX
  5
10CD
  8
247
 10
-23.065653804414261
 20
-6.5627153239009717
 30
0.0
  0
VERTEX
  5
10CE
  8
247
 10
-23.065653804414261
 20
-6.5627153239009717
 30
0.0
  0
VERTEX
  5
10CF
  8
247
 10
-22.84331689035178
 20
-6.4926049723384676
 30
0.0
  0
SEQEND
  5
10D0
  8
247
  0
POLYLINE
  5
10D1
  8
247
 66
     1
 10
0.0
 20
0.0
 30
0.0
 70
     1
  0
VERTEX
  5
10D2
  8
247
 10
-22.84331689035178
 20
-6.4926049723384676
 30
0.0
  0
VERTEX
  5
10D3
  8
247
 10
-23.065653804414261
 20
-6.5627153239009717
 30
0.0
  0
VERTEX
  5
10D4
  8
247
 10
-23.065653804414261
 20
-6.5627153239009717
 30
0.0
  0
VERTEX
  5
10D5
  8
247
 10
-22.84331689035178
 20
-6.4926049723384676
 30
0.0
  0
SEQEND
  5
10D6
  8
247
  0
LINE
  5
10D7
  8
247
 10
-22.808310054414271
 20
-6.6036196207759721
 30
0.0
 11
-23.030646968476809
 21
-6.673729972338462
 31
0.0
1001
ACAD
1000
ASC_BOUNDS
1002
{
1070
    19
1005
107B
1002
}
  0
ARC
  5
10D8
  8
247
 10
-21.883823726289268
 20
-6.2511079020259759
 30
0.0
 40
1.222216369628905
 50
200.22964506332011
 51
208.57168892371649
1001
ACAD
1000
ASC_BOUNDS
1002
{
1070
    19
1005
107B
1002
}
  0
ARC
  5
10D9
  8
247
 10
-22.60551122628927
 20
-7.164414542650972
 30
0.0
 40
0.2444448051452637
 50
91.710121382062752
 51
253.998398354447
1001
ACAD
1000
ASC_BOUNDS
1002
{
1070
    19
1005
107B
1002
}
  0
ARC
  5
10DA
  8
247
 10
-21.883823726289268
 20
-6.2511079020259759
 30
0.0
 40
0.9894138793945311
 50
200.8721834020736
 51
222.54194893738739
1001
ACAD
1000
ASC_BOUNDS
1002
{
1070
    19
1005
107B
1002
}
  0
ARC
  5
10DB
  8
247
 10
-21.727642085664279
 20
-6.2161450114009682
 30
0.0
 40
1.9799648437499999
 50
245.20517736984061
 51
262.79482596205219
1001
ACAD
1000
ASC_BOUNDS
1002
{
1070
    19
1005
107B
1002
}
  0
ARC
  5
10DC
  8
247
 10
-21.511343257539249
 20
-7.478166495775965
 30
0.0
 40
0.2444446334838867
 50
254.0002730571824
 51
74.000273057182383
1001
ACAD
1000
ASC_BOUNDS
1002
{
1070
    19
1005
107B
1002
}
  0
LINE
  5
10DD
  8
247
 10
-21.578720210664262
 20
-7.713142081713471
 30
0.0
 11
-22.67289696847677
 21
-7.3993901285884629
 31
0.0
1001
ACAD
1000
ASC_BOUNDS
1002
{
1070
    19
1005
107B
1002
}
  0
ARC
  5
10DE
  8
247
 10
-22.349433101289279
 20
-7.2862836832759657
 30
0.0
 40
0.7566075439453125
 50
143.44401219705779
 51
254.00018438768529
1001
ACAD
1000
ASC_BOUNDS
1002
{
1070
    19
1005
107B
1002
}
  0
LINE
  5
10DF
  8
241
 10
-10.60255500000002
 20
12.74396000000001
 30
0.0
 11
-0.0585779999999971
 21
2.1999969999999651
 31
0.0
  0
LINE
  5
10E0
  8
241
 10
-7.3198260000000017
 20
0.6000759999999731
 30
0.0
 11
-0.1645860000000141
 21
1.861735000000009
 31
0.0
  0
LINE
  5
10E1
  8
241
 10
-6.9054370000000018
 20
0.0176529999999673
 30
0.0
 11
-0.1999979999999795
 21
1.199999999999988
 31
0.0
  0
LINE
  5
10E2
  8
241
 10
-22.199997999999979
 20
16.5
 30
0.0
 11
-22.199997999999979
 21
14.55685400000001
 31
0.0
  0
LINE
  5
10E3
  8
240
 10
-18.213347999999979
 20
16.466671999999981
 30
0.0
 11
-12.549032
 21
14.288089999999981
 31
0.0
  0
LINE
  5
10E4
  8
241
 10
-7.494689000000025
 20
0.6558379999999886
 30
0.0
 11
-18.113229000000011
 21
11.27438700000001
 31
0.0
  0
LINE
  5
10E5
  8
241
 10
-10.42845500000001
 20
1.1284569999999949
 30
0.0
 11
-21.02842500000002
 21
11.728427000000011
 31
0.0
  0
LINE
  5
10E6
  8
241
 10
-18.006752999999989
 20
11.61159599999999
 30
0.0
 11
-10.954857000000001
 21
12.855040000000001
 31
0.0
  0
LINE
  5
10E7
  8
240
 10
-11.040020999999991
 20
12.840023
 30
0.0
 11
-12.34547600000001
 21
14.14547799999996
 31
0.0
  0
ARC
  5
10E8
  8
241
 10
-18.199997999999979
 20
14.55685400000001
 30
0.0
 40
4.0
 50
180.0
 51
225.0
  0
ARC
  5
10E9
  8
241
 10
-17.970851
 20
11.41484499999998
 30
0.0
 40
0.2
 50
100.0000009999986
 51
224.99999700000009
  0
ARC
  5
10EA
  8
240
 10
-12.728521999999989
 20
13.82141699999999
 30
0.0
 40
0.5
 50
45.00000000000005
 51
68.962492999999839
  0
ARC
  5
10EB
  8
241
 10
-7.3532670000000087
 20
0.7972609999999918
 30
0.0
 40
0.2
 50
224.99999700000009
 51
280.00002599999999
  0
ARC
  5
10EC
  8
241
 10
-10.885396999999999
 20
12.46111699999997
 30
0.0
 40
0.4
 50
45.000040000001022
 51
100.0000320000003
  0
ARC
  5
10ED
  8
240
 10
-18.39283800000003
 20
16.0
 30
0.0
 40
0.5
 50
68.962492999999839
 51
90.0
  0
ARC
  5
10EE
  8
241
 10
-0.2000000000000135
 20
2.0585749999999901
 30
0.0
 40
0.2
 50
279.80084100000101
 51
45.000029999999917
  0
ARC
  5
10EF
  8
240
 10
-0.6999979999999937
 20
1.7928929999999621
 30
0.0
 40
0.5
 50
0.0
 51
7.1137459999995389
  0
ARC
  5
10F0
  8
240
 10
-0.6999979999999937
 20
1.7928929999999621
 30
0.0
 40
0.5
 50
0.0
 51
7.1137459999995389
  0
ARC
  5
10F1
  8
240
 10
-0.6999979999999937
 20
1.7928929999999621
 30
0.0
 40
0.5
 50
0.0
 51
7.1137459999995389
  0
LINE
  5
10F4
  8
247
 10
-20.726835353921359
 20
-5.8571670211471272
 30
0.0
 11
-21.48988284541042
 21
-5.094119529658065
 31
0.0
  0
LINE
  5
10F5
  8
247
 10
-21.505926058389392
 20
-5.336707692965879
 30
0.0
 11
-21.811606234074649
 21
-5.03102751728062
 31
0.0
  0
LINE
  5
10F6
  8
247
 10
-20.663743341543899
 20
-6.1788904098113662
 30
0.0
 11
-20.969423517229171
 21
-5.8732102341260974
 31
0.0
  0
LINE
  5
10F7
  8
247
 10
-21.838531127660652
 20
-5.2627339999814282
 30
0.0
 11
-22.059658612261551
 21
-5.0416065153805292
 31
0.0
  0
LINE
  5
10F8
  8
247
 10
-20.66160763731007
 20
-6.4396574903320092
 30
0.0
 11
-20.895449824244722
 21
-6.2058153033973582
 31
0.0
  0
LINE
  5
10F9
  8
247
 10
-22.078798510705461
 20
-5.281097993223403
 30
0.0
 11
-22.268792989034161
 21
-5.091103514894697
 31
0.0
  0
LINE
  5
10FA
  8
247
 10
-20.66160763731007
 20
-6.6982888666187881
 30
0.0
 11
-20.89441231881856
 21
-6.4654841851102969
 31
0.0
  0
LINE
  5
10FB
  8
247
 10
-22.275851801644929
 20
-5.342676078570725
 30
0.0
 11
-22.450386999386371
 21
-5.1681408808292844
 31
0.0
  0
LINE
  5
10FC
  8
247
 10
-20.66160763731007
 20
-6.9569202429055821
 30
0.0
 11
-20.89441231881856
 21
-6.7241155613970891
 31
0.0
  0
LINE
  5
10FD
  8
247
 10
-22.442582467615779
 20
-5.4345767888866652
 30
0.0
 11
-22.609510010565231
 21
-5.2676492459372142
 31
0.0
  0
LINE
  5
10FE
  8
247
 10
-20.66160763731007
 20
-7.2155516191923743
 30
0.0
 11
-20.89441231881856
 21
-6.982746937683876
 31
0.0
  0
LINE
  5
10FF
  8
247
 10
-22.583872418081899
 20
-5.5519182147073352
 30
0.0
 11
-22.74849021641726
 21
-5.3873004163719713
 31
0.0
  0
LINE
  5
1100
  8
247
 10
-20.66160763731007
 20
-7.4741829954791612
 30
0.0
 11
-20.89441231881856
 21
-7.2413783139706691
 31
0.0
  0
LINE
  5
1101
  8
247
 10
-22.70105228406106
 20
-5.6933697250149731
 30
0.0
 11
-22.86801139061641
 21
-5.5264106184596198
 31
0.0
  0
LINE
  5
1102
  8
247
 10
-20.66160763731007
 20
-7.7328143717659659
 30
0.0
 11
-20.894412318818571
 21
-7.5000096902574631
 31
0.0
  0
LINE
  5
1103
  8
247
 10
-22.79277279218465
 20
-5.8602805931781683
 30
0.0
 11
-22.967380339750221
 21
-5.6856730456126021
 31
0.0
  0
LINE
  5
1104
  8
247
 10
-20.66160763731007
 20
-7.9914457480527474
 30
0.0
 11
-20.89441231881856
 21
-7.758641066544258
 31
0.0
  0
LINE
  5
1105
  8
247
 10
-22.854120250794701
 20
-6.0575645108549079
 30
0.0
 11
-23.044255600674031
 21
-5.8674291609755747
 31
0.0
  0
LINE
  5
1106
  8
247
 10
-20.66160763731007
 20
-8.2500771243395334
 30
0.0
 11
-20.89441231881856
 21
-8.0172724428310431
 31
0.0
  0
LINE
  5
1107
  8
247
 10
-22.87211339309421
 20
-6.298202744842186
 30
0.0
 11
-23.093542342606561
 21
-6.0767737953298484
 31
0.0
  0
LINE
  5
1108
  8
247
 10
-20.66160763731007
 20
-8.5087085006263337
 30
0.0
 11
-20.89441231881856
 21
-8.2759038191178362
 31
0.0
  0
LINE
  5
1109
  8
247
 10
-22.914040876251551
 20
-6.5149066379716469
 30
0.0
 11
-23.103794562863371
 21
-6.325152951359831
 31
0.0
  0
LINE
  5
110A
  8
247
 10
-20.66160763731007
 20
-8.7673398769131268
 30
0.0
 11
-20.89441231881856
 21
-8.5345351954046365
 31
0.0
  0
LINE
  5
110B
  8
247
 10
-20.66160763731007
 20
-9.0259712531999217
 30
0.0
 11
-20.89441231881856
 21
-8.7931665716914225
 31
0.0
  0
LINE
  5
110C
  8
247
 10
-20.66160763731007
 20
-9.2846026294867041
 30
0.0
 11
-20.89441231881856
 21
-9.0517979479782156
 31
0.0
  0
LINE
  5
110D
  8
247
 10
-20.66160763731007
 20
-9.5432340057735008
 30
0.0
 11
-20.89441231881856
 21
-9.3104293242649998
 31
0.0
  0
LINE
  5
110E
  8
247
 10
-20.66160763731007
 20
-9.8018653820602903
 30
0.0
 11
-20.89441231881856
 21
-9.5690607005517911
 31
0.0
  0
LINE
  5
110F
  8
247
 10
-20.66160763731007
 20
-10.06049675834708
 30
0.0
 11
-20.89441231881856
 21
-9.8276920768385896
 31
0.0
  0
LINE
  5
1110
  8
247
 10
-20.66160763731007
 20
-10.31912813463388
 30
0.0
 11
-20.89441231881856
 21
-10.086323453125379
 31
0.0
  0
LINE
  5
1111
  8
247
 10
-20.66160763731007
 20
-10.577759510920661
 30
0.0
 11
-20.89441231881856
 21
-10.34495482941217
 31
0.0
  0
LINE
  5
1112
  8
247
 10
-20.66160763731007
 20
-10.836390887207459
 30
0.0
 11
-20.89441231881856
 21
-10.60358620569896
 31
0.0
  0
LINE
  5
1113
  8
247
 10
-20.666823631993729
 20
-11.08980626881058
 30
0.0
 11
-20.89441231881856
 21
-10.862217581985741
 31
0.0
  0
LINE
  5
1114
  8
247
 10
-20.707274531652619
 20
-11.30798674543848
 30
0.0
 11
-20.90361537198751
 21
-11.11164590510359
 31
0.0
  0
LINE
  5
1115
  8
247
 10
-20.77746792774494
 20
-11.496424725632959
 30
0.0
 11
-20.955260028239021
 21
-11.31863262513888
 31
0.0
  0
LINE
  5
1116
  8
247
 10
-20.87116365429759
 20
-11.661360375367099
 30
0.0
 11
-21.039579164064548
 21
-11.492944865600141
 31
0.0
  0
LINE
  5
1117
  8
247
 10
-20.985448452155449
 20
-11.80570695379603
 30
0.0
 11
-21.150231722824572
 21
-11.640923683126911
 31
0.0
  0
LINE
  5
1118
  8
247
 10
-21.119240902829748
 20
-11.93054587940852
 30
0.0
 11
-21.285087529480158
 21
-11.76469925275811
 31
0.0
  0
LINE
  5
1119
  8
247
 10
-21.272854802254749
 20
-12.03556335627032
 30
0.0
 11
-21.444753170479849
 21
-11.86366498804521
 31
0.0
  0
LINE
  5
111A
  8
247
 10
-22.873234859101778
 20
-10.69381467571009
 30
0.0
 11
-23.05664330391777
 21
-10.51040623089408
 31
0.0
  0
LINE
  5
111B
  8
247
 10
-21.44811974563833
 20
-12.11892978917353
 30
0.0
 11
-21.63295725858633
 21
-11.93409227622552
 31
0.0
  0
LINE
  5
111C
  8
247
 10
-22.873234859101778
 20
-10.95244605199688
 30
0.0
 11
-23.106039546601771
 21
-10.719641364496891
 31
0.0
  0
LINE
  5
111D
  8
247
 10
-21.64918592514519
 20
-12.17649498595347
 30
0.0
 11
-21.859554301911022
 21
-11.96612660918764
 31
0.0
  0
LINE
  5
111E
  8
247
 10
-22.835037765931698
 20
-11.24927452145374
 30
0.0
 11
-23.10603889690378
 21
-10.978273390481659
 31
0.0
  0
LINE
  5
111F
  8
247
 10
-21.885083941307489
 20
-12.19922834607795
 30
0.0
 11
-22.15608507227957
 21
-11.928227215105871
 31
0.0
  0
LINE
  5
1120
  8
247
 10
-22.180191103107688
 20
-12.162752560564529
 30
0.0
 11
-23.069563111390352
 21
-11.27338055228187
 31
0.0
  0
LINE
  5
1121
  8
247
 10
-21.010814662568588
 20
-8.6767642279413906
 30
0.0
 11
-21.02999809776593
 21
-8.6575807927440565
 31
0.0
  0
LINE
  5
1122
  8
247
 10
-21.010814662568588
 20
-8.9353956042281801
 30
0.0
 11
-21.392604947870161
 21
-8.5536053189266141
 31
0.0
  0
LINE
  5
1123
  8
247
 10
-21.02518015318876
 20
-9.179661489894805
 30
0.0
 11
-21.755211797974422
 21
-8.4496298451091505
 31
0.0
  0
LINE
  5
1124
  8
247
 10
-21.387788422240479
 20
-9.0756845971298841
 30
0.0
 11
-22.117818648078661
 21
-8.3456543712917011
 31
0.0
  0
LINE
  5
1125
  8
247
 10
-21.750396691292199
 20
-8.9717077043649454
 30
0.0
 11
-22.4804254981829
 21
-8.2416788974742428
 31
0.0
  0
LINE
  5
1126
  8
247
 10
-22.113004960343929
 20
-8.8677308116000102
 30
0.0
 11
-22.843032348287149
 21
-8.1377034236567951
 31
0.0
  0
LINE
  5
1127
  8
247
 10
-22.475613229395659
 20
-8.7637539188350786
 30
0.0
 11
-23.106039546601771
 21
-8.1333276016289702
 31
0.0
  0
LINE
  5
1128
  8
247
 10
-22.838221498447389
 20
-8.659777026070131
 30
0.0
 11
-23.10603954660176
 21
-8.3919589779157633
 31
0.0
  0
LINE
  5
1129
  8
247
 10
-23.081982931261649
 20
-8.674646969542664
 30
0.0
 11
-23.106039546601771
 21
-8.6505903542025422
 31
0.0
  0
LINE
  5
112A
  8
247
 10
-21.131786795819579
 20
-7.0040038369696571
 30
0.0
 11
-21.350037676494761
 21
-6.7857529562944654
 31
0.0
  0
LINE
  5
112B
  8
247
 10
-21.014345050841751
 20
-7.380076958234282
 30
0.0
 11
-21.712645532175671
 21
-6.6817764769003682
 31
0.0
  0
LINE
  5
112C
  8
247
 10
-21.382812271645619
 20
-7.2702411137172032
 30
0.0
 11
-22.07525338785657
 21
-6.5777999975062542
 31
0.0
  0
LINE
  5
112D
  8
247
 10
-21.030101361307398
 20
-7.6229520240554223
 30
0.0
 11
-21.303417875480491
 21
-7.3496355098823241
 31
0.0
  0
LINE
  5
112E
  8
247
 10
-21.75876020932445
 20
-7.1529245523251603
 30
0.0
 11
-22.19811181222677
 21
-6.7135729494228391
 31
0.0
  0
LINE
  5
112F
  8
247
 10
-21.10073997332254
 20
-7.8109447883270624
 30
0.0
 11
-21.304019339624698
 21
-7.6076654220249154
 31
0.0
  0
LINE
  5
1130
  8
247
 10
-21.96530712472677
 20
-7.2050090132096241
 30
0.0
 11
-22.19811181222677
 21
-6.9722043257096251
 31
0.0
  0
LINE
  5
1131
  8
247
 10
-21.207866684226339
 20
-7.9624494537100619
 30
0.0
 11
-21.45442417645036
 21
-7.715891961486034
 31
0.0
  0
LINE
  5
1132
  8
247
 10
-22.79700949349564
 20
-6.6319380207275591
 30
0.0
 11
-22.82124809234228
 21
-6.6076994218809233
 31
0.0
  0
LINE
  5
1133
  8
247
 10
-21.34683236681667
 20
-8.082115147406526
 30
0.0
 11
-21.77091741234462
 21
-7.6580301018785786
 31
0.0
  0
LINE
  5
1134
  8
247
 10
-22.732210891782579
 20
-6.9553679987274011
 30
0.0
 11
-23.017876027845279
 21
-6.6697028626646979
 31
0.0
  0
LINE
  5
1135
  8
247
 10
-21.519548061740188
 20
-8.168030828769794
 30
0.0
 11
-22.1335256214563
 21
-7.5540532690536812
 31
0.0
  0
LINE
  5
1136
  8
247
 10
-22.84233963911694
 20
-7.1038706276798393
 30
0.0
 11
-23.01666220259963
 21
-6.9295480641971476
 31
0.0
  0
LINE
  5
1137
  8
247
 10
-21.737035047630641
 20
-8.2091752191661413
 30
0.0
 11
-22.496133830567981
 21
-7.4500764362287981
 31
0.0
  0
LINE
  5
1138
  8
247
 10
-22.032313150713819
 20
-8.1725284923697501
 30
0.0
 11
-23.087042671176881
 21
-7.1177989719066872
 31
0.0
  0
LINE
  5
1139
  8
247
 10
-22.376808287411869
 20
-8.0866647319584857
 30
0.0
 11
-23.10232802021175
 21
-7.3611449991586113
 31
0.0
  0
VIEWPORT
  5
22
 67
     1
  8
0
 10
261.51769911504419
 20
148.5
 30
0.0
 40
523.0353982300885
 41
297.0
 68
     1
 69
     1
1001
ACAD
1000
MVIEW
1002
{
1070
    16
1010
0.0
1020
0.0
1030
0.0
1010
0.0
1020
0.0
1030
1.0
1040
0.0
1040
297.0
1040
261.51769911504419
1040
148.5
1040
50.0
1040
0.0
1040
0.0
1070
     0
1070
   100
1070
     1
1070
     1
1070
     0
1070
     0
1070
     0
1070
     0
1040
0.0
1040
0.0
1040
0.0
1040
1.0
1040
1.0
1040
10.0
1040
10.0
1070
     0
1002
{
1002
}
1002
}
1001
GENIUS_GENODEF_13
1002
{
1000
HIER
1070
     0
1002
}
1002
{
1000
MANEDIT
1070
     0
1002
}
1002
{
1000
NOSEL
1070
     0
1002
}
1002
{
1000
BEHIND
1070
     0
1002
}
1002
{
1000
OTHER
1070
     0
1002
}
1002
{
1000
REACTOR
1002
}
1001
GENIUS_GENOBJ-N-SDF_13
1002
{
1000
OWNER
1000
GEN
1002
}
1001
GENIUS_GENSCREG_15
1000
PF
1040
1.0
1000
DF
1040
1.0
1000
MIN
1011
0.0
1021
0.0
1031
0.0
1021
0.0
1031
0.0
1000
MAX
1011
523.0353982300885
1021
0.0
1031
0.0
1021
297.0
1031
0.0
1000
FLAGS
1070
     4
  0
ENDSEC
  0
EOF
