  0
SECTION
  2
HEADER
  9
$ACADVER
  1
AC1009
  9
$INSBASE
 10
0.0
 20
0.0
 30
0.0
  9
$EXTMIN
 10
-207.69728403433399
 20
-21.0
 30
-0.0000000349181948
  9
$EXTMAX
 10
215.17786555938869
 20
47.016236726407662
 30
0.0000000814935747
  9
$LIMMIN
 10
0.0
 20
0.0
  9
$LIMMAX
 10
297.0
 20
210.0
  9
$ORTHOMODE
 70
     1
  9
$REGENMODE
 70
     1
  9
$FILLMODE
 70
     1
  9
$QTEXTMODE
 70
     0
  9
$MIRRTEXT
 70
     1
  9
$DRAGMODE
 70
     2
  9
$LTSCALE
 40
10.0
  9
$OSMODE
 70
  3071
  9
$ATTMODE
 70
     1
  9
$TEXTSIZE
 40
3.0
  9
$TRACEWID
 40
1.0
  9
$TEXTSTYLE
  7
YOKO
  9
$CLAYER
  8
247
  9
$CELTYPE
  6
BYLAYER
  9
$CECOLOR
 62
   256
  9
$DIMSCALE
 40
1.0
  9
$DIMASZ
 40
2.2299999999999991
  9
$DIMEXO
 40
0.5
  9
$DIMDLI
 40
2.5
  9
$DIMRND
 40
0.0
  9
$DIMDLE
 40
0.0
  9
$DIMEXE
 40
1.0
  9
$DIMTP
 40
0.0
  9
$DIMTM
 40
0.0
  9
$DIMTXT
 40
3.0
  9
$DIMCEN
 40
0.0
  9
$DIMTSZ
 40
0.0
  9
$DIMTOL
 70
     0
  9
$DIMLIM
 70
     0
  9
$DIMTIH
 70
     0
  9
$DIMTOH
 70
     0
  9
$DIMSE1
 70
     0
  9
$DIMSE2
 70
     0
  9
$DIMTAD
 70
     3
  9
$DIMZIN
 70
     8
  9
$DIMBLK
  1
OPEN
  9
$DIMASO
 70
     1
  9
$DIMSHO
 70
     1
  9
$DIMPOST
  1

  9
$DIMAPOST
  1

  9
$DIMALT
 70
     0
  9
$DIMALTD
 70
     2
  9
$DIMALTF
 40
25.399999999999999
  9
$DIMLFAC
 40
1.0
  9
$DIMTOFL
 70
     1
  9
$DIMTVP
 40
0.0
  9
$DIMTIX
 70
     0
  9
$DIMSOXD
 70
     0
  9
$DIMSAH
 70
     0
  9
$DIMBLK1
  1

  9
$DIMBLK2
  1

  9
$DIMSTYLE
  2
BIGT
  9
$DIMCLRD
 70
   256
  9
$DIMCLRE
 70
   256
  9
$DIMCLRT
 70
    40
  9
$DIMTFAC
 40
1.0
  9
$DIMGAP
 40
1.0
  9
$LUNITS
 70
     2
  9
$LUPREC
 70
     2
  9
$SKETCHINC
 40
1.0
  9
$FILLETRAD
 40
1.0
  9
$AUNITS
 70
     0
  9
$AUPREC
 70
     3
  9
$MENU
  1
.
  9
$ELEVATION
 40
0.0
  9
$PELEVATION
 40
0.0
  9
$THICKNESS
 40
0.0
  9
$LIMCHECK
 70
     0
  9
$BLIPMODE
 70
     0
  9
$CHAMFERA
 40
10.0
  9
$CHAMFERB
 40
10.0
  9
$SKPOLY
 70
     0
  9
$TDCREATE
 40
2452226.7127276738
  9
$TDUPDATE
 40
2457371.4260619679
  9
$TDINDWG
 40
0.1598886921
  9
$TDUSRTIMER
 40
0.1598884722
  9
$USRTIMER
 70
     1
  9
$ANGBASE
 50
0.0
  9
$ANGDIR
 70
     0
  9
$PDMODE
 70
    35
  9
$PDSIZE
 40
-5.0
  9
$PLINEWID
 40
0.0
  9
$COORDS
 70
     1
  9
$SPLFRAME
 70
     0
  9
$SPLINETYPE
 70
     6
  9
$SPLINESEGS
 70
     8
  9
$ATTDIA
 70
     1
  9
$ATTREQ
 70
     1
  9
$HANDLING
 70
     1
  9
$HANDSEED
  5
2B08
  9
$SURFTAB1
 70
     6
  9
$SURFTAB2
 70
     6
  9
$SURFTYPE
 70
     6
  9
$SURFU
 70
     6
  9
$SURFV
 70
     6
  9
$UCSNAME
  2

  9
$UCSORG
 10
0.0
 20
0.0
 30
0.0
  9
$UCSXDIR
 10
1.0
 20
0.0
 30
0.0
  9
$UCSYDIR
 10
0.0
 20
1.0
 30
0.0
  9
$PUCSNAME
  2

  9
$PUCSORG
 10
0.0
 20
0.0
 30
0.0
  9
$PUCSXDIR
 10
1.0
 20
0.0
 30
0.0
  9
$PUCSYDIR
 10
0.0
 20
1.0
 30
0.0
  9
$USERI1
 70
     1
  9
$USERI2
 70
     0
  9
$USERI3
 70
     0
  9
$USERI4
 70
     0
  9
$USERI5
 70
     0
  9
$USERR1
 40
0.0
  9
$USERR2
 40
0.0
  9
$USERR3
 40
0.0
  9
$USERR4
 40
0.0
  9
$USERR5
 40
0.0
  9
$WORLDVIEW
 70
     1
  9
$SHADEDGE
 70
     3
  9
$SHADEDIF
 70
    70
  9
$TILEMODE
 70
     1
  9
$MAXACTVP
 70
    16
  9
$PLIMCHECK
 70
     0
  9
$PEXTMIN
 10
1.0000000000000000E+020
 20
1.0000000000000000E+020
 30
1.0000000000000000E+020
  9
$PEXTMAX
 10
-1.0000000000000000E+020
 20
-1.0000000000000000E+020
 30
-1.0000000000000000E+020
  9
$PLIMMIN
 10
0.0
 20
0.0
  9
$PLIMMAX
 10
420.0
 20
297.0
  9
$UNITMODE
 70
     0
  9
$VISRETAIN
 70
     0
  9
$PLINEGEN
 70
     0
  9
$PSLTSCALE
 70
     1
  0
ENDSEC
  0
SECTION
  2
TABLES
  0
TABLE
  2
VPORT
 70
     1
  0
VPORT
  2
*ACTIVE
 70
     0
 10
0.0
 20
0.0
 11
1.0
 21
1.0
 12
93.003335096361454
 22
34.78490775388574
 13
0.0
 23
0.0
 14
7.0
 24
7.0
 15
7.0
 25
7.0
 16
0.0
 26
0.0
 36
1.0
 17
0.0
 27
0.0
 37
0.0
 40
257.38196467203562
 41
1.397993311036789
 42
50.0
 43
0.0
 44
0.0
 50
0.0
 51
0.0
 71
     0
 72
  2000
 73
     1
 74
     0
 75
     0
 76
     1
 77
     0
 78
     0
  0
ENDTAB
  0
TABLE
  2
LTYPE
 70
    22
  0
LTYPE
  2
CONTINUOUS
 70
     0
  3
Solid line
 72
    65
 73
     0
 40
0.0
  0
LTYPE
  2
CENTER2
 70
     0
  3
___ _ ___ _ ___ _ ___ _ ___ _ ___ _ ___ _ ___ _
 72
    65
 73
     4
 40
1.125
 49
0.75
 49
-0.125
 49
0.125
 49
-0.125
  0
LTYPE
  2
PHANTOM2
 70
     0
  3
___ _ _ ___ _ _ ___ _ _ ___ _ _ ___ _ _ ___ _ _
 72
    65
 73
     6
 40
1.25
 49
0.625
 49
-0.125
 49
0.125
 49
-0.125
 49
0.125
 49
-0.125
  0
LTYPE
  2
HIDDEN
 70
     0
  3
Hidden __ __ __ __ __ __ __ __ __ __ __ __ __ _
 72
    65
 73
     2
 40
9.5249999999999986
 49
6.3499999999999979
 49
-3.174999999999998
  0
LTYPE
  2
CENTER
 70
     0
  3
Center ____ _ ____ _ ____ _ ____ _ ____ _ ____
 72
    65
 73
     4
 40
50.799999999999997
 49
31.75
 49
-6.3499999999999979
 49
6.3499999999999979
 49
-6.3499999999999979
  0
LTYPE
  2
AM_ISO02W050
 70
     0
  3
__ __ __ __ __ __ __ __ __ __ __ __ __ __ __
 72
    65
 73
     2
 40
7.5
 49
6.0
 49
-1.5
  0
LTYPE
  2
AMCONSTR
 70
     0
  3
_______________________
 72
    65
 73
     2
 40
9999.0
 49
9999.0
 49
0.0
  0
LTYPE
  2
HIDDEN2
 70
     0
  3
Hidden (.5x) _ _ _ _ _ _ _ _ _ _ _ _ _ _ _ _ _
 72
    65
 73
     2
 40
0.1875
 49
0.125
 49
-0.0625
  0
LTYPE
  2
AMZIGZAG2
 70
     0
  3
/\/-/\/-/\/-/\/-/\/-/\/
 72
    65
 73
     2
 40
0.4401
 49
0.0001
 49
-0.4400000000000001
  0
LTYPE
  2
ACANSTGB
 70
     0
  3
__ . . __ . .
 72
    65
 73
     6
 40
0.35433070866
 49
0.15748031496
 49
-0.03937007874
 49
0.03937007874
 49
-0.03937007874
 49
0.03937007874
 49
-0.03937007874
  0
LTYPE
  2
ACANSTGL
 70
     0
  3
_ _ _ _ _
 72
    65
 73
     2
 40
0.11811023622
 49
0.07874015748
 49
-0.03937007874
  0
LTYPE
  2
ACJISTGB
 70
     0
  3
__ . . __ . .
 72
    65
 73
     6
 40
9.0
 49
4.0
 49
-1.0
 49
1.0
 49
-1.0
 49
1.0
 49
-1.0
  0
LTYPE
  2
ACJISTGL
 70
     0
  3
_ _ _ _ _
 72
    65
 73
     2
 40
3.0
 49
2.0
 49
-1.0
  0
ENDTAB
  0
TABLE
  2
LAYER
 70
    11
  0
LAYER
  2
0
 70
     0
 62
     7
  6
CONTINUOUS
  0
LAYER
  2
240
 70
     0
 62
     4
  6
CONTINUOUS
  0
LAYER
  2
241
 70
     0
 62
   211
  6
CONTINUOUS
  0
LAYER
  2
242
 70
     0
 62
     3
  6
CONTINUOUS
  0
LAYER
  2
245
 70
     0
 62
     2
  6
CENTER2
  0
LAYER
  2
247
 70
     0
 62
    60
  6
CONTINUOUS
  0
LAYER
  2
250
 70
     0
 62
     3
  6
CONTINUOUS
  0
LAYER
  2
DEFPOINTS
 70
     0
 62
     7
  6
CONTINUOUS
  0
ENDTAB
  0
TABLE
  2
STYLE
 70
    11
  0
STYLE
  2
STANDARD
 70
     0
 40
0.0
 41
1.0
 50
0.0
 71
     0
 42
3.0
  3
romans.shx
  4
BIGFONT.SHX
  0
STYLE
  2
YOKO
 70
     0
 40
0.0
 41
1.0
 50
0.0
 71
     0
 42
3.0
  3
romans.shx
  4
extfont.shx
  0
STYLE
  2

 70
     1
 40
0.0
 41
1.0
 50
0.0
 71
     0
 42
3.0
  3
genltshp.shx
  4

  0
STYLE
  2
ACANSGDT
 70
     0
 40
0.0
 41
1.0
 50
0.0
 71
     0
 42
3.0
  3
amgdt.shx
  4

  0
STYLE
  2
ACJISTS
 70
     0
 40
1.0
 41
1.0
 50
0.0
 71
     0
 42
3.0
  3
amgdt.shx
  4
extfont.shx
  0
STYLE
  2
ACJISGDT
 70
     0
 40
0.0
 41
1.0
 50
0.0
 71
     0
 42
3.0
  3
amgdt.shx
  4
extfont.shx
  0
ENDTAB
  0
TABLE
  2
VIEW
 70
     0
  0
ENDTAB
  0
TABLE
  2
UCS
 70
     0
  0
ENDTAB
  0
TABLE
  2
APPID
 70
    27
  0
APPID
  2
ACAD
 70
     0
  0
APPID
  2
ACADANNOTATIVE
 70
     0
  0
APPID
  2
GLOBAL
 70
     0
  0
APPID
  2
DETAIL
 70
     0
  0
APPID
  2
GRPNAME
 70
     0
  0
APPID
  2
GPARA
 70
     0
  0
APPID
  2
ITEMNAME
 70
     0
  0
APPID
  2
HATCH_TYPE
 70
     0
  0
APPID
  2
HATCH_DISPLAY
 70
     0
  0
APPID
  2
HATCH_DISTANCE
 70
     0
  0
APPID
  2
MCAD_NO_VIS
 70
     0
  0
APPID
  2
ACAD_TEMP_GRAPHIC
 70
     0
  0
APPID
  2
AD_DRAW
 70
     0
  0
APPID
  2
ACATTRIBSERVICES
 70
     0
  0
APPID
  2
DESIGNERASSEMBLIES
 70
     0
  0
APPID
  2
ACADM_DIM_EDIT
 70
     0
  0
APPID
  2
AMDT_DM_ADJ
 70
     0
  0
APPID
  2
GENIUS_GENSCREG_15
 70
     0
  0
APPID
  2
GENIUS_GENODEF_13
 70
     0
  0
APPID
  2
GENIUS_GENOBJ-N-SDF_13
 70
     0
  0
APPID
  2
ACAD_DSTYLE_DIMJAG
 70
     0
  0
APPID
  2
ACAD_DSTYLE_DIMBREAK
 70
     0
  0
APPID
  2
ACAD_NAV_VCDISPLAY
 70
     0
  0
APPID
  2
ACAD_EXEMPT_FROM_CAD_STANDARDS
 70
     0
  0
APPID
  2
ACAECLAYERSTANDARD
 70
     0
  0
APPID
  2
GENIUS_GENOBJ-N-FIL_13
 70
     0
  0
APPID
  2
ACAD_MLEADERVER
 70
     0
  0
ENDTAB
  0
TABLE
  2
DIMSTYLE
 70
    26
  0
DIMSTYLE
  2
STANDARD
 70
     0
  3

  4

  5

  6

  7

 40
1.0
 41
2.0
 42
2.0
 43
3.75
 44
2.0
 45
0.0
 46
0.0
 47
0.0
 48
0.0
140
4.0
141
0.09
142
0.0
143
25.399999999999999
144
1.0
145
0.0
146
1.0
147
1.0
 71
     0
 72
     0
 73
     1
 74
     1
 75
     0
 76
     0
 77
     0
 78
     8
170
     0
171
     2
172
     0
173
     1
174
     0
175
     0
176
   256
177
   256
178
   256
  0
DIMSTYLE
  2
BIGT
 70
     0
  3

  4

  5

  6

  7

 40
1.0
 41
2.2299999999999991
 42
0.5
 43
2.5
 44
1.0
 45
0.0
 46
0.0
 47
0.0
 48
0.0
140
3.5
141
0.0
142
0.0
143
25.399999999999999
144
1.0
145
0.0
146
1.0
147
1.0
 71
     0
 72
     0
 73
     0
 74
     0
 75
     0
 76
     0
 77
     3
 78
     9
170
     0
171
     2
172
     1
173
     0
174
     0
175
     0
176
   256
177
   256
178
    40
  0
DIMSTYLE
  2
AM_ANSI
 70
     0
  3

  4
mm
  5

  6

  7

 40
1.0
 41
0.12
 42
0.05
 43
0.5
 44
0.1
 45
0.0
 46
0.0
 47
0.1
 48
0.1
140
0.12
141
0.0
142
0.0
143
25.399999999999999
144
1.0
145
0.0
146
0.71
147
0.06
 71
     0
 72
     0
 73
     1
 74
     1
 75
     0
 76
     0
 77
     0
 78
     7
170
     0
171
     2
172
     0
173
     0
174
     0
175
     0
176
   256
177
   256
178
     2
  0
DIMSTYLE
  2
AM_ANSI$3
 70
     0
  3

  4
mm
  5

  6

  7

 40
1.0
 41
0.12
 42
0.05
 43
0.5
 44
0.1
 45
0.0
 46
0.0
 47
0.1
 48
0.1
140
0.12
141
0.0
142
0.0
143
25.399999999999999
144
1.0
145
0.0
146
0.71
147
0.06
 71
     0
 72
     0
 73
     1
 74
     1
 75
     0
 76
     0
 77
     0
 78
     7
170
     0
171
     2
172
     0
173
     0
174
     0
175
     0
176
   256
177
   256
178
     2
  0
DIMSTYLE
  2
AM_ANSI$4
 70
     0
  3

  4
mm
  5

  6

  7

 40
1.0
 41
0.12
 42
0.05
 43
0.5
 44
0.1
 45
0.0
 46
0.0
 47
0.1
 48
0.1
140
0.12
141
0.0
142
0.0
143
25.399999999999999
144
1.0
145
0.0
146
0.71
147
0.06
 71
     0
 72
     0
 73
     1
 74
     1
 75
     0
 76
     0
 77
     0
 78
     7
170
     0
171
     2
172
     0
173
     0
174
     0
175
     0
176
   256
177
   256
178
     2
  0
DIMSTYLE
  2
AM_ANSI$7
 70
     0
  3

  4
mm
  5

  6

  7

 40
1.0
 41
0.12
 42
0.05
 43
0.5
 44
0.1
 45
0.0
 46
0.0
 47
0.1
 48
0.1
140
0.12
141
0.0
142
0.0
143
25.399999999999999
144
1.0
145
0.0
146
0.71
147
0.06
 71
     0
 72
     0
 73
     1
 74
     1
 75
     0
 76
     0
 77
     0
 78
     7
170
     0
171
     2
172
     0
173
     0
174
     0
175
     0
176
   256
177
   256
178
     2
  0
DIMSTYLE
  2
AM_ANSI$SF
 70
     0
  3

  4
mm
  5

  6

  7

 40
1.0
 41
0.12
 42
0.05
 43
0.5
 44
0.1
 45
0.0
 46
0.0
 47
0.1
 48
0.1
140
0.12
141
0.0
142
0.0
143
25.399999999999999
144
1.0
145
0.0
146
0.71
147
0.06
 71
     0
 72
     0
 73
     1
 74
     1
 75
     1
 76
     1
 77
     0
 78
     7
170
     0
171
     2
172
     0
173
     0
174
     0
175
     0
176
   256
177
   256
178
     2
  0
DIMSTYLE
  2
AM_ANSI$SH
 70
     0
  3

  4
mm
  5

  6
GENAXEH
  7

 40
1.0
 41
0.12
 42
0.05
 43
0.5
 44
0.1
 45
0.0
 46
0.0
 47
0.1
 48
0.1
140
0.12
141
0.0
142
0.0
143
25.399999999999999
144
1.0
145
0.0
146
0.71
147
0.06
 71
     0
 72
     0
 73
     1
 74
     1
 75
     1
 76
     1
 77
     0
 78
     7
170
     0
171
     2
172
     0
173
     1
174
     0
175
     0
176
   256
177
   256
178
     2
  0
DIMSTYLE
  2
BIGT$2
 70
     0
  3

  4

  5
OPEN
  6

  7

 40
1.0
 41
2.2299999999999991
 42
0.5
 43
7.0
 44
1.0
 45
0.0
 46
0.0
 47
0.0
 48
0.01
140
2.7999999999999989
141
0.0
142
0.0
143
25.399999999999999
144
1.0
145
0.0
146
1.0
147
1.0
 71
     0
 72
     0
 73
     0
 74
     0
 75
     0
 76
     0
 77
     3
 78
     9
170
     0
171
     2
172
     1
173
     0
174
     0
175
     0
176
   256
177
   256
178
    40
  0
DIMSTYLE
  2
BIGT$3
 70
     0
  3

  4

  5
OPEN
  6

  7

 40
1.0
 41
2.2299999999999991
 42
0.5
 43
2.5
 44
1.0
 45
0.0
 46
0.0
 47
0.0
 48
0.01
140
2.7999999999999989
141
0.0
142
0.0
143
25.399999999999999
144
1.0
145
0.0
146
1.0
147
1.0
 71
     0
 72
     0
 73
     0
 74
     0
 75
     0
 76
     0
 77
     3
 78
     9
170
     0
171
     2
172
     1
173
     0
174
     0
175
     0
176
   256
177
   256
178
    40
  0
DIMSTYLE
  2
BIGT$7
 70
     0
  3

  4

  5
OPEN
  6

  7

 40
0.0
 41
2.2299999999999991
 42
0.5
 43
7.0
 44
1.0
 45
0.0
 46
0.0
 47
0.0
 48
0.01
140
2.7999999999999989
141
0.0
142
0.0
143
25.399999999999999
144
1.0
145
0.0
146
1.0
147
1.0
 71
     0
 72
     0
 73
     0
 74
     0
 75
     0
 76
     0
 77
     3
 78
     9
170
     0
171
     2
172
     0
173
     0
174
     0
175
     0
176
   256
177
   256
178
    40
  0
DIMSTYLE
  2
BIGT$6
 70
     0
  3

  4

  5
OPEN
  6

  7

 40
1.0
 41
2.2299999999999991
 42
0.5
 43
2.5
 44
1.0
 45
0.0
 46
0.0
 47
0.0
 48
0.01
140
2.7999999999999989
141
0.0
142
0.0
143
25.399999999999999
144
1.0
145
0.0
146
1.0
147
1.0
 71
     0
 72
     0
 73
     0
 74
     0
 75
     0
 76
     0
 77
     3
 78
     9
170
     0
171
     2
172
     1
173
     0
174
     0
175
     0
176
   256
177
   256
178
    40
  0
DIMSTYLE
  2
BIGT$0
 70
     0
  3

  4

  5
OPEN
  6

  7

 40
1.0
 41
2.2299999999999991
 42
0.5
 43
7.0
 44
1.0
 45
0.0
 46
0.0
 47
0.0
 48
0.01
140
2.7999999999999989
141
0.0
142
0.0
143
25.399999999999999
144
1.0
145
0.0
146
1.0
147
1.0
 71
     0
 72
     0
 73
     0
 74
     0
 75
     0
 76
     0
 77
     3
 78
     9
170
     0
171
     2
172
     1
173
     0
174
     1
175
     0
176
   256
177
   256
178
    40
  0
DIMSTYLE
  2
BIGT$4
 70
     0
  3

  4

  5
OPEN
  6

  7

 40
1.0
 41
2.2299999999999991
 42
0.5
 43
2.5
 44
1.0
 45
0.0
 46
0.0
 47
0.0
 48
0.01
140
2.7999999999999989
141
0.0
142
0.0
143
25.399999999999999
144
1.0
145
0.0
146
1.0
147
1.0
 71
     0
 72
     0
 73
     0
 74
     0
 75
     0
 76
     0
 77
     3
 78
     9
170
     0
171
     2
172
     1
173
     0
174
     0
175
     0
176
   256
177
   256
178
    40
  0
DIMSTYLE
  2
BIGT$SH
 70
     0
  3

  4

  5
OPEN
  6

  7

 40
1.0
 41
2.2299999999999991
 42
0.5
 43
7.0
 44
1.0
 45
0.0
 46
0.0
 47
0.0
 48
0.0
140
2.7999999999999989
141
0.0
142
0.0
143
25.399999999999999
144
1.0
145
0.0
146
1.0
147
1.0
 71
     0
 72
     0
 73
     0
 74
     0
 75
     0
 76
     0
 77
     3
 78
     9
170
     0
171
     2
172
     1
173
     0
174
     0
175
     0
176
   256
177
   256
178
    40
  0
DIMSTYLE
  2
BIGT$SF
 70
     0
  3

  4

  5
OPEN
  6

  7

 40
1.0
 41
2.2299999999999991
 42
0.5
 43
7.0
 44
1.0
 45
0.0
 46
0.0
 47
0.0
 48
0.0
140
2.7999999999999989
141
0.0
142
0.0
143
25.399999999999999
144
1.0
145
0.0
146
1.0
147
1.0
 71
     0
 72
     0
 73
     0
 74
     0
 75
     0
 76
     0
 77
     3
 78
     9
170
     0
171
     2
172
     1
173
     0
174
     0
175
     0
176
   256
177
   256
178
    40
  0
ENDTAB
  0
ENDSEC
  0
SECTION
  2
BLOCKS
  0
BLOCK
  8
0
  2
$MODEL_SPACE
 70
     0
 10
0.0
 20
0.0
 30
0.0
  3
$MODEL_SPACE
  1

  0
ENDBLK
  5
280C
  8
0
  0
BLOCK
 67
     1
  8
0
  2
$PAPER_SPACE
 70
     0
 10
0.0
 20
0.0
 30
0.0
  3
$PAPER_SPACE
  1

  0
ENDBLK
  5
2808
 67
     1
  8
0
  0
BLOCK
  8
0
  2
_OPEN
 70
     0
 10
0.0
 20
0.0
 30
0.0
  3
_OPEN
  1

  0
LINE
  5
595
  8
0
  6
BYBLOCK
 62
     0
 10
-1.0
 20
0.1666666666666666
 30
0.0
 11
0.0
 21
0.0
 31
0.0
  0
LINE
  5
596
  8
0
  6
BYBLOCK
 62
     0
 10
-1.0
 20
-0.1666666666666666
 30
0.0
 11
0.0
 21
0.0
 31
0.0
  0
LINE
  5
597
  8
0
  6
BYBLOCK
 62
     0
 10
0.0
 20
0.0
 30
0.0
 11
-1.0
 21
0.0
 31
0.0
  0
ENDBLK
  5
599
  8
0
  0
BLOCK
  8
0
  2
GENAXEH
 70
     0
 10
0.0
 20
0.0
 30
0.0
  3
GENAXEH
  1

  0
LINE
  5
25D8
  8
0
 10
-1.0
 20
0.0
 30
0.0
 11
1.0
 21
0.0
 31
0.0
  0
ENDBLK
  5
25DA
  8
0
  0
BLOCK
  8
0
  2
_ACMFILLEDHALF
 70
     0
 10
0.0
 20
0.0
 30
0.0
  3
_ACMFILLEDHALF
  1

  0
TRACE
  5
28BA
  8
240
 62
     0
 10
-0.8
 20
0.0
 30
0.0
 11
-1.0
 21
0.166666666
 31
0.0
 12
0.0
 22
0.0
 32
0.0
 13
0.0
 23
0.0
 33
0.0
  0
LINE
  5
28BB
  8
240
 62
     0
 10
-1.0
 20
0.0
 30
0.0
 11
-0.8
 21
0.0
 31
0.0
  0
ENDBLK
  5
28B9
  8
0
  0
ENDSEC
  0
SECTION
  2
ENTITIES
  0
TEXT
  5
2365
  8
241
  6
CONTINUOUS
 10
0.1778618732336952
 20
42.0
 30
0.0
 40
5.0
  1
ST16W-EW18-160
  7
YOKO
 11
0.1778618732336952
 21
42.0
 31
0.0
 73
     1
  0
LINE
  5
25E9
  8
250
  6
CONTINUOUS
 10
204.47786187322899
 20
9.0
 30
0.0
 11
215.17786555938869
 21
8.9999999999999982
 31
0.0
  0
LINE
  5
25EA
  8
250
  6
CONTINUOUS
 10
214.17786555938869
 20
6.769999999999996
 30
0.0
 11
214.17786555938869
 21
-0.0000000000000591
 31
0.0
  0
LINE
  5
25F6
  8
250
  6
CONTINUOUS
 10
0.0
 20
8.1008302692545158
 30
0.0
 11
0.0
 21
29.5
 31
0.0
  0
LINE
  5
25F7
  8
250
  6
CONTINUOUS
 10
203.99999999999531
 20
9.8137728460839604
 30
0.0
 11
203.99999999999531
 21
29.5
 31
0.0
  0
LINE
  5
25F8
  8
250
  6
CONTINUOUS
 10
2.2300000000000182
 20
28.5
 30
0.0
 11
201.76999999999529
 21
28.5
 31
0.0
  0
TEXT
  5
2705
  8
250
  6
CONTINUOUS
 10
97.642857142854879
 20
29.5
 30
0.0
 40
3.0
  1
204
1001
ACAD
1000
MTEXTBEGIN
1070
    73
1070
     1
1070
    44
1040
1.0
1070
    74
1070
     0
1000
MTEXTEND
  0
LINE
  5
2706
  8
250
  6
CONTINUOUS
 10
201.76999999999529
 20
28.871666666666648
 30
0.0
 11
203.99999999999531
 21
28.5
 31
0.0
  0
LINE
  5
2707
  8
250
  6
CONTINUOUS
 10
201.76999999999529
 20
28.12833333333333
 30
0.0
 11
203.99999999999531
 21
28.5
 31
0.0
  0
LINE
  5
2708
  8
250
  6
CONTINUOUS
 10
203.99999999999531
 20
28.5
 30
0.0
 11
201.76999999999529
 21
28.5
 31
0.0
  0
LINE
  5
2709
  8
250
  6
CONTINUOUS
 10
2.2300000000000182
 20
28.12833333333333
 30
0.0
 11
0.0
 21
28.5
 31
0.0
  0
LINE
  5
270A
  8
250
  6
CONTINUOUS
 10
2.2300000000000182
 20
28.871666666666648
 30
0.0
 11
0.0
 21
28.5
 31
0.0
  0
LINE
  5
270B
  8
250
  6
CONTINUOUS
 10
0.0
 20
28.5
 30
0.0
 11
2.2300000000000182
 21
28.5
 31
0.0
  0
LINE
  5
2718
  8
250
  6
CONTINUOUS
 10
213.80619889272199
 20
6.7699999999999987
 30
0.0
 11
214.17786555938869
 21
8.9999999999999982
 31
0.0
  0
LINE
  5
2719
  8
250
  6
CONTINUOUS
 10
214.54953222605539
 20
6.7699999999999987
 30
0.0
 11
214.17786555938869
 21
8.9999999999999982
 31
0.0
  0
LINE
  5
271A
  8
250
  6
CONTINUOUS
 10
214.17786555938869
 20
8.9999999999999982
 30
0.0
 11
214.17786555938869
 21
6.7699999999999987
 31
0.0
  0
TEXT
  5
271B
  8
250
  6
CONTINUOUS
 10
213.0111225639651
 20
-11.868162779668181
 30
0.0
 40
3.0
  1
\U+2205
 50
90.0
  0
TEXT
  5
271C
  8
250
  6
CONTINUOUS
 10
213.0111225639651
 20
-9.1538770653824635
 30
0.0
 40
3.0
  1
18ü`
 50
90.0
  0
TEXT
  5
271D
  8
250
  6
CONTINUOUS
 10
213.0111225639651
 20
0.1604086489032497
 30
0.0
 40
3.0
  1
\U+2205
 50
90.0
  0
TEXT
  5
271E
  8
250
  6
CONTINUOUS
 10
213.0111225639651
 20
2.8746943631889632
 30
0.0
 40
3.0
  1
22
 50
90.0
  0
LINE
  5
28D9
  8
245
  6
CENTER2
 10
-3.5023099130951891
 20
0.0
 30
0.0
 11
204.17786187322901
 21
0.0
 31
0.0
1001
GRPNAME
1000
PASTMD01
  0
LINE
  5
28DA
  8
240
  6
CONTINUOUS
 10
0.0
 20
-8.0000000000001101
 30
0.0
 11
189.60000000000281
 21
-8.0
 31
0.0
1001
GRPNAME
1000
00000001
  0
LINE
  5
28DB
  8
240
  6
CONTINUOUS
 10
0.0
 20
7.9999999999999991
 30
0.0
 11
189.60000000000281
 21
8.0
 31
0.0
1001
GRPNAME
1000
00000001
  0
LINE
  5
28DD
  8
240
  6
CONTINUOUS
 10
0.0
 20
-8.0000000000001101
 30
0.0
 11
0.0
 21
8.0
 31
0.0
  0
LINE
  5
2945
  8
241
  6
CONTINUOUS
 10
163.00000000000259
 20
5.9999999999999432
 30
0.0
 11
163.00000000000259
 21
8.0
 31
0.0
  0
LINE
  5
2946
  8
241
  6
CONTINUOUS
 10
165.00000000000281
 20
-6.000000000000056
 30
0.0
 11
165.0000000000027
 21
5.9999999999999432
 31
0.0
  0
LINE
  5
2947
  8
241
  6
CONTINUOUS
 10
163.00000000000321
 20
-6.000000000000056
 30
0.0
 11
165.00000000000281
 21
-6.000000000000056
 31
0.0
  0
LINE
  5
2948
  8
241
  6
CONTINUOUS
 10
163.00000000000321
 20
-6.000000000000056
 30
0.0
 11
163.00000000000509
 21
-8.0000000000000568
 31
0.0
  0
LINE
  5
2949
  8
241
  6
CONTINUOUS
 10
163.00000000000259
 20
5.9999999999999432
 30
0.0
 11
165.0000000000027
 21
5.9999999999999432
 31
0.0
  0
ARC
  5
294A
  8
241
  6
CONTINUOUS
 10
203.10407428263551
 20
8.75
 30
0.0
 40
5.000000000000016
 50
202.95449937282689
 51
246.92608193436851
1001
GRPNAME
1000
00000001
  0
LINE
  5
294B
  8
240
  6
CONTINUOUS
 10
203.7833885757276
 20
6.3153879026644972
 30
0.0
 11
203.9992389396136
 21
8.7825688514504332
 31
0.0
1001
GRPNAME
1000
00000001
  0
ARC
  5
294D
  8
241
  6
CONTINUOUS
 10
203.49708572938761
 20
8.6499999999999773
 30
0.0
 40
4.9999999999999556
 50
184.574796514578
 51
244.1580672003289
1001
GRPNAME
1000
00000001
  0
LINE
  5
294E
  8
241
  6
CONTINUOUS
 10
200.41203695975969
 20
5.4120369597646913
 30
0.0
 11
198.9915145868255
 21
7.4407531552033657
 31
0.0
1001
GRPNAME
1000
00000001
  0
LINE
  5
294F
  8
241
  6
CONTINUOUS
 10
168.00000000000281
 20
7.699999999999986
 30
0.0
 11
168.00000000000281
 21
5.4499999999999851
 31
0.0
1001
GRPNAME
1000
PASTMD01
  0
LINE
  5
2950
  8
241
  6
CONTINUOUS
 10
168.00000000000281
 20
8.0
 30
0.0
 11
168.00000000000281
 21
-8.0000000000000568
 31
0.0
1001
GRPNAME
1000
00000001
  0
LINE
  5
2951
  8
240
  6
CONTINUOUS
 10
189.60000000000281
 20
-8.0
 30
0.0
 11
190.8000000000028
 21
-6.8000000000000123
 31
0.0
1001
GRPNAME
1000
00000001
  0
LINE
  5
2952
  8
241
  6
CONTINUOUS
 10
172.50000000000281
 20
3.872983346207433
 30
0.0
 11
179.50000000000281
 21
3.872983346207433
 31
0.0
1001
GRPNAME
1000
00000001
  0
LINE
  5
2953
  8
241
  6
CONTINUOUS
 10
172.50000000000281
 20
-3.872983346207433
 30
0.0
 11
179.50000000000281
 21
-3.872983346207433
 31
0.0
1001
GRPNAME
1000
00000001
  0
LINE
  5
2954
  8
242
  6
CONTINUOUS
 10
179.50000000000281
 20
3.872983346207433
 30
0.0
 11
172.50000000000281
 21
-3.872983346207433
 31
0.0
1001
GRPNAME
1000
00000001
  0
LINE
  5
2955
  8
242
  6
CONTINUOUS
 10
172.50000000000281
 20
3.872983346207433
 30
0.0
 11
179.50000000000281
 21
-3.872983346207433
 31
0.0
1001
GRPNAME
1000
00000001
  0
ARC
  5
2956
  8
241
  6
CONTINUOUS
 10
179.5000000000019
 20
0.0
 30
0.0
 40
7.999999999999261
 50
151.04497562813589
 51
208.955024371864
  0
LINE
  5
2957
  8
241
  6
CONTINUOUS
 10
172.50000000000281
 20
-3.872983346207433
 30
0.0
 11
172.50000000000281
 21
3.872983346207433
 31
0.0
1001
GRPNAME
1000
00000001
  0
ARC
  5
2958
  8
241
  6
CONTINUOUS
 10
172.50000000000361
 20
0.0
 30
0.0
 40
7.999999999999261
 50
331.04497562813589
 51
28.955024371864049
  0
LINE
  5
2959
  8
241
  6
CONTINUOUS
 10
179.50000000000281
 20
-3.872983346207433
 30
0.0
 11
179.50000000000281
 21
3.872983346207433
 31
0.0
1001
GRPNAME
1000
00000001
  0
ARC
  5
295A
  8
240
  6
CONTINUOUS
 10
203.10407428263551
 20
8.75
 30
0.0
 40
4.9999999999999076
 50
246.92608193436851
 51
257.24310206460092
1001
GRPNAME
1000
00000001
  0
LINE
  5
295B
  8
240
  6
CONTINUOUS
 10
202.2144125282845
 20
4.1499999999999764
 30
0.0
 11
201.14448248840901
 21
4.1499999999999764
 31
0.0
1001
GRPNAME
1000
00000001
  0
LINE
  5
295C
  8
240
  6
CONTINUOUS
 10
202.2144125282845
 20
4.1499999999999764
 30
0.0
 11
202.44075315519919
 21
3.9915145868313431
 31
0.0
1001
GRPNAME
1000
00000001
  0
LINE
  5
295D
  8
240
  6
CONTINUOUS
 10
201.24944465005629
 20
-6.8000000000000123
 30
0.0
 11
202.00000000000281
 21
-5.5000000000001119
 31
0.0
1001
GRPNAME
1000
00000001
  0
LINE
  5
295E
  8
245
  6
CENTER2
 10
195.50000000000281
 20
-2.0
 30
0.0
 11
195.50000000000281
 21
2.0
 31
0.0
  0
LINE
  5
295F
  8
240
  6
CONTINUOUS
 10
193.7892304845443
 20
-7.25
 30
0.0
 11
197.21076951546129
 21
-7.25
 31
0.0
1001
GRPNAME
1000
00000001
  0
LINE
  5
2960
  8
241
  6
CONTINUOUS
 10
192.10980762114471
 20
-6.8000000000000123
 30
0.0
 11
198.89019237887851
 21
-6.8000000000000123
 31
0.0
1001
GRPNAME
1000
00000001
  0
LINE
  5
2961
  8
240
  6
CONTINUOUS
 10
193.7892304845443
 20
-7.25
 30
0.0
 11
192.10980762113829
 21
-6.8000000000000123
 31
0.0
1001
GRPNAME
1000
00000001
  0
LINE
  5
2962
  8
240
  6
CONTINUOUS
 10
190.8000000000028
 20
-6.8000000000000123
 30
0.0
 11
192.10980762114471
 21
-6.8000000000000123
 31
0.0
1001
GRPNAME
1000
00000001
  0
LINE
  5
2963
  8
240
  6
CONTINUOUS
 10
197.21076951546129
 20
-7.25
 30
0.0
 11
198.89019237886731
 21
-6.8000000000000123
 31
0.0
1001
GRPNAME
1000
00000001
  0
LINE
  5
2964
  8
240
  6
CONTINUOUS
 10
198.89019237887851
 20
-6.8000000000000123
 30
0.0
 11
201.24944465005629
 21
-6.8000000000000123
 31
0.0
1001
GRPNAME
1000
00000001
  0
CIRCLE
  5
29AD
  8
242
  6
CONTINUOUS
 10
195.50000000000281
 20
0.0
 30
0.0
 40
1.0
  0
CIRCLE
  5
29AE
  8
241
  6
CONTINUOUS
 10
195.50000000000281
 20
0.0
 30
0.0
 40
0.8
  0
LINE
  5
29AF
  8
240
  6
CONTINUOUS
 10
202.00000000000281
 20
-5.5000000000001119
 30
0.0
 11
202.00000000000281
 21
3.87342128347876
 31
0.0
1001
GRPNAME
1000
00000001
  0
LINE
  5
29B0
  8
240
  6
CONTINUOUS
 10
203.7833885757276
 20
6.3153879026644972
 30
0.0
 11
202.73672999987591
 21
4.0708213433399001
 31
0.0
1001
GRPNAME
1000
00000001
  0
ARC
  5
29B1
  8
240
  6
CONTINUOUS
 10
202.55546844246859
 20
4.1553449956880382
 30
0.0
 40
0.1999999999999857
 50
235.00000006469921
 51
335.00000006469509
1001
GRPNAME
1000
00000001
  0
LINE
  5
29B2
  8
240
  6
CONTINUOUS
 10
190.8000000000028
 20
6.8000000000000123
 30
0.0
 11
189.60000000000281
 21
8.0
 31
0.0
1001
GRPNAME
1000
00000001
  0
LINE
  5
29B3
  8
240
  6
CONTINUOUS
 10
201.31538790265989
 20
8.783388575732431
 30
0.0
 11
203.7825688514458
 21
8.9992389396183512
 31
0.0
1001
GRPNAME
1000
00000001
  0
LINE
  5
29B4
  8
240
  6
CONTINUOUS
 10
191.72617080885809
 20
8.0
 30
0.0
 11
196.46717394421049
 21
8.0
 31
0.0
1001
GRPNAME
1000
00000001
  0
LINE
  5
29B5
  8
241
  6
CONTINUOUS
 10
191.72617080885809
 20
6.8000000000000123
 30
0.0
 11
198.50000000000281
 21
6.8000000000000123
 31
0.0
1001
GRPNAME
1000
00000001
  0
LINE
  5
29B7
  8
240
  6
CONTINUOUS
 10
190.8000000000028
 20
6.8000000000000123
 30
0.0
 11
191.72617080885809
 21
6.8000000000000123
 31
0.0
1001
GRPNAME
1000
00000001
  0
LINE
  5
29B8
  8
240
  6
CONTINUOUS
 10
191.72617080885809
 20
8.0
 30
0.0
 11
191.72617080885809
 21
6.8000000000000123
 31
0.0
1001
GRPNAME
1000
00000001
  0
LINE
  5
29B9
  8
240
  6
CONTINUOUS
 10
196.46717394421049
 20
8.0
 30
0.0
 11
200.76781845191039
 21
8.5280527474774281
 31
0.0
1001
GRPNAME
1000
00000001
  0
ARC
  5
29BA
  8
241
  6
CONTINUOUS
 10
199.15534499568321
 20
7.5554684424735656
 30
0.0
 40
0.1999999999999398
 50
114.999999930985
 51
214.99999993101889
1001
GRPNAME
1000
00000001
  0
LINE
  5
29BB
  8
240
  6
CONTINUOUS
 10
200.76781845191039
 20
8.5280527474774281
 30
0.0
 11
201.31538790265819
 21
8.7833885757332126
 31
0.0
1001
GRPNAME
1000
00000001
  0
ARC
  5
29BC
  8
240
  6
CONTINUOUS
 10
203.79999999999529
 20
8.8000000000000114
 30
0.0
 40
0.1999999999999916
 50
355.00000000298502
 51
95.000000003012474
1001
GRPNAME
1000
00000001
  0
LINE
  5
29C9
  8
241
  6
CONTINUOUS
 10
200.76781845191039
 20
8.5280527474774281
 30
0.0
 11
199.0708213435534
 21
7.7367299999826544
 31
0.0
  0
LINE
  5
29CA
  8
241
  6
CONTINUOUS
 10
202.2144125282845
 20
4.1499999999999764
 30
0.0
 11
200.41203695975969
 21
5.4120369597646913
 31
0.0
  0
LINE
  5
2A8B
  8
250
  6
CONTINUOUS
 10
20.380068126938681
 20
-21.0
 30
0.0
 11
0.8086395555101262
 21
-21.0
 31
0.0
1001
ITEMNAME
1000
LNSP2
  0
TEXT
  5
2A8C
  8
250
  6
CONTINUOUS
 10
3.380068126938681
 20
-20.0
 30
0.0
 40
3.0
  1
ST16W
  7
YOKO
1001
ITEMNAME
1000
LNSP3
1001
ACAD
1000
MTEXTBEGIN
1070
    73
1070
     1
1070
    44
1040
1.0
1070
    74
1070
     0
1000
MTEXTEND
  0
LINE
  5
2A8D
  8
250
  6
CONTINUOUS
 10
26.770621626403798
 20
-9.9312366504393594
 30
0.0
 11
20.380068126938681
 21
-21.0
 31
0.0
1001
ACAD
1000
DSTYLE
1002
{
1070
     5
1000
OPEN
1070
    78
1070
     8
1070
   140
1040
3.0
1002
}
  0
LINE
  5
2A8E
  8
250
  6
CONTINUOUS
 10
26.44874885133061
 20
-9.7454033171060246
 30
0.0
 11
27.8856216264038
 21
-8.0000000000001137
 31
0.0
  0
LINE
  5
2A8F
  8
250
  6
CONTINUOUS
 10
27.09249440147698
 20
-10.117069983772691
 30
0.0
 11
27.8856216264038
 21
-8.0000000000001137
 31
0.0
  0
LINE
  5
2A90
  8
250
  6
CONTINUOUS
 10
27.8856216264038
 20
-8.0000000000001137
 30
0.0
 11
26.770621626403798
 21
-9.9312366504393594
 31
0.0
  0
LINE
  5
2A91
  8
247
  6
CONTINUOUS
 10
6.749999999929968
 20
-5.5
 30
0.0
 11
13.442307691969971
 21
-5.5
 31
0.0
  0
ARC
  5
2A92
  8
247
  6
CONTINUOUS
 10
6.749999999929968
 20
-3.7500000000700311
 30
0.0
 40
1.7499999999299991
 50
90.0
 51
270.0
  0
ARC
  5
2A93
  8
247
  6
CONTINUOUS
 10
13.442307691969971
 20
-3.7500000000700311
 30
0.0
 40
1.7499999999299991
 50
270.0
 51
90.0
  0
LINE
  5
2A94
  8
247
  6
CONTINUOUS
 10
7.615384615279992
 20
-2.0000000001400622
 30
0.0
 11
6.7551484580379793
 21
-5.000000000020008
 31
0.0
  0
LINE
  5
2A95
  8
247
  6
CONTINUOUS
 10
8.5150161816641798
 20
-3.4230769231598961
 30
0.0
 11
7.2073238740241541
 21
-3.4230769231598961
 31
0.0
  0
ARC
  5
2A96
  8
247
  6
CONTINUOUS
 10
8.8548561839102131
 20
-2.5495986677028659
 30
0.0
 40
0.5538165441895349
 50
342.99788967529531
 51
82.924166218513577
  0
ARC
  5
2A97
  8
247
  6
CONTINUOUS
 10
8.4331216769712114
 20
-2.4360330444658298
 30
0.0
 40
0.9904354236226808
 50
274.74293685219902
 51
343.84922627326682
1001
GENIUS_GENOBJ-N-FIL_13
1002
{
1000
OWNER
1000
GEN
1002
}
1001
GENIUS_GENODEF_13
1002
{
1000
HIER
1070
     0
1002
}
1002
{
1000
MANEDIT
1070
     0
1002
}
1002
{
1000
NOSEL
1070
     0
1002
}
1002
{
1000
BEHIND
1070
     0
1002
}
1002
{
1000
OTHER
1070
     0
1002
}
1002
{
1000
REACTOR
1002
}
  0
LINE
  5
2A98
  8
247
  6
CONTINUOUS
 10
8.0628407656780041
 20
-5.000000000020008
 30
0.0
 11
6.7551484580379793
 21
-5.000000000020008
 31
0.0
  0
LINE
  5
2A99
  8
247
  6
CONTINUOUS
 10
7.615384615279992
 20
-2.0000000001400622
 30
0.0
 11
8.9230769229200178
 21
-2.0000000001400622
 31
0.0
  0
ARC
  5
2A9A
  8
247
  6
CONTINUOUS
 10
8.4390803634530585
 20
-3.9820242326654798
 30
0.0
 40
0.5640818586791229
 50
335.9909416525216
 51
82.263443459069109
  0
ARC
  5
2A9B
  8
247
  6
CONTINUOUS
 10
7.9617373146529644
 20
-3.9874290391865079
 30
0.0
 40
1.0176059446230981
 50
275.70198516425648
 51
347.27733843682199
1001
GENIUS_GENOBJ-N-FIL_13
1002
{
1000
OWNER
1000
GEN
1002
}
1001
GENIUS_GENODEF_13
1002
{
1000
HIER
1070
     0
1002
}
1002
{
1000
MANEDIT
1070
     0
1002
}
1002
{
1000
NOSEL
1070
     0
1002
}
1002
{
1000
BEHIND
1070
     0
1002
}
1002
{
1000
OTHER
1070
     0
1002
}
1002
{
1000
REACTOR
1002
}
  0
LINE
  5
2A9C
  8
247
  6
CONTINUOUS
 10
9.7166869194579704
 20
-5.000000000020008
 30
0.0
 11
10.57692307669998
 21
-2.0000000001400622
 31
0.0
  0
LINE
  5
2A9D
  8
247
  6
CONTINUOUS
 10
12.99999999967997
 20
-2.0000000001400622
 30
0.0
 11
12.434263380543371
 21
-2.0000000001400622
 31
0.0
  0
LINE
  5
2A9E
  8
247
  6
CONTINUOUS
 10
11.538461538200011
 20
-5.000000000020008
 30
0.0
 11
12.15384615355998
 21
-5.000000000020008
 31
0.0
  0
ARC
  5
2A9F
  8
247
  6
CONTINUOUS
 10
13.29120879087713
 20
-4.0832851359733686
 30
0.0
 40
2.2526500823422122
 50
112.3594881415295
 51
164.99324854284649
  0
ARC
  5
2AA0
  8
247
  6
CONTINUOUS
 10
12.62593052078677
 20
-2.8083126551946398
 30
0.0
 40
0.8906723995727782
 50
4.9945893190753123
 51
65.166328957300664
1001
GENIUS_GENOBJ-N-FIL_13
1002
{
1000
OWNER
1000
GEN
1002
}
1001
GENIUS_GENODEF_13
1002
{
1000
HIER
1070
     0
1002
}
1002
{
1000
MANEDIT
1070
     0
1002
}
1002
{
1000
NOSEL
1070
     0
1002
}
1002
{
1000
BEHIND
1070
     0
1002
}
1002
{
1000
OTHER
1070
     0
1002
}
1002
{
1000
REACTOR
1002
}
  0
ARC
  5
2AA1
  8
247
  6
CONTINUOUS
 10
11.77354111378742
 20
-3.6601458886677838
 30
0.0
 40
1.392781735586712
 50
285.84609655578072
 51
352.3251370041624
  0
ARC
  5
2AA2
  8
247
  6
CONTINUOUS
 10
12.35778727415965
 20
-3.9592434315272831
 30
0.0
 40
1.324563662670287
 50
159.71360167049011
 51
231.78874565641459
1001
GENIUS_GENOBJ-N-FIL_13
1002
{
1000
OWNER
1000
GEN
1002
}
1001
GENIUS_GENODEF_13
1002
{
1000
HIER
1070
     0
1002
}
1002
{
1000
MANEDIT
1070
     0
1002
}
1002
{
1000
NOSEL
1070
     0
1002
}
1002
{
1000
BEHIND
1070
     0
1002
}
1002
{
1000
OTHER
1070
     0
1002
}
1002
{
1000
REACTOR
1002
}
  0
LINE
  5
2AA3
  8
247
  6
CONTINUOUS
 10
12.46153846124002
 20
-3.846153846219976
 30
0.0
 11
13.15384615352002
 21
-3.846153846219976
 31
0.0
  0
LINE
  5
2AA4
  8
247
  6
CONTINUOUS
 10
6.749999999929968
 20
-2.0000000001400622
 30
0.0
 11
7.4230769229799298
 21
-2.0000000001400622
 31
0.0
  0
VIEWPORT
  5
22
 67
     1
  8
0
 10
261.51769911504419
 20
148.5
 30
0.0
 40
523.0353982300885
 41
297.0
 68
     1
 69
     1
1001
ACAD
1000
MVIEW
1002
{
1070
    16
1010
0.0
1020
0.0
1030
0.0
1010
0.0
1020
0.0
1030
1.0
1040
0.0
1040
297.0
1040
261.51769911504419
1040
148.5
1040
50.0
1040
0.0
1040
0.0
1070
     0
1070
   100
1070
     1
1070
     1
1070
     0
1070
     0
1070
     0
1070
     0
1040
0.0
1040
0.0
1040
0.0
1040
1.0
1040
1.0
1040
10.0
1040
10.0
1070
     0
1002
{
1002
}
1002
}
1001
GENIUS_GENODEF_13
1002
{
1000
HIER
1070
     0
1002
}
1002
{
1000
MANEDIT
1070
     0
1002
}
1002
{
1000
NOSEL
1070
     0
1002
}
1002
{
1000
BEHIND
1070
     0
1002
}
1002
{
1000
OTHER
1070
     0
1002
}
1002
{
1000
REACTOR
1002
}
1001
GENIUS_GENOBJ-N-SDF_13
1002
{
1000
OWNER
1000
GEN
1002
}
1001
GENIUS_GENSCREG_15
1000
PF
1040
1.0
1000
DF
1040
1.0
1000
MIN
1011
0.0
1021
0.0
1031
0.0
1021
0.0
1031
0.0
1000
MAX
1011
523.0353982300885
1021
0.0
1031
0.0
1021
297.0
1031
0.0
1000
FLAGS
1070
     4
  0
ENDSEC
  0
EOF
