  0
SECTION
  2
HEADER
  9
$ACADVER
  1
AC1009
  9
$INSBASE
 10
0.0
 20
0.0
 30
0.0
  9
$EXTMIN
 10
-2.1675468807195548
 20
-21.006435748824121
 30
-0.0015258207003583
  9
$EXTMAX
 10
136.9004155693348
 20
38.00006641179079
 30
0.0000000349246037
  9
$LIMMIN
 10
0.0
 20
0.0
  9
$LIMMAX
 10
297.0
 20
210.0
  9
$ORTHOMODE
 70
     0
  9
$REGENMODE
 70
     1
  9
$FILLMODE
 70
     1
  9
$QTEXTMODE
 70
     0
  9
$MIRRTEXT
 70
     1
  9
$DRAGMODE
 70
     2
  9
$LTSCALE
 40
10.0
  9
$OSMODE
 70
  3071
  9
$ATTMODE
 70
     1
  9
$TEXTSIZE
 40
3.0
  9
$TRACEWID
 40
1.0
  9
$TEXTSTYLE
  7
YOKO
  9
$CLAYER
  8
240
  9
$CELTYPE
  6
BYLAYER
  9
$CECOLOR
 62
   256
  9
$DIMSCALE
 40
1.0
  9
$DIMASZ
 40
2.2299999999999991
  9
$DIMEXO
 40
0.5
  9
$DIMDLI
 40
7.0
  9
$DIMRND
 40
0.0
  9
$DIMDLE
 40
0.0
  9
$DIMEXE
 40
1.0
  9
$DIMTP
 40
0.0
  9
$DIMTM
 40
0.01
  9
$DIMTXT
 40
2.799999999999998
  9
$DIMCEN
 40
0.0
  9
$DIMTSZ
 40
0.0
  9
$DIMTOL
 70
     0
  9
$DIMLIM
 70
     0
  9
$DIMTIH
 70
     0
  9
$DIMTOH
 70
     0
  9
$DIMSE1
 70
     0
  9
$DIMSE2
 70
     0
  9
$DIMTAD
 70
     3
  9
$DIMZIN
 70
     9
  9
$DIMBLK
  1
OPEN
  9
$DIMASO
 70
     1
  9
$DIMSHO
 70
     1
  9
$DIMPOST
  1

  9
$DIMAPOST
  1

  9
$DIMALT
 70
     0
  9
$DIMALTD
 70
     2
  9
$DIMALTF
 40
25.399999999999999
  9
$DIMLFAC
 40
1.0
  9
$DIMTOFL
 70
     1
  9
$DIMTVP
 40
0.0
  9
$DIMTIX
 70
     1
  9
$DIMSOXD
 70
     0
  9
$DIMSAH
 70
     0
  9
$DIMBLK1
  1

  9
$DIMBLK2
  1

  9
$DIMSTYLE
  2
BIGT
  9
$DIMCLRD
 70
   256
  9
$DIMCLRE
 70
   256
  9
$DIMCLRT
 70
    40
  9
$DIMTFAC
 40
1.0
  9
$DIMGAP
 40
1.0
  9
$LUNITS
 70
     2
  9
$LUPREC
 70
     3
  9
$SKETCHINC
 40
1.0
  9
$FILLETRAD
 40
0.0
  9
$AUNITS
 70
     0
  9
$AUPREC
 70
     3
  9
$MENU
  1
.
  9
$ELEVATION
 40
0.0
  9
$PELEVATION
 40
0.0
  9
$THICKNESS
 40
0.0
  9
$LIMCHECK
 70
     0
  9
$BLIPMODE
 70
     0
  9
$CHAMFERA
 40
0.25
  9
$CHAMFERB
 40
0.25
  9
$SKPOLY
 70
     0
  9
$TDCREATE
 40
2456542.706307176
  9
$TDUPDATE
 40
2457366.393819063
  9
$TDINDWG
 40
0.0342706713
  9
$TDUSRTIMER
 40
0.0342704745
  9
$USRTIMER
 70
     1
  9
$ANGBASE
 50
0.0
  9
$ANGDIR
 70
     0
  9
$PDMODE
 70
     1
  9
$PDSIZE
 40
0.0
  9
$PLINEWID
 40
0.0
  9
$COORDS
 70
     1
  9
$SPLFRAME
 70
     0
  9
$SPLINETYPE
 70
     6
  9
$SPLINESEGS
 70
     4
  9
$ATTDIA
 70
     1
  9
$ATTREQ
 70
     1
  9
$HANDLING
 70
     1
  9
$HANDSEED
  5
1E1F
  9
$SURFTAB1
 70
     6
  9
$SURFTAB2
 70
     6
  9
$SURFTYPE
 70
     6
  9
$SURFU
 70
     6
  9
$SURFV
 70
     6
  9
$UCSNAME
  2

  9
$UCSORG
 10
0.0
 20
0.0
 30
0.0
  9
$UCSXDIR
 10
1.0
 20
0.0
 30
0.0
  9
$UCSYDIR
 10
0.0
 20
1.0
 30
0.0
  9
$PUCSNAME
  2

  9
$PUCSORG
 10
0.0
 20
0.0
 30
0.0
  9
$PUCSXDIR
 10
1.0
 20
0.0
 30
0.0
  9
$PUCSYDIR
 10
0.0
 20
1.0
 30
0.0
  9
$USERI1
 70
     1
  9
$USERI2
 70
     0
  9
$USERI3
 70
     0
  9
$USERI4
 70
     0
  9
$USERI5
 70
     0
  9
$USERR1
 40
0.0
  9
$USERR2
 40
0.0
  9
$USERR3
 40
0.0
  9
$USERR4
 40
0.0
  9
$USERR5
 40
0.0
  9
$WORLDVIEW
 70
     1
  9
$SHADEDGE
 70
     3
  9
$SHADEDIF
 70
    70
  9
$TILEMODE
 70
     1
  9
$MAXACTVP
 70
    16
  9
$PLIMCHECK
 70
     0
  9
$PEXTMIN
 10
1.0000000000000000E+020
 20
1.0000000000000000E+020
 30
1.0000000000000000E+020
  9
$PEXTMAX
 10
-1.0000000000000000E+020
 20
-1.0000000000000000E+020
 30
-1.0000000000000000E+020
  9
$PLIMMIN
 10
0.0
 20
0.0
  9
$PLIMMAX
 10
420.0
 20
297.0
  9
$UNITMODE
 70
     0
  9
$VISRETAIN
 70
     1
  9
$PLINEGEN
 70
     0
  9
$PSLTSCALE
 70
     1
  0
ENDSEC
  0
SECTION
  2
TABLES
  0
TABLE
  2
VPORT
 70
     1
  0
VPORT
  2
*ACTIVE
 70
     0
 10
0.0
 20
0.0
 11
1.0
 21
1.0
 12
67.366434344307663
 22
8.496815331483333
 13
0.0
 23
0.0
 14
7.0
 24
7.0
 15
7.0
 25
7.0
 16
0.0
 26
0.0
 36
1.0
 17
0.0
 27
0.0
 37
0.0
 40
96.939413896285274
 41
1.4415730337078649
 42
50.0
 43
0.0
 44
0.0
 50
0.0
 51
0.0
 71
     0
 72
  2000
 73
     1
 74
     0
 75
     0
 76
     1
 77
     0
 78
     0
  0
ENDTAB
  0
TABLE
  2
LTYPE
 70
    23
  0
LTYPE
  2
CONTINUOUS
 70
     0
  3
Solid line
 72
    65
 73
     0
 40
0.0
  0
LTYPE
  2
CENTER2
 70
     0
  3
___ _ ___ _ ___ _ ___ _ ___ _ ___ _ ___ _ ___ _
 72
    65
 73
     4
 40
1.125
 49
0.75
 49
-0.125
 49
0.125
 49
-0.125
  0
LTYPE
  2
HIDDEN2
 70
     0
  3
_ _ _ _ _ _ _ _ _ _ _ _ _ _ _ _ _ _ _ _ _ _ _ _
 72
    65
 73
     2
 40
0.1875
 49
0.125
 49
-0.0625
  0
LTYPE
  2
PHANTOM2
 70
     0
  3
___ _ _ ___ _ _ ___ _ _ ___ _ _ ___ _ _ ___ _ _
 72
    65
 73
     6
 40
1.25
 49
0.625
 49
-0.125
 49
0.125
 49
-0.125
 49
0.125
 49
-0.125
  0
LTYPE
  2
CENTER
 70
     0
  3
____ _ ____ _ ____ _ ____ _ ____ _ ____ _ ____ 
 72
    65
 73
     4
 40
2.0
 49
1.25
 49
-0.25
 49
0.25
 49
-0.25
  0
LTYPE
  2
AM_ISO02W050
 70
     0
  3
__ __ __ __ __ __ __ __ __ __ __ __ __ __ __
 72
    65
 73
     2
 40
7.5
 49
6.0
 49
-1.5
  0
LTYPE
  2
AMCONSTR
 70
     0
  3
_______________________
 72
    65
 73
     2
 40
9999.0
 49
9999.0
 49
0.0
  0
LTYPE
  2
ACJISTGB
 70
     0
  3
__ . . __ . .
 72
    65
 73
     6
 40
9.0
 49
4.0
 49
-1.0
 49
1.0
 49
-1.0
 49
1.0
 49
-1.0
  0
LTYPE
  2
ACJISTGL
 70
     0
  3
_ _ _ _ _
 72
    65
 73
     2
 40
3.0
 49
2.0
 49
-1.0
  0
LTYPE
  2
HIDDEN
 70
     0
  3
Hidden __ __ __ __ __ __ __ __ __ __ __ __ __ _
 72
    65
 73
     2
 40
9.5249999999999986
 49
6.349999999999997
 49
-3.174999999999998
  0
LTYPE
  2
AMZIGZAG2
 70
     0
  3
/\/-/\/-/\/-/\/-/\/-/\/
 72
    65
 73
     2
 40
0.4401
 49
0.0001
 49
-0.4400000000000002
  0
LTYPE
  2
ACANSTGB
 70
     0
  3
__ . . __ . .
 72
    65
 73
     6
 40
0.35433070866
 49
0.15748031496
 49
-0.03937007874
 49
0.03937007874
 49
-0.03937007874
 49
0.03937007874
 49
-0.03937007874
  0
LTYPE
  2
ACANSTGL
 70
     0
  3
_ _ _ _ _
 72
    65
 73
     2
 40
0.11811023622
 49
0.07874015748
 49
-0.03937007874
  0
ENDTAB
  0
TABLE
  2
LAYER
 70
    17
  0
LAYER
  2
0
 70
     0
 62
     7
  6
CONTINUOUS
  0
LAYER
  2
240
 70
     0
 62
     4
  6
CONTINUOUS
  0
LAYER
  2
DEFPOINTS
 70
     0
 62
     7
  6
CONTINUOUS
  0
LAYER
  2
245
 70
     0
 62
     2
  6
CENTER2
  0
LAYER
  2
241
 70
     0
 62
   211
  6
CONTINUOUS
  0
LAYER
  2
243
 70
     0
 62
   211
  6
HIDDEN2
  0
LAYER
  2
244
 70
     0
 62
     3
  6
HIDDEN2
  0
LAYER
  2
246
 70
     0
 62
     3
  6
PHANTOM2
  0
LAYER
  2
247
 70
     0
 62
    60
  6
CONTINUOUS
  0
LAYER
  2
250
 70
     0
 62
     3
  6
CONTINUOUS
  0
ENDTAB
  0
TABLE
  2
STYLE
 70
    10
  0
STYLE
  2
STANDARD
 70
     0
 40
0.0
 41
1.0
 50
0.0
 71
     0
 42
3.0
  3
romans.shx
  4
extfont.shx
  0
STYLE
  2
YOKO
 70
     0
 40
0.0
 41
1.0
 50
0.0
 71
     0
 42
3.0
  3
romans.shx
  4
extfont.shx
  0
STYLE
  2
ACJISTS
 70
     0
 40
1.0
 41
1.0
 50
0.0
 71
     0
 42
3.0
  3
amgdt.shx
  4
extfont.shx
  0
STYLE
  2
ACJISGDT
 70
     0
 40
0.0
 41
1.0
 50
0.0
 71
     0
 42
3.0
  3
amgdt.shx
  4
extfont.shx
  0
STYLE
  2
ACANSGDT
 70
     0
 40
0.0
 41
1.0
 50
0.0
 71
     0
 42
3.0
  3
amgdt.shx
  4

  0
ENDTAB
  0
TABLE
  2
VIEW
 70
     0
  0
ENDTAB
  0
TABLE
  2
UCS
 70
     0
  0
ENDTAB
  0
TABLE
  2
APPID
 70
    35
  0
APPID
  2
ACAD
 70
     0
  0
APPID
  2
ACADANNOTATIVE
 70
     0
  0
APPID
  2
GLOBAL
 70
     0
  0
APPID
  2
DETAIL
 70
     0
  0
APPID
  2
GRPNAME
 70
     0
  0
APPID
  2
GPARA
 70
     0
  0
APPID
  2
MCAD_NO_VIS
 70
     0
  0
APPID
  2
ACAD_TEMP_GRAPHIC
 70
     0
  0
APPID
  2
ACATTRIBSERVICES
 70
     0
  0
APPID
  2
GENIUS_GENSCREG_15
 70
     0
  0
APPID
  2
GENIUS_GENODEF_13
 70
     0
  0
APPID
  2
GENIUS_GENOBJ-N-SDF_13
 70
     0
  0
APPID
  2
GENIUS_GENREC_14
 70
     0
  0
APPID
  2
GENIUS_GENOBJ-N-REC_13
 70
     0
  0
APPID
  2
GENIUS_GENDIMSH_14
 70
     0
  0
APPID
  2
GENIUS_GENOBJ-N-DIM_13
 70
     0
  0
APPID
  2
GENIUS_GENDIM_13
 70
     0
  0
APPID
  2
GENIUS_GENDTOL_13
 70
     0
  0
APPID
  2
GENIUS_GENOLIS_13
 70
     0
  0
APPID
  2
GENIUS_GENOENT_13
 70
     0
  0
APPID
  2
GENIUS_GENOBJ-F-FEM_13
 70
     0
  0
APPID
  2
GENIUS_GENOREF_13
 70
     0
  0
APPID
  2
GENIUS_GEFFEM_13
 70
     0
  0
APPID
  2
GENIUS_GEFFEMP_13
 70
     0
  0
APPID
  2
AD_DRAW
 70
     0
  0
APPID
  2
DESIGNERASSEMBLIES
 70
     0
  0
APPID
  2
ACADM_DIM_EDIT
 70
     0
  0
APPID
  2
AMDT_DM_ADJ
 70
     0
  0
APPID
  2
ACAD_DSTYLE_DIMBREAK
 70
     0
  0
APPID
  2
ACAD_DSTYLE_DIMJAG
 70
     0
  0
APPID
  2
ACAD_NAV_VCDISPLAY
 70
     0
  0
APPID
  2
ITEMNAME
 70
     0
  0
APPID
  2
GENIUS_GENOBJ-N-FIL_13
 70
     0
  0
APPID
  2
ACAD_EXEMPT_FROM_CAD_STANDARDS
 70
     0
  0
APPID
  2
ACAD_MLEADERVER
 70
     0
  0
ENDTAB
  0
TABLE
  2
DIMSTYLE
 70
    32
  0
DIMSTYLE
  2
STANDARD
 70
     0
  3

  4

  5

  6

  7

 40
1.0
 41
0.18
 42
0.0625
 43
0.38
 44
0.18
 45
0.0
 46
0.0
 47
0.0
 48
0.0
140
0.18
141
0.09
142
0.0
143
25.399999999999999
144
1.0
145
0.0
146
1.0
147
0.09
 71
     0
 72
     0
 73
     1
 74
     1
 75
     0
 76
     0
 77
     0
 78
     0
170
     0
171
     2
172
     0
173
     0
174
     0
175
     0
176
     0
177
     0
178
     0
  0
DIMSTYLE
  2
BIGT
 70
     0
  3

  4

  5

  6

  7

 40
1.0
 41
2.2299999999999991
 42
0.5
 43
7.0
 44
1.0
 45
0.0
 46
0.0
 47
0.0
 48
0.01
140
2.799999999999998
141
0.0
142
0.0
143
25.399999999999999
144
1.0
145
0.0
146
1.0
147
1.0
 71
     0
 72
     0
 73
     0
 74
     0
 75
     0
 76
     0
 77
     3
 78
     9
170
     0
171
     2
172
     1
173
     0
174
     1
175
     0
176
   256
177
   256
178
    40
  0
DIMSTYLE
  2
BIGT$2
 70
     0
  3

  4

  5

  6

  7

 40
1.0
 41
2.2299999999999991
 42
0.5
 43
7.0
 44
1.0
 45
0.0
 46
0.0
 47
0.0
 48
0.01
140
2.799999999999998
141
0.0
142
0.0
143
25.399999999999999
144
1.0
145
0.0
146
1.0
147
1.0
 71
     0
 72
     0
 73
     0
 74
     0
 75
     0
 76
     0
 77
     3
 78
     9
170
     0
171
     2
172
     1
173
     0
174
     0
175
     0
176
   256
177
   256
178
    40
  0
DIMSTYLE
  2
BIGT$3
 70
     0
  3

  4

  5

  6

  7

 40
1.0
 41
2.2299999999999991
 42
0.5
 43
2.5
 44
1.0
 45
0.0
 46
0.0
 47
0.0
 48
0.01
140
2.799999999999998
141
0.0
142
0.0
143
25.399999999999999
144
1.0
145
0.0
146
1.0
147
1.0
 71
     0
 72
     0
 73
     0
 74
     0
 75
     0
 76
     0
 77
     3
 78
     9
170
     0
171
     2
172
     1
173
     0
174
     0
175
     0
176
   256
177
   256
178
    40
  0
DIMSTYLE
  2
BIGT$7
 70
     0
  3

  4

  5

  6

  7

 40
0.0
 41
2.2299999999999991
 42
0.5
 43
7.0
 44
1.0
 45
0.0
 46
0.0
 47
0.0
 48
0.01
140
2.799999999999998
141
0.0
142
0.0
143
25.399999999999999
144
1.0
145
0.0
146
1.0
147
1.0
 71
     0
 72
     0
 73
     0
 74
     0
 75
     0
 76
     0
 77
     3
 78
     9
170
     0
171
     2
172
     0
173
     0
174
     0
175
     0
176
   256
177
   256
178
    40
  0
DIMSTYLE
  2
BIGT$6
 70
     0
  3

  4

  5

  6

  7

 40
1.0
 41
2.2299999999999991
 42
0.5
 43
2.5
 44
1.0
 45
0.0
 46
0.0
 47
0.0
 48
0.01
140
2.799999999999998
141
0.0
142
0.0
143
25.399999999999999
144
1.0
145
0.0
146
1.0
147
1.0
 71
     0
 72
     0
 73
     0
 74
     0
 75
     0
 76
     0
 77
     3
 78
     9
170
     0
171
     2
172
     1
173
     0
174
     0
175
     0
176
   256
177
   256
178
    40
  0
DIMSTYLE
  2
BIGT$0
 70
     0
  3

  4

  5

  6

  7

 40
1.0
 41
2.2299999999999991
 42
0.5
 43
7.0
 44
1.0
 45
0.0
 46
0.0
 47
0.0
 48
0.01
140
2.799999999999998
141
0.0
142
0.0
143
25.399999999999999
144
1.0
145
0.0
146
1.0
147
1.0
 71
     0
 72
     0
 73
     0
 74
     0
 75
     0
 76
     0
 77
     3
 78
     9
170
     0
171
     2
172
     1
173
     0
174
     0
175
     0
176
   256
177
   256
178
    40
  0
DIMSTYLE
  2
BIGT$4
 70
     0
  3

  4

  5

  6

  7

 40
1.0
 41
2.2299999999999991
 42
0.5
 43
2.5
 44
1.0
 45
0.0
 46
0.0
 47
0.0
 48
0.01
140
2.799999999999998
141
0.0
142
0.0
143
25.399999999999999
144
1.0
145
0.0
146
1.0
147
1.0
 71
     0
 72
     0
 73
     0
 74
     0
 75
     0
 76
     0
 77
     3
 78
     9
170
     0
171
     2
172
     1
173
     0
174
     0
175
     0
176
   256
177
   256
178
    40
  0
DIMSTYLE
  2
BIGT$SH
 70
     0
  3

  4

  5

  6

  7

 40
1.0
 41
2.2299999999999991
 42
0.5
 43
7.0
 44
1.0
 45
0.0
 46
0.0
 47
0.0
 48
0.0
140
2.799999999999998
141
0.0
142
0.0
143
25.399999999999999
144
1.0
145
0.0
146
1.0
147
1.0
 71
     0
 72
     0
 73
     0
 74
     0
 75
     0
 76
     0
 77
     3
 78
     9
170
     0
171
     2
172
     1
173
     0
174
     0
175
     0
176
   256
177
   256
178
    40
  0
DIMSTYLE
  2
BIGT$SF
 70
     0
  3

  4

  5

  6

  7

 40
1.0
 41
2.2299999999999991
 42
0.5
 43
7.0
 44
1.0
 45
0.0
 46
0.0
 47
0.0
 48
0.0
140
2.799999999999998
141
0.0
142
0.0
143
25.399999999999999
144
1.0
145
0.0
146
1.0
147
1.0
 71
     0
 72
     0
 73
     0
 74
     0
 75
     0
 76
     0
 77
     3
 78
     9
170
     0
171
     2
172
     1
173
     0
174
     0
175
     0
176
   256
177
   256
178
    40
  0
DIMSTYLE
  2
AM_ANSI
 70
     0
  3

  4
mm
  5

  6

  7

 40
1.0
 41
0.1
 42
0.05
 43
0.5
 44
0.1
 45
0.0
 46
0.0
 47
0.1
 48
0.1
140
0.12
141
0.0
142
0.0
143
25.399999999999999
144
1.0
145
0.0
146
0.71
147
0.06
 71
     0
 72
     0
 73
     1
 74
     1
 75
     0
 76
     0
 77
     0
 78
     7
170
     0
171
     2
172
     0
173
     0
174
     0
175
     0
176
   256
177
   256
178
     2
  0
DIMSTYLE
  2
AM_ANSI$3
 70
     0
  3

  4
mm
  5

  6

  7

 40
1.0
 41
0.1
 42
0.05
 43
0.5
 44
0.1
 45
0.0
 46
0.0
 47
0.1
 48
0.1
140
0.12
141
0.0
142
0.0
143
25.399999999999999
144
1.0
145
0.0
146
0.71
147
0.06
 71
     0
 72
     0
 73
     1
 74
     1
 75
     0
 76
     0
 77
     0
 78
     7
170
     0
171
     2
172
     0
173
     0
174
     0
175
     0
176
   256
177
   256
178
     2
  0
DIMSTYLE
  2
AM_ANSI$4
 70
     0
  3

  4
mm
  5

  6

  7

 40
1.0
 41
0.1
 42
0.05
 43
0.5
 44
0.1
 45
0.0
 46
0.0
 47
0.1
 48
0.1
140
0.12
141
0.0
142
0.0
143
25.399999999999999
144
1.0
145
0.0
146
0.71
147
0.06
 71
     0
 72
     0
 73
     1
 74
     1
 75
     0
 76
     0
 77
     0
 78
     7
170
     0
171
     2
172
     0
173
     0
174
     0
175
     0
176
   256
177
   256
178
     2
  0
DIMSTYLE
  2
AM_ANSI$7
 70
     0
  3

  4
mm
  5

  6

  7

 40
1.0
 41
0.1
 42
0.05
 43
0.5
 44
0.1
 45
0.0
 46
0.0
 47
0.1
 48
0.1
140
0.24
141
0.0
142
0.0
143
25.399999999999999
144
1.0
145
0.0
146
0.71
147
0.06
 71
     0
 72
     0
 73
     1
 74
     1
 75
     0
 76
     0
 77
     0
 78
     7
170
     0
171
     2
172
     0
173
     0
174
     0
175
     0
176
   256
177
   256
178
     2
  0
DIMSTYLE
  2
AM_ANSI$SF
 70
     0
  3

  4
mm
  5

  6

  7

 40
1.0
 41
0.1
 42
0.05
 43
0.5
 44
0.1
 45
0.0
 46
0.0
 47
0.1
 48
0.1
140
0.12
141
0.0
142
0.0
143
25.399999999999999
144
1.0
145
0.0
146
0.71
147
0.06
 71
     0
 72
     0
 73
     1
 74
     1
 75
     1
 76
     1
 77
     0
 78
     7
170
     0
171
     2
172
     0
173
     0
174
     0
175
     0
176
   256
177
   256
178
     2
  0
DIMSTYLE
  2
AM_ANSI$SH
 70
     0
  3

  4
mm
  5

  6

  7

 40
1.0
 41
0.1
 42
0.05
 43
0.5
 44
0.1
 45
0.0
 46
0.0
 47
0.1
 48
0.1
140
0.12
141
0.0
142
0.0
143
25.399999999999999
144
1.0
145
0.0
146
0.71
147
0.06
 71
     0
 72
     0
 73
     1
 74
     1
 75
     1
 76
     1
 77
     0
 78
     7
170
     0
171
     2
172
     0
173
     1
174
     0
175
     0
176
   256
177
   256
178
     2
  0
ENDTAB
  0
ENDSEC
  0
SECTION
  2
BLOCKS
  0
BLOCK
  8
0
  2
$MODEL_SPACE
 70
     0
 10
0.0
 20
0.0
 30
0.0
  3
$MODEL_SPACE
  1

  0
ENDBLK
  5
1C55
  8
0
  0
BLOCK
 67
     1
  8
0
  2
$PAPER_SPACE
 70
     0
 10
0.0
 20
0.0
 30
0.0
  3
$PAPER_SPACE
  1

  0
ENDBLK
  5
1C51
 67
     1
  8
0
  0
BLOCK
  8
0
  2
_OPEN
 70
     0
 10
0.0
 20
0.0
 30
0.0
  3
_OPEN
  1

  0
LINE
  5
1980
  8
0
  6
BYBLOCK
 62
     0
 10
-1.0
 20
0.1666666666666666
 30
0.0
 11
0.0
 21
0.0
 31
0.0
  0
LINE
  5
1981
  8
0
  6
BYBLOCK
 62
     0
 10
-1.0
 20
-0.1666666666666666
 30
0.0
 11
0.0
 21
0.0
 31
0.0
  0
LINE
  5
1982
  8
0
  6
BYBLOCK
 62
     0
 10
0.0
 20
0.0
 30
0.0
 11
-1.0
 21
0.0
 31
0.0
  0
ENDBLK
  5
1983
  8
0
  0
BLOCK
  8
0
  2
_ACMFILLEDHALF
 70
     0
 10
0.0
 20
0.0
 30
0.0
  3
_ACMFILLEDHALF
  1

  0
TRACE
  5
1D1E
  8
240
 62
     0
 10
-0.8
 20
0.0
 30
0.0
 11
-1.0
 21
0.166666666
 31
0.0
 12
0.0
 22
0.0
 32
0.0
 13
0.0
 23
0.0
 33
0.0
  0
LINE
  5
1D1F
  8
240
 62
     0
 10
-1.0
 20
0.0
 30
0.0
 11
-0.8
 21
0.0
 31
0.0
  0
ENDBLK
  5
1D1D
  8
0
  0
ENDSEC
  0
SECTION
  2
ENTITIES
  0
LINE
  5
1582
  8
246
  6
PHANTOM2
 10
124.67825004556759
 20
0.3315500324265646
 30
0.0
 11
127.09746900156421
 21
10.03450729518657
 31
0.0
  0
LINE
  5
1583
  8
246
  6
PHANTOM2
 10
130.50002440322359
 20
-1.119981341171403
 30
0.0
 11
132.91924335921999
 21
8.5829759215886146
 31
0.0
  0
LINE
  5
1587
  8
246
  6
PHANTOM2
 10
110.41359879737171
 20
5.9493542980934588
 30
0.0
 11
125.1620938367669
 21
2.2721414849785542
 31
0.0
  0
LINE
  5
1588
  8
246
  6
PHANTOM2
 10
124.67825004556759
 20
0.3315500324265646
 30
0.0
 11
130.50002440322359
 21
-1.119981341171403
 31
0.0
  0
LINE
  5
1589
  8
246
  6
PHANTOM2
 10
127.09746900156421
 20
10.03450729518654
 30
0.0
 11
132.91924335921999
 21
8.5829759215886146
 31
0.0
  0
LINE
  5
158A
  8
246
  6
PHANTOM2
 10
111.86513017096961
 20
11.771128655749401
 30
0.0
 11
126.6136252103649
 21
8.0939158426345283
 31
0.0
  0
LINE
  5
1590
  8
246
  6
PHANTOM2
 10
109.8308997328306
 20
6.9191283955939147
 30
0.0
 11
110.8953560734691
 21
11.18842959120833
 31
0.0
  0
LINE
  5
159C
  8
246
  6
PHANTOM2
 10
109.8308997328306
 20
6.9191283955939431
 30
0.0
 11
110.41359879737171
 21
5.9493542980934091
 31
0.0
  0
LINE
  5
159F
  8
246
  6
PHANTOM2
 10
110.8953560734691
 20
11.18842959120833
 30
0.0
 11
111.86513017096961
 21
11.77112865574939
 31
0.0
  0
LINE
  5
15A3
  8
246
  6
PHANTOM2
 10
127.9840366889871
 20
-11.211056894441761
 30
0.0
 11
130.4032556449836
 21
-1.5080996316817179
 31
0.0
  0
LINE
  5
15A4
  8
246
  6
PHANTOM2
 10
122.16226233133111
 20
-9.7595255208438072
 30
0.0
 11
124.5814812873277
 21
-0.0565682580837983
 31
0.0
  0
LINE
  5
15A7
  8
246
  6
PHANTOM2
 10
107.8976110831353
 20
-4.1417212551769289
 30
0.0
 11
122.6461061225304
 21
-7.8189340682917923
 31
0.0
  0
LINE
  5
15A8
  8
246
  6
PHANTOM2
 10
122.16226233133111
 20
-9.7595255208438072
 30
0.0
 11
127.9840366889871
 21
-11.211056894441761
 31
0.0
  0
LINE
  5
15A9
  8
246
  6
PHANTOM2
 10
124.5814812873277
 20
-0.0565682580838267
 30
0.0
 11
130.4032556449836
 21
-1.508099631681717
 31
0.0
  0
LINE
  5
15AA
  8
246
  6
PHANTOM2
 10
109.3491424567332
 20
1.680053102479014
 30
0.0
 11
124.0976374961284
 21
-1.997159710635849
 31
0.0
  0
LINE
  5
15B0
  8
246
  6
PHANTOM2
 10
107.3149120185941
 20
-3.1719471576764531
 30
0.0
 11
108.3793683592327
 21
1.097354037937933
 31
0.0
  0
LINE
  5
15BC
  8
246
  6
PHANTOM2
 10
107.3149120185941
 20
-3.1719471576764242
 30
0.0
 11
107.8976110831352
 21
-4.1417212551769591
 31
0.0
  0
LINE
  5
15BF
  8
246
  6
PHANTOM2
 10
108.3793683592327
 20
1.0973540379379341
 30
0.0
 11
109.3491424567332
 21
1.6800531024790231
 31
0.0
  0
LINE
  5
1615
  8
243
  6
HIDDEN2
 10
105.9256550453606
 20
7.5836311653297344
 30
0.0
 11
120.7226648710695
 21
3.894322257434911
 31
0.0
  0
LINE
  5
1616
  8
243
  6
HIDDEN2
 10
107.1352645233588
 20
12.435109796709749
 30
0.0
 11
121.9322744576166
 21
8.7458008617506628
 31
0.0
  0
LINE
  5
1617
  8
243
  6
HIDDEN2
 10
103.4096673311241
 20
-2.507444387940664
 30
0.0
 11
118.20667715761201
 21
-6.1967532960296889
 31
0.0
  0
LINE
  5
1618
  8
243
  6
HIDDEN2
 10
104.6192768091224
 20
2.3440342434393511
 30
0.0
 11
119.4162866706005
 21
-1.3452746733737111
 31
0.0
  0
LINE
  5
1742
  8
240
  6
CONTINUOUS
 10
121.6448421945077
 20
14.0
 30
0.0
 11
121.4146368592679
 21
13.076696830622041
 31
0.0
  0
LINE
  5
175B
  8
241
  6
CONTINUOUS
 10
94.928203230275471
 20
12.5
 30
0.0
 11
94.928203230275471
 21
-12.5
 31
0.0
  0
LINE
  5
175C
  8
240
  6
CONTINUOUS
 10
0.0
 20
8.0
 30
0.0
 11
0.0
 21
-8.0
 31
0.0
  0
LINE
  5
175D
  8
240
  6
CONTINUOUS
 10
116.4913145237536
 20
-13.076696830622041
 30
0.0
 11
122.9999999999999
 21
13.028213977813721
 31
0.0
  0
LINE
  5
1760
  8
241
  6
CONTINUOUS
 10
121.32365452594431
 20
6.3047601064592387
 30
0.0
 11
102.5
 21
6.3047601064592387
 31
0.0
  0
LINE
  5
1761
  8
240
  6
CONTINUOUS
 10
122.9999999999999
 20
13.07669683062198
 30
0.0
 11
122.9999999999999
 21
13.02821457182085
 31
0.0
  0
LINE
  5
1762
  8
240
  6
CONTINUOUS
 10
122.9999999999999
 20
13.076696830622041
 30
0.0
 11
121.4146368592679
 21
13.076696830622041
 31
0.0
  0
LINE
  5
1763
  8
241
  6
CONTINUOUS
 10
102.5
 20
14.0
 30
0.0
 11
102.5
 21
6.3047601064592387
 31
0.0
  0
LINE
  5
1764
  8
241
  6
CONTINUOUS
 10
102.5
 20
-6.3047601064592387
 30
0.0
 11
118.1797480344467
 21
-6.3047601064592387
 31
0.0
  0
LINE
  5
1765
  8
241
  6
CONTINUOUS
 10
102.5
 20
-6.3047601064592387
 30
0.0
 11
102.5
 21
-14.0
 31
0.0
  0
LINE
  5
1766
  8
240
  6
CONTINUOUS
 10
114.8938634501386
 20
-13.07669683062201
 30
0.0
 11
116.4913145237536
 21
-13.076696830622041
 31
0.0
  0
LINE
  5
1782
  8
241
  6
CONTINUOUS
 10
101.0
 20
12.49999999999997
 30
0.0
 11
101.0
 21
-12.5
 31
0.0
  0
LINE
  5
179E
  8
241
  6
CONTINUOUS
 10
88.0
 20
8.0
 30
0.0
 11
88.0
 21
-8.0
 31
0.0
  0
LINE
  5
179F
  8
240
  6
CONTINUOUS
 10
88.0
 20
8.0
 30
0.0
 11
0.0
 21
8.0
 31
0.0
  0
LINE
  5
17A0
  8
240
  6
CONTINUOUS
 10
88.0
 20
8.5
 30
0.0
 11
94.928203230275471
 21
12.5
 31
0.0
  0
LINE
  5
17A1
  8
240
  6
CONTINUOUS
 10
101.0
 20
-12.5
 30
0.0
 11
94.928203230275471
 21
-12.5
 31
0.0
  0
LINE
  5
17A2
  8
240
  6
CONTINUOUS
 10
121.6448421945077
 20
14.0
 30
0.0
 11
102.5
 21
14.0
 31
0.0
  0
LINE
  5
17A3
  8
240
  6
CONTINUOUS
 10
114.66365811489879
 20
-14.0
 30
0.0
 11
102.5
 21
-14.0
 31
0.0
  0
LINE
  5
17A4
  8
240
  6
CONTINUOUS
 10
101.0
 20
12.5
 30
0.0
 11
102.5
 21
14.0
 31
0.0
  0
LINE
  5
17A5
  8
240
  6
CONTINUOUS
 10
101.0
 20
-12.5
 30
0.0
 11
102.5
 21
-14.0
 31
0.0
  0
LINE
  5
17A6
  8
240
  6
CONTINUOUS
 10
101.0
 20
12.5
 30
0.0
 11
94.928203230275471
 21
12.5
 31
0.0
  0
LINE
  5
17A7
  8
240
  6
CONTINUOUS
 10
88.0
 20
-8.5
 30
0.0
 11
94.928203230275471
 21
-12.5
 31
0.0
  0
LINE
  5
17A8
  8
240
  6
CONTINUOUS
 10
88.0
 20
-8.0
 30
0.0
 11
0.0
 21
-8.0
 31
0.0
  0
LINE
  5
17AB
  8
240
  6
CONTINUOUS
 10
114.8938634501386
 20
-13.07669683062201
 30
0.0
 11
114.66365811489879
 21
-14.0
 31
0.0
  0
LINE
  5
17DB
  8
244
  6
HIDDEN2
 10
104.7402377569222
 20
2.8291821065773521
 30
0.0
 11
109.34914245673311
 21
1.68005310247898
 31
0.0
  0
LINE
  5
17E1
  8
244
  6
HIDDEN2
 10
103.2887063833243
 20
-2.9925922510786629
 30
0.0
 11
107.8976110831353
 21
-4.1417212551770621
 31
0.0
  0
LINE
  5
17E7
  8
244
  6
HIDDEN2
 10
105.8046940975607
 20
7.0984833021917346
 30
0.0
 11
110.4135987973718
 21
5.9493542980933203
 31
0.0
  0
LINE
  5
17ED
  8
244
  6
HIDDEN2
 10
107.2562254711587
 20
12.920257659847749
 30
0.0
 11
111.86513017096961
 21
11.771128655749379
 31
0.0
  0
LINE
  5
1825
  8
245
  6
CENTER2
 10
106.53045978435971
 20
10.00937048101976
 30
0.0
 11
136.89711130595001
 21
2.4381139041070101
 31
0.0
  0
LINE
  5
182B
  8
245
  6
CENTER2
 10
104.0144720701233
 20
-0.0817050722506427
 30
0.0
 11
136.89711130595001
 21
-8.2802678411318809
 31
0.0
  0
LINE
  5
183C
  8
245
  6
CENTER2
 10
-2.149865529527458
 20
0.0
 30
0.0
 11
123.7117757818624
 21
0.0
 31
0.0
  0
LINE
  5
1844
  8
240
  6
CONTINUOUS
 10
88.0
 20
8.0
 30
0.0
 11
88.0
 21
8.5
 31
0.0
  0
LINE
  5
1845
  8
240
  6
CONTINUOUS
 10
88.0
 20
-8.0
 30
0.0
 11
88.0
 21
-8.5
 31
0.0
  0
TEXT
  5
1873
  8
241
  6
CONTINUOUS
 10
0.0
 20
35.0
 30
0.0
 40
3.0
  1
ST16W-AJ2-110
  7
YOKO
  0
LINE
  5
18B0
  8
250
  6
CONTINUOUS
 10
0.0
 20
8.5
 30
0.0
 11
0.0000000000000009
 21
22.0
 31
0.0
  0
LINE
  5
18B1
  8
250
  6
CONTINUOUS
 10
122.9999999999999
 20
13.576696830622041
 30
0.0
 11
122.9999999999999
 21
22.0
 31
0.0
  0
LINE
  5
18B2
  8
250
  6
CONTINUOUS
 10
2.2299999999999991
 20
21.0
 30
0.0
 11
120.7699999999999
 21
21.0
 31
0.0
  0
TEXT
  5
18ED
  8
250
  6
CONTINUOUS
 10
57.29999999999999
 20
22.0
 30
0.0
 40
2.799999999999998
  1
123
  0
LINE
  5
18EE
  8
250
  6
CONTINUOUS
 10
120.7699999999999
 20
21.37166666666667
 30
0.0
 11
122.9999999999999
 21
21.0
 31
0.0
  0
LINE
  5
18EF
  8
250
  6
CONTINUOUS
 10
120.7699999999999
 20
20.62833333333333
 30
0.0
 11
122.9999999999999
 21
21.0
 31
0.0
  0
LINE
  5
18F0
  8
250
  6
CONTINUOUS
 10
122.9999999999999
 20
21.0
 30
0.0
 11
120.7699999999999
 21
21.0
 31
0.0
  0
LINE
  5
18F1
  8
250
  6
CONTINUOUS
 10
2.2299999999999991
 20
20.62833333333333
 30
0.0
 11
0.0000000000000008
 21
21.0
 31
0.0
  0
LINE
  5
18F2
  8
250
  6
CONTINUOUS
 10
2.2299999999999991
 20
21.37166666666667
 30
0.0
 11
0.0000000000000008
 21
21.0
 31
0.0
  0
LINE
  5
18F3
  8
250
  6
CONTINUOUS
 10
0.0000000000000008
 20
21.0
 30
0.0
 11
2.2299999999999991
 21
21.0
 31
0.0
  0
LINE
  5
1D8D
  8
250
  6
CONTINUOUS
 10
20.380068126938681
 20
-21.0
 30
0.0
 11
0.8086395555101262
 21
-21.0
 31
0.0
1001
ITEMNAME
1000
LNSP2
  0
TEXT
  5
1D8E
  8
250
  6
CONTINUOUS
 10
3.380068126938681
 20
-20.0
 30
0.0
 40
3.0
  1
ST16W
  7
YOKO
1001
ITEMNAME
1000
LNSP3
1001
ACAD
1000
MTEXTBEGIN
1070
    73
1070
     1
1070
    44
1040
1.0
1070
    74
1070
     0
1000
MTEXTEND
  0
LINE
  5
1D8F
  8
250
  6
CONTINUOUS
 10
26.770621626403798
 20
-9.9312366504393594
 30
0.0
 11
20.380068126938681
 21
-21.0
 31
0.0
1001
ACAD
1000
DSTYLE
1002
{
1070
     5
1000
OPEN
1070
    78
1070
     8
1070
   140
1040
3.0
1002
}
  0
LINE
  5
1D90
  8
250
  6
CONTINUOUS
 10
26.44874885133061
 20
-9.7454033171060246
 30
0.0
 11
27.8856216264038
 21
-8.0000000000001137
 31
0.0
  0
LINE
  5
1D91
  8
250
  6
CONTINUOUS
 10
27.09249440147698
 20
-10.117069983772691
 30
0.0
 11
27.8856216264038
 21
-8.0000000000001137
 31
0.0
  0
LINE
  5
1D92
  8
250
  6
CONTINUOUS
 10
27.8856216264038
 20
-8.0000000000001137
 30
0.0
 11
26.770621626403798
 21
-9.9312366504393594
 31
0.0
  0
LINE
  5
1D93
  8
247
  6
CONTINUOUS
 10
6.749999999929968
 20
-5.5
 30
0.0
 11
13.442307691969971
 21
-5.5
 31
0.0
  0
ARC
  5
1D94
  8
247
  6
CONTINUOUS
 10
6.749999999929968
 20
-3.7500000000700311
 30
0.0
 40
1.7499999999299991
 50
90.0
 51
270.0
  0
ARC
  5
1D95
  8
247
  6
CONTINUOUS
 10
13.442307691969971
 20
-3.7500000000700311
 30
0.0
 40
1.7499999999299991
 50
270.0
 51
90.0
  0
LINE
  5
1D96
  8
247
  6
CONTINUOUS
 10
7.615384615279992
 20
-2.0000000001400622
 30
0.0
 11
6.7551484580379793
 21
-5.000000000020008
 31
0.0
  0
LINE
  5
1D97
  8
247
  6
CONTINUOUS
 10
8.5150161816641798
 20
-3.4230769231598961
 30
0.0
 11
7.2073238740241541
 21
-3.4230769231598961
 31
0.0
  0
ARC
  5
1D98
  8
247
  6
CONTINUOUS
 10
8.8548561839102131
 20
-2.5495986677028659
 30
0.0
 40
0.5538165441895349
 50
342.99788967529531
 51
82.924166218513577
  0
ARC
  5
1D99
  8
247
  6
CONTINUOUS
 10
8.4331216769712114
 20
-2.4360330444658298
 30
0.0
 40
0.9904354236226808
 50
274.74293685219902
 51
343.84922627326682
1001
GENIUS_GENOBJ-N-FIL_13
1002
{
1000
OWNER
1000
GEN
1002
}
1001
GENIUS_GENODEF_13
1002
{
1000
HIER
1070
     0
1002
}
1002
{
1000
MANEDIT
1070
     0
1002
}
1002
{
1000
NOSEL
1070
     0
1002
}
1002
{
1000
BEHIND
1070
     0
1002
}
1002
{
1000
OTHER
1070
     0
1002
}
1002
{
1000
REACTOR
1002
}
  0
LINE
  5
1D9A
  8
247
  6
CONTINUOUS
 10
8.0628407656780041
 20
-5.000000000020008
 30
0.0
 11
6.7551484580379793
 21
-5.000000000020008
 31
0.0
  0
LINE
  5
1D9B
  8
247
  6
CONTINUOUS
 10
7.615384615279992
 20
-2.0000000001400622
 30
0.0
 11
8.9230769229200178
 21
-2.0000000001400622
 31
0.0
  0
ARC
  5
1D9C
  8
247
  6
CONTINUOUS
 10
8.4390803634530585
 20
-3.9820242326654798
 30
0.0
 40
0.5640818586791229
 50
335.9909416525216
 51
82.263443459069109
  0
ARC
  5
1D9D
  8
247
  6
CONTINUOUS
 10
7.9617373146529644
 20
-3.9874290391865079
 30
0.0
 40
1.0176059446230981
 50
275.70198516425648
 51
347.27733843682199
1001
GENIUS_GENOBJ-N-FIL_13
1002
{
1000
OWNER
1000
GEN
1002
}
1001
GENIUS_GENODEF_13
1002
{
1000
HIER
1070
     0
1002
}
1002
{
1000
MANEDIT
1070
     0
1002
}
1002
{
1000
NOSEL
1070
     0
1002
}
1002
{
1000
BEHIND
1070
     0
1002
}
1002
{
1000
OTHER
1070
     0
1002
}
1002
{
1000
REACTOR
1002
}
  0
LINE
  5
1D9E
  8
247
  6
CONTINUOUS
 10
9.7166869194579704
 20
-5.000000000020008
 30
0.0
 11
10.57692307669998
 21
-2.0000000001400622
 31
0.0
  0
LINE
  5
1D9F
  8
247
  6
CONTINUOUS
 10
12.99999999967997
 20
-2.0000000001400622
 30
0.0
 11
12.434263380543371
 21
-2.0000000001400622
 31
0.0
  0
LINE
  5
1DA0
  8
247
  6
CONTINUOUS
 10
11.538461538200011
 20
-5.000000000020008
 30
0.0
 11
12.15384615355998
 21
-5.000000000020008
 31
0.0
  0
ARC
  5
1DA1
  8
247
  6
CONTINUOUS
 10
13.29120879087713
 20
-4.0832851359733686
 30
0.0
 40
2.2526500823422122
 50
112.3594881415295
 51
164.99324854284649
  0
ARC
  5
1DA2
  8
247
  6
CONTINUOUS
 10
12.62593052078677
 20
-2.8083126551946398
 30
0.0
 40
0.8906723995727782
 50
4.9945893190753123
 51
65.166328957300664
1001
GENIUS_GENOBJ-N-FIL_13
1002
{
1000
OWNER
1000
GEN
1002
}
1001
GENIUS_GENODEF_13
1002
{
1000
HIER
1070
     0
1002
}
1002
{
1000
MANEDIT
1070
     0
1002
}
1002
{
1000
NOSEL
1070
     0
1002
}
1002
{
1000
BEHIND
1070
     0
1002
}
1002
{
1000
OTHER
1070
     0
1002
}
1002
{
1000
REACTOR
1002
}
  0
ARC
  5
1DA3
  8
247
  6
CONTINUOUS
 10
11.77354111378742
 20
-3.6601458886677838
 30
0.0
 40
1.392781735586712
 50
285.84609655578072
 51
352.3251370041624
  0
ARC
  5
1DA4
  8
247
  6
CONTINUOUS
 10
12.35778727415965
 20
-3.9592434315272831
 30
0.0
 40
1.324563662670287
 50
159.71360167049011
 51
231.78874565641459
1001
GENIUS_GENOBJ-N-FIL_13
1002
{
1000
OWNER
1000
GEN
1002
}
1001
GENIUS_GENODEF_13
1002
{
1000
HIER
1070
     0
1002
}
1002
{
1000
MANEDIT
1070
     0
1002
}
1002
{
1000
NOSEL
1070
     0
1002
}
1002
{
1000
BEHIND
1070
     0
1002
}
1002
{
1000
OTHER
1070
     0
1002
}
1002
{
1000
REACTOR
1002
}
  0
LINE
  5
1DA5
  8
247
  6
CONTINUOUS
 10
12.46153846124002
 20
-3.846153846219976
 30
0.0
 11
13.15384615352002
 21
-3.846153846219976
 31
0.0
  0
LINE
  5
1DA6
  8
247
  6
CONTINUOUS
 10
6.749999999929968
 20
-2.0000000001400622
 30
0.0
 11
7.4230769229799298
 21
-2.0000000001400622
 31
0.0
  0
ARC
  5
1DB6
  8
241
  6
CONTINUOUS
 10
115.0
 20
0.0
 30
0.0
 40
13.99999999999998
 50
153.2344994232439
 51
206.7655005767561
  0
VIEWPORT
  5
22
 67
     1
  8
0
 10
261.51769911504419
 20
148.5
 30
0.0
 40
523.0353982300885
 41
297.0
 68
     1
 69
     1
1001
ACAD
1000
MVIEW
1002
{
1070
    16
1010
0.0
1020
0.0
1030
0.0
1010
0.0
1020
0.0
1030
1.0
1040
0.0
1040
297.0
1040
261.51769911504419
1040
148.5
1040
50.0
1040
0.0
1040
0.0
1070
     0
1070
   100
1070
     1
1070
     1
1070
     0
1070
     0
1070
     0
1070
     0
1040
0.0
1040
0.0
1040
0.0
1040
1.0
1040
1.0
1040
10.0
1040
10.0
1070
     0
1002
{
1002
}
1002
}
1001
GENIUS_GENODEF_13
1002
{
1000
HIER
1070
     0
1002
}
1002
{
1000
MANEDIT
1070
     0
1002
}
1002
{
1000
NOSEL
1070
     0
1002
}
1002
{
1000
BEHIND
1070
     0
1002
}
1002
{
1000
OTHER
1070
     0
1002
}
1002
{
1000
REACTOR
1002
}
1001
GENIUS_GENOBJ-N-SDF_13
1002
{
1000
OWNER
1000
GEN
1002
}
1001
GENIUS_GENSCREG_15
1000
PF
1040
1.0
1000
DF
1040
1.0
1000
MIN
1011
0.0
1021
0.0
1031
0.0
1021
0.0
1031
0.0
1000
MAX
1011
523.0353982300885
1021
0.0
1031
0.0
1021
297.0
1031
0.0
1000
FLAGS
1070
     4
  0
ENDSEC
  0
EOF
