  0
SECTION
  2
HEADER
  9
$ACADVER
  1
AC1009
  9
$INSBASE
 10
0.0
 20
0.0
 30
0.0
  9
$EXTMIN
 10
-101.0
 20
-20.99999999999994
 30
0.0
  9
$EXTMAX
 10
110.995
 20
42.0
 30
0.0
  9
$LIMMIN
 10
0.0
 20
0.0
  9
$LIMMAX
 10
420.0
 20
297.0
  9
$ORTHOMODE
 70
     1
  9
$REGENMODE
 70
     1
  9
$FILLMODE
 70
     1
  9
$QTEXTMODE
 70
     0
  9
$MIRRTEXT
 70
     1
  9
$DRAGMODE
 70
     2
  9
$LTSCALE
 40
10.0
  9
$OSMODE
 70
  3071
  9
$ATTMODE
 70
     1
  9
$TEXTSIZE
 40
3.0
  9
$TRACEWID
 40
1.0
  9
$TEXTSTYLE
  7
YOKO
  9
$CLAYER
  8
240
  9
$CELTYPE
  6
BYLAYER
  9
$CECOLOR
 62
   256
  9
$DIMSCALE
 40
1.0
  9
$DIMASZ
 40
2.2299999999999991
  9
$DIMEXO
 40
0.5
  9
$DIMDLI
 40
2.5
  9
$DIMRND
 40
0.0
  9
$DIMDLE
 40
0.0
  9
$DIMEXE
 40
1.0
  9
$DIMTP
 40
0.0
  9
$DIMTM
 40
0.0
  9
$DIMTXT
 40
2.799999999999998
  9
$DIMCEN
 40
0.0
  9
$DIMTSZ
 40
0.0
  9
$DIMTOL
 70
     0
  9
$DIMLIM
 70
     0
  9
$DIMTIH
 70
     0
  9
$DIMTOH
 70
     0
  9
$DIMSE1
 70
     0
  9
$DIMSE2
 70
     0
  9
$DIMTAD
 70
     3
  9
$DIMZIN
 70
     8
  9
$DIMBLK
  1

  9
$DIMASO
 70
     1
  9
$DIMSHO
 70
     1
  9
$DIMPOST
  1

  9
$DIMAPOST
  1

  9
$DIMALT
 70
     0
  9
$DIMALTD
 70
     2
  9
$DIMALTF
 40
25.399999999999999
  9
$DIMLFAC
 40
1.0
  9
$DIMTOFL
 70
     1
  9
$DIMTVP
 40
0.0
  9
$DIMTIX
 70
     1
  9
$DIMSOXD
 70
     0
  9
$DIMSAH
 70
     1
  9
$DIMBLK1
  1
OPEN
  9
$DIMBLK2
  1
OPEN
  9
$DIMSTYLE
  2
BIGT
  9
$DIMCLRD
 70
   256
  9
$DIMCLRE
 70
   256
  9
$DIMCLRT
 70
    40
  9
$DIMTFAC
 40
1.0
  9
$DIMGAP
 40
1.0
  9
$LUNITS
 70
     2
  9
$LUPREC
 70
     3
  9
$SKETCHINC
 40
1.0
  9
$FILLETRAD
 40
1.0
  9
$AUNITS
 70
     0
  9
$AUPREC
 70
     3
  9
$MENU
  1
.
  9
$ELEVATION
 40
0.0
  9
$PELEVATION
 40
0.0
  9
$THICKNESS
 40
0.0
  9
$LIMCHECK
 70
     0
  9
$BLIPMODE
 70
     0
  9
$CHAMFERA
 40
10.0
  9
$CHAMFERB
 40
10.0
  9
$SKPOLY
 70
     0
  9
$TDCREATE
 40
2455450.6376538891
  9
$TDUPDATE
 40
2457367.5854049311
  9
$TDINDWG
 40
0.0296838079
  9
$TDUSRTIMER
 40
0.0296837847
  9
$USRTIMER
 70
     1
  9
$ANGBASE
 50
0.0
  9
$ANGDIR
 70
     0
  9
$PDMODE
 70
     1
  9
$PDSIZE
 40
-5.0
  9
$PLINEWID
 40
0.0
  9
$COORDS
 70
     1
  9
$SPLFRAME
 70
     0
  9
$SPLINETYPE
 70
     6
  9
$SPLINESEGS
 70
     8
  9
$ATTDIA
 70
     1
  9
$ATTREQ
 70
     1
  9
$HANDLING
 70
     1
  9
$HANDSEED
  5
120C
  9
$SURFTAB1
 70
     6
  9
$SURFTAB2
 70
     6
  9
$SURFTYPE
 70
     6
  9
$SURFU
 70
     6
  9
$SURFV
 70
     6
  9
$UCSNAME
  2

  9
$UCSORG
 10
0.0
 20
0.0
 30
0.0
  9
$UCSXDIR
 10
1.0
 20
0.0
 30
0.0
  9
$UCSYDIR
 10
0.0
 20
1.0
 30
0.0
  9
$PUCSNAME
  2

  9
$PUCSORG
 10
0.0
 20
0.0
 30
0.0
  9
$PUCSXDIR
 10
1.0
 20
0.0
 30
0.0
  9
$PUCSYDIR
 10
0.0
 20
1.0
 30
0.0
  9
$USERI1
 70
     1
  9
$USERI2
 70
     0
  9
$USERI3
 70
     0
  9
$USERI4
 70
     0
  9
$USERI5
 70
     0
  9
$USERR1
 40
0.0
  9
$USERR2
 40
0.0
  9
$USERR3
 40
0.0
  9
$USERR4
 40
0.0
  9
$USERR5
 40
0.0
  9
$WORLDVIEW
 70
     1
  9
$SHADEDGE
 70
     3
  9
$SHADEDIF
 70
    70
  9
$TILEMODE
 70
     1
  9
$MAXACTVP
 70
    16
  9
$PLIMCHECK
 70
     0
  9
$PEXTMIN
 10
1.0000000000000000E+020
 20
1.0000000000000000E+020
 30
1.0000000000000000E+020
  9
$PEXTMAX
 10
-1.0000000000000000E+020
 20
-1.0000000000000000E+020
 30
-1.0000000000000000E+020
  9
$PLIMMIN
 10
0.0
 20
0.0
  9
$PLIMMAX
 10
420.0
 20
297.0
  9
$UNITMODE
 70
     0
  9
$VISRETAIN
 70
     0
  9
$PLINEGEN
 70
     0
  9
$PSLTSCALE
 70
     1
  0
ENDSEC
  0
SECTION
  2
TABLES
  0
TABLE
  2
VPORT
 70
     1
  0
VPORT
  2
*ACTIVE
 70
     0
 10
0.0
 20
0.0
 11
1.0
 21
1.0
 12
47.595297075369139
 22
16.869806323687708
 13
0.0
 23
0.0
 14
7.0
 24
7.0
 15
7.0
 25
7.0
 16
0.0
 26
0.0
 36
1.0
 17
0.0
 27
0.0
 37
0.0
 40
130.3231512994233
 41
1.3814102564102559
 42
50.0
 43
0.0
 44
0.0
 50
0.0
 51
0.0
 71
     0
 72
  2000
 73
     1
 74
     0
 75
     1
 76
     1
 77
     0
 78
     0
  0
ENDTAB
  0
TABLE
  2
LTYPE
 70
    21
  0
LTYPE
  2
CONTINUOUS
 70
     0
  3
Solid line
 72
    65
 73
     0
 40
0.0
  0
LTYPE
  2
CENTER2
 70
     0
  3
___ _ ___ _ ___ _ ___ _ ___ _ ___ _ ___ _ ___ _
 72
    65
 73
     4
 40
1.125
 49
0.75
 49
-0.125
 49
0.125
 49
-0.125
  0
LTYPE
  2
HIDDEN2
 70
     0
  3
_ _ _ _ _ _ _ _ _ _ _ _ _ _ _ _ _ _ _ _ _ _ _ _
 72
    65
 73
     2
 40
0.1875
 49
0.125
 49
-0.0625
  0
LTYPE
  2
PHANTOM2
 70
     0
  3
___ _ _ ___ _ _ ___ _ _ ___ _ _ ___ _ _ ___ _ _
 72
    65
 73
     6
 40
1.25
 49
0.625
 49
-0.125
 49
0.125
 49
-0.125
 49
0.125
 49
-0.125
  0
LTYPE
  2
AMCONSTR
 70
     0
  3
_______________________
 72
    65
 73
     2
 40
9999.0
 49
9999.0
 49
0.0
  0
LTYPE
  2
HIDDEN
 70
     0
  3
Hidden __ __ __ __ __ __ __ __ __ __ __ __ __ _
 72
    65
 73
     2
 40
0.375
 49
0.25
 49
-0.125
  0
LTYPE
  2
CENTER
 70
     0
  3
Center ____ _ ____ _ ____ _ ____ _ ____ _ ____
 72
    65
 73
     4
 40
2.0
 49
1.25
 49
-0.25
 49
0.25
 49
-0.25
  0
LTYPE
  2
AMZIGZAG2
 70
     0
  3
/\/-/\/-/\/-/\/-/\/-/\/
 72
    65
 73
     2
 40
0.4401
 49
0.0001
 49
-0.4400000000000001
  0
LTYPE
  2
ACANSTGB
 70
     0
  3
__ . . __ . .
 72
    65
 73
     6
 40
0.35433070866
 49
0.15748031496
 49
-0.03937007874
 49
0.03937007874
 49
-0.03937007874
 49
0.03937007874
 49
-0.03937007874
  0
LTYPE
  2
ACANSTGL
 70
     0
  3
_ _ _ _ _
 72
    65
 73
     2
 40
0.11811023622
 49
0.07874015748
 49
-0.03937007874
  0
ENDTAB
  0
TABLE
  2
LAYER
 70
     9
  0
LAYER
  2
0
 70
     0
 62
     7
  6
CONTINUOUS
  0
LAYER
  2
240
 70
     0
 62
     4
  6
CONTINUOUS
  0
LAYER
  2
241
 70
     0
 62
   211
  6
CONTINUOUS
  0
LAYER
  2
242
 70
     0
 62
     3
  6
CONTINUOUS
  0
LAYER
  2
245
 70
     0
 62
     2
  6
CENTER2
  0
LAYER
  2
250
 70
     0
 62
     3
  6
CONTINUOUS
  0
LAYER
  2
DEFPOINTS
 70
     0
 62
     7
  6
CONTINUOUS
  0
LAYER
  2
243
 70
     0
 62
   211
  6
HIDDEN2
  0
LAYER
  2
247
 70
     0
 62
    60
  6
CONTINUOUS
  0
ENDTAB
  0
TABLE
  2
STYLE
 70
    10
  0
STYLE
  2
STANDARD
 70
     0
 40
0.0
 41
1.0
 50
0.0
 71
     0
 42
3.0
  3
romans.shx
  4
BIGFONT.SHX
  0
STYLE
  2
YOKO
 70
     0
 40
0.0
 41
1.0
 50
0.0
 71
     0
 42
3.0
  3
romans.shx
  4
extfont.shx
  0
STYLE
  2

 70
     1
 40
0.0
 41
1.0
 50
0.0
 71
     0
 42
3.0
  3
genltshp.shx
  4

  0
STYLE
  2
ACANSGDT
 70
     0
 40
0.0
 41
1.0
 50
0.0
 71
     0
 42
3.0
  3
amgdt.shx
  4

  0
ENDTAB
  0
TABLE
  2
VIEW
 70
     2
  0
VIEW
  2
OLE1
 70
     0
 40
90.866424949999995
 10
-50.16200766
 20
15.150532999999999
 41
127.98729529000001
 11
0.0
 21
0.0
 31
1.0
 12
0.0
 22
0.0
 32
0.0
 42
50.0
 43
0.0
 44
0.0
 50
0.0
 71
     0
  0
VIEW
  2
OLE2
 70
     0
 40
90.255997910000005
 10
-50.5896276
 20
16.896942079999999
 41
127.12749580000001
 11
0.0
 21
0.0
 31
1.0
 12
0.0
 22
0.0
 32
0.0
 42
50.0
 43
0.0
 44
0.0
 50
0.0
 71
     0
  0
ENDTAB
  0
TABLE
  2
UCS
 70
     0
  0
ENDTAB
  0
TABLE
  2
APPID
 70
    41
  0
APPID
  2
ACAD
 70
     0
  0
APPID
  2
ACADANNOTATIVE
 70
     0
  0
APPID
  2
GLOBAL
 70
     0
  0
APPID
  2
DETAIL
 70
     0
  0
APPID
  2
GRPNAME
 70
     0
  0
APPID
  2
GPARA
 70
     0
  0
APPID
  2
DCO15
 70
     0
  0
APPID
  2
ITEMNAME
 70
     0
  0
APPID
  2
GRADE_0
 70
     0
  0
APPID
  2
CONTENTBLOCKICON
 70
     0
  0
APPID
  2
MCAD_NO_VIS
 70
     0
  0
APPID
  2
ACAD_TEMP_GRAPHIC
 70
     0
  0
APPID
  2
ACATTRIBSERVICES
 70
     0
  0
APPID
  2
GENIUS_GENSCREG_15
 70
     0
  0
APPID
  2
GENIUS_GENODEF_13
 70
     0
  0
APPID
  2
GENIUS_GENOBJ-N-SDF_13
 70
     0
  0
APPID
  2
GENIUS_GENREC_14
 70
     0
  0
APPID
  2
GENIUS_GENOBJ-N-REC_13
 70
     0
  0
APPID
  2
GENIUS_GENDIMSH_14
 70
     0
  0
APPID
  2
GENIUS_GENOBJ-N-DIM_13
 70
     0
  0
APPID
  2
GENIUS_GENDIM_13
 70
     0
  0
APPID
  2
GENIUS_GENDTOL_13
 70
     0
  0
APPID
  2
GENIUS_GENOLIS_13
 70
     0
  0
APPID
  2
GENIUS_GENOENT_13
 70
     0
  0
APPID
  2
GENIUS_GENOBJ-F-FEM_13
 70
     0
  0
APPID
  2
GENIUS_GENOREF_13
 70
     0
  0
APPID
  2
GENIUS_GEFFEM_13
 70
     0
  0
APPID
  2
GENIUS_GEFFEMP_13
 70
     0
  0
APPID
  2
AD_DRAW
 70
     0
  0
APPID
  2
DESIGNERASSEMBLIES
 70
     0
  0
APPID
  2
ACADM_DIM_EDIT
 70
     0
  0
APPID
  2
AMDT_DM_ADJ
 70
     0
  0
APPID
  2
GENIUS_GENOBJ-N-FIL_13
 70
     0
  0
APPID
  2
GENIUS_GENFIL_13
 70
     0
  0
APPID
  2
GENIUS_GENOBJ-N-CHA_13
 70
     0
  0
APPID
  2
ACAD_NAV_VCDISPLAY
 70
     0
  0
APPID
  2
ACAD_EXEMPT_FROM_CAD_STANDARDS
 70
     0
  0
APPID
  2
ACAECLAYERSTANDARD
 70
     0
  0
APPID
  2
ACAD_MLEADERVER
 70
     0
  0
APPID
  2
ACAD_DSTYLE_DIMJAG
 70
     0
  0
APPID
  2
ACAD_DSTYLE_DIMBREAK
 70
     0
  0
ENDTAB
  0
TABLE
  2
DIMSTYLE
 70
    31
  0
DIMSTYLE
  2
STANDARD
 70
     0
  3

  4

  5

  6

  7

 40
1.0
 41
0.18
 42
0.0625
 43
0.38
 44
0.18
 45
0.0
 46
0.0
 47
0.0
 48
0.0
140
0.18
141
0.09
142
0.0
143
25.399999999999999
144
1.0
145
0.0
146
1.0
147
0.09
 71
     0
 72
     0
 73
     1
 74
     1
 75
     0
 76
     0
 77
     0
 78
     0
170
     0
171
     2
172
     0
173
     0
174
     0
175
     0
176
     0
177
     0
178
     0
  0
DIMSTYLE
  2
BIGT
 70
     0
  3

  4

  5

  6

  7

 40
1.0
 41
2.2299999999999991
 42
0.5
 43
7.0
 44
1.0
 45
0.0
 46
0.0
 47
0.0
 48
0.01
140
2.799999999999998
141
0.0
142
0.0
143
25.399999999999999
144
1.0
145
0.0
146
1.0
147
1.0
 71
     0
 72
     0
 73
     0
 74
     0
 75
     0
 76
     0
 77
     3
 78
     9
170
     0
171
     2
172
     1
173
     0
174
     1
175
     0
176
   256
177
   256
178
    40
  0
DIMSTYLE
  2
AM_ANSI
 70
     0
  3

  4
mm
  5

  6

  7

 40
1.0
 41
0.12
 42
0.05
 43
0.5
 44
0.1
 45
0.0
 46
0.0
 47
0.1
 48
0.1
140
0.12
141
0.0
142
0.0
143
25.399999999999999
144
1.0
145
0.0
146
0.71
147
0.06
 71
     0
 72
     0
 73
     1
 74
     1
 75
     0
 76
     0
 77
     0
 78
     7
170
     0
171
     2
172
     0
173
     0
174
     0
175
     0
176
   256
177
   256
178
     2
  0
DIMSTYLE
  2
AM_ANSI$3
 70
     0
  3

  4
mm
  5

  6

  7

 40
1.0
 41
0.12
 42
0.05
 43
0.5
 44
0.1
 45
0.0
 46
0.0
 47
0.1
 48
0.1
140
0.12
141
0.0
142
0.0
143
25.399999999999999
144
1.0
145
0.0
146
0.71
147
0.06
 71
     0
 72
     0
 73
     1
 74
     1
 75
     0
 76
     0
 77
     0
 78
     7
170
     0
171
     2
172
     0
173
     0
174
     0
175
     0
176
   256
177
   256
178
     2
  0
DIMSTYLE
  2
AM_ANSI$4
 70
     0
  3

  4
mm
  5

  6

  7

 40
1.0
 41
0.12
 42
0.05
 43
0.5
 44
0.1
 45
0.0
 46
0.0
 47
0.1
 48
0.1
140
0.12
141
0.0
142
0.0
143
25.399999999999999
144
1.0
145
0.0
146
0.71
147
0.06
 71
     0
 72
     0
 73
     1
 74
     1
 75
     0
 76
     0
 77
     0
 78
     7
170
     0
171
     2
172
     0
173
     0
174
     0
175
     0
176
   256
177
   256
178
     2
  0
DIMSTYLE
  2
AM_ANSI$7
 70
     0
  3

  4
mm
  5

  6

  7

 40
1.0
 41
0.12
 42
0.05
 43
0.5
 44
0.1
 45
0.0
 46
0.0
 47
0.1
 48
0.1
140
0.12
141
0.0
142
0.0
143
25.399999999999999
144
1.0
145
0.0
146
0.71
147
0.06
 71
     0
 72
     0
 73
     1
 74
     1
 75
     0
 76
     0
 77
     0
 78
     7
170
     0
171
     2
172
     0
173
     0
174
     0
175
     0
176
   256
177
   256
178
     2
  0
DIMSTYLE
  2
AM_ANSI$SF
 70
     0
  3

  4
mm
  5

  6

  7

 40
1.0
 41
0.12
 42
0.05
 43
0.5
 44
0.1
 45
0.0
 46
0.0
 47
0.1
 48
0.1
140
0.12
141
0.0
142
0.0
143
25.399999999999999
144
1.0
145
0.0
146
0.71
147
0.06
 71
     0
 72
     0
 73
     1
 74
     1
 75
     1
 76
     1
 77
     0
 78
     7
170
     0
171
     2
172
     0
173
     0
174
     0
175
     0
176
   256
177
   256
178
     2
  0
DIMSTYLE
  2
AM_ANSI$SH
 70
     0
  3

  4
mm
  5

  6
GENAXEH
  7

 40
1.0
 41
0.12
 42
0.05
 43
0.5
 44
0.1
 45
0.0
 46
0.0
 47
0.1
 48
0.1
140
0.12
141
0.0
142
0.0
143
25.399999999999999
144
1.0
145
0.0
146
0.71
147
0.06
 71
     0
 72
     0
 73
     1
 74
     1
 75
     1
 76
     1
 77
     0
 78
     7
170
     0
171
     2
172
     0
173
     1
174
     0
175
     0
176
   256
177
   256
178
     2
  0
ENDTAB
  0
ENDSEC
  0
SECTION
  2
BLOCKS
  0
BLOCK
  8
0
  2
$MODEL_SPACE
 70
     0
 10
0.0
 20
0.0
 30
0.0
  3
$MODEL_SPACE
  1

  0
ENDBLK
  5
10C5
  8
0
  0
BLOCK
 67
     1
  8
0
  2
$PAPER_SPACE
 70
     0
 10
0.0
 20
0.0
 30
0.0
  3
$PAPER_SPACE
  1

  0
ENDBLK
  5
10C1
 67
     1
  8
0
  0
BLOCK
  8
0
  2
_OPEN
 70
     0
 10
0.0
 20
0.0
 30
0.0
  3
_OPEN
  1

  0
LINE
  5
E9B
  8
0
  6
BYBLOCK
 62
     0
 10
-1.0
 20
0.1666666666666666
 30
0.0
 11
0.0
 21
0.0
 31
0.0
  0
LINE
  5
E9C
  8
0
  6
BYBLOCK
 62
     0
 10
-1.0
 20
-0.1666666666666666
 30
0.0
 11
0.0
 21
0.0
 31
0.0
  0
LINE
  5
E9D
  8
0
  6
BYBLOCK
 62
     0
 10
0.0
 20
0.0
 30
0.0
 11
-1.0
 21
0.0
 31
0.0
  0
ENDBLK
  5
E9E
  8
0
  0
BLOCK
  8
0
  2
矢印なし
 70
     0
 10
0.0
 20
0.0
 30
0.0
  3
矢印なし
  1

  0
ENDBLK
  5
6E5
  8
0
  0
BLOCK
  8
0
  2
GENAXEH
 70
     0
 10
0.0
 20
0.0
 30
0.0
  3
GENAXEH
  1

  0
LINE
  5
ED6
  8
0
 10
-1.0
 20
0.0
 30
0.0
 11
1.0
 21
0.0
 31
0.0
  0
ENDBLK
  5
ED7
  8
0
  0
BLOCK
  8
0
  2
_ACMFILLEDHALF
 70
     0
 10
0.0
 20
0.0
 30
0.0
  3
_ACMFILLEDHALF
  1

  0
TRACE
  5
118E
  8
240
 62
     0
 10
-0.8
 20
0.0
 30
0.0
 11
-1.0
 21
0.166666666
 31
0.0
 12
0.0
 22
0.0
 32
0.0
 13
0.0
 23
0.0
 33
0.0
  0
LINE
  5
118F
  8
240
 62
     0
 10
-1.0
 20
0.0
 30
0.0
 11
-0.8
 21
0.0
 31
0.0
  0
ENDBLK
  5
118D
  8
0
  0
ENDSEC
  0
SECTION
  2
ENTITIES
  0
INSERT
  5
6E6
  8
245
  2
矢印なし
 10
175.62382697000001
 20
90.551235719999994
 30
0.0
  0
TEXT
  5
8A2
  8
241
  6
CONTINUOUS
 10
0.0
 20
37.0
 30
0.0
 40
5.0
  1
ST16-SL6
  7
YOKO
 11
0.0
 21
37.0
 31
0.0
 73
     1
  0
LINE
  5
BDF
  8
250
  6
CONTINUOUS
 10
100.5
 20
3.0
 30
0.0
 11
110.995
 21
3.0
 31
0.0
  0
LINE
  5
BE2
  8
250
  6
CONTINUOUS
 10
109.995
 20
-3.0
 30
0.0
 11
109.995
 21
3.0
 31
0.0
  0
LINE
  5
F44
  8
240
  6
CONTINUOUS
 10
80.0
 20
7.0
 30
0.0
 11
96.0
 21
7.0
 31
0.0
  0
LINE
  5
F45
  8
243
  6
HIDDEN2
 10
77.616809730396426
 20
3.0
 30
0.0
 11
100.0
 21
3.0
 31
0.0
  0
LINE
  5
F46
  8
240
  6
CONTINUOUS
 10
80.0
 20
-7.0
 30
0.0
 11
96.0
 21
-7.0
 31
0.0
  0
LINE
  5
F47
  8
245
  6
CENTER2
 10
-1.0
 20
0.0
 30
0.0
 11
101.0
 21
0.0
 31
0.0
  0
LINE
  5
F48
  8
240
  6
CONTINUOUS
 10
0.0
 20
8.0
 30
0.0
 11
79.0
 21
8.0
 31
0.0
  0
LINE
  5
F49
  8
240
  6
CONTINUOUS
 10
0.0
 20
-8.0
 30
0.0
 11
79.0
 21
-8.0
 31
0.0
  0
LINE
  5
F4A
  8
240
  6
CONTINUOUS
 10
0.0
 20
8.0
 30
0.0
 11
0.0
 21
-8.0
 31
0.0
  0
LINE
  5
F4E
  8
241
  6
CONTINUOUS
 10
79.0
 20
8.0
 30
0.0
 11
79.0
 21
-8.0
 31
0.0
  0
LINE
  5
F4F
  8
241
  6
CONTINUOUS
 10
80.0
 20
7.0
 30
0.0
 11
80.0
 21
-7.0
 31
0.0
  0
LINE
  5
F52
  8
240
  6
CONTINUOUS
 10
80.0
 20
-7.0
 30
0.0
 11
79.0
 21
-8.0
 31
0.0
  0
LINE
  5
F53
  8
245
  6
CENTER2
 10
83.0
 20
8.0
 30
0.0
 11
83.0
 21
2.0
 31
0.0
  0
LINE
  5
F54
  8
240
  6
CONTINUOUS
 10
80.0
 20
7.0
 30
0.0
 11
79.0
 21
8.0
 31
0.0
  0
LINE
  5
F55
  8
242
  6
HIDDEN2
 10
81.0
 20
3.0
 30
0.0
 11
81.0
 21
7.0
 31
0.0
  0
LINE
  5
F56
  8
243
  6
HIDDEN2
 10
81.349999999999994
 20
3.0
 30
0.0
 11
81.349999999999994
 21
7.0
 31
0.0
  0
LINE
  5
F57
  8
243
  6
HIDDEN2
 10
84.650000000000006
 20
3.0
 30
0.0
 11
84.650000000000006
 21
7.0
 31
0.0
  0
LINE
  5
F58
  8
242
  6
HIDDEN2
 10
85.0
 20
3.0
 30
0.0
 11
85.0
 21
7.0
 31
0.0
  0
LINE
  5
F59
  8
240
  6
CONTINUOUS
 10
100.0
 20
4.6905989257142844
 30
0.0
 11
100.0
 21
-4.6905989257142844
 31
0.0
  0
LINE
  5
F5A
  8
241
  6
CONTINUOUS
 10
96.0
 20
-7.0
 30
0.0
 11
96.0
 21
7.0
 31
0.0
  0
LINE
  5
F5B
  8
240
  6
CONTINUOUS
 10
100.0
 20
-4.6905989257142844
 30
0.0
 11
96.0
 21
-7.0
 31
0.0
  0
LINE
  5
F5F
  8
240
  6
CONTINUOUS
 10
100.0
 20
4.6905989257142844
 30
0.0
 11
96.0
 21
7.0
 31
0.0
  0
LINE
  5
F60
  8
245
  6
CENTER2
 10
93.0
 20
8.0
 30
0.0
 11
93.0
 21
2.0
 31
0.0
  0
LINE
  5
F61
  8
243
  6
HIDDEN2
 10
91.349999999999994
 20
3.0
 30
0.0
 11
91.349999999999994
 21
7.0
 31
0.0
  0
LINE
  5
F62
  8
242
  6
HIDDEN2
 10
91.0
 20
3.0
 30
0.0
 11
91.0
 21
7.0
 31
0.0
  0
LINE
  5
F63
  8
242
  6
HIDDEN2
 10
95.0
 20
3.0
 30
0.0
 11
95.0
 21
7.0
 31
0.0
  0
LINE
  5
F64
  8
243
  6
HIDDEN2
 10
94.650000000000006
 20
3.0
 30
0.0
 11
94.650000000000006
 21
7.0
 31
0.0
  0
LINE
  5
F71
  8
243
  6
HIDDEN2
 10
77.616809730396426
 20
-3.0
 30
0.0
 11
100.0
 21
-3.0
 31
0.0
  0
TEXT
  5
F72
  8
250
  6
CONTINUOUS
 10
108.995
 20
-2.698652325935079
 30
0.0
 40
2.799999999999998
  1
\U+22056
 50
90.0
1001
ACAD
1000
MTEXTBEGIN
1070
    73
1070
     1
1070
    44
1040
1.0
1070
    74
1070
     0
1000
MTEXTEND
1000
MTEXTBEGIN
1070
    73
1070
     1
1070
    44
1040
1.0
1070
    74
1070
     0
1000
MTEXTEND
1000
MTEXTBEGIN
1070
    73
1070
     1
1070
    44
1040
1.0
1070
    74
1070
     0
1000
MTEXTEND
  0
LINE
  5
F73
  8
250
  6
CONTINUOUS
 10
109.62333333333331
 20
0.7700000000000001
 30
0.0
 11
109.995
 21
3.0
 31
0.0
  0
LINE
  5
F74
  8
250
  6
CONTINUOUS
 10
110.3666666666666
 20
0.7700000000000001
 30
0.0
 11
109.995
 21
3.0
 31
0.0
  0
LINE
  5
F76
  8
250
  6
CONTINUOUS
 10
0.0
 20
7.5
 30
0.0
 11
0.0
 21
24.0
 31
0.0
  0
LINE
  5
F77
  8
250
  6
CONTINUOUS
 10
100.0
 20
4.6132486500000001
 30
0.0
 11
100.0
 21
24.0
 31
0.0
  0
LINE
  5
F78
  8
250
  6
CONTINUOUS
 10
2.2300000000000031
 20
23.0
 30
0.0
 11
97.77000000000001
 21
23.0
 31
0.0
  0
LINE
  5
F7C
  8
250
  6
CONTINUOUS
 10
100.5
 20
-3.0
 30
0.0
 11
110.995
 21
-3.0
 31
0.0
  0
LINE
  5
F7D
  8
250
  6
CONTINUOUS
 10
109.62333333333331
 20
-0.7700000000000001
 30
0.0
 11
109.995
 21
-3.0
 31
0.0
  0
LINE
  5
F7E
  8
250
  6
CONTINUOUS
 10
110.3666666666666
 20
-0.7700000000000001
 30
0.0
 11
109.995
 21
-3.0
 31
0.0
  0
TEXT
  5
F7F
  8
250
  6
CONTINUOUS
 10
45.799999999999997
 20
24.0
 30
0.0
 40
2.799999999999998
  1
100
1001
ACAD
1000
MTEXTBEGIN
1070
    73
1070
     1
1070
    44
1040
1.0
1070
    74
1070
     0
1000
MTEXTEND
  0
LINE
  5
F80
  8
250
  6
CONTINUOUS
 10
97.77000000000001
 20
23.37166666666667
 30
0.0
 11
100.0
 21
23.0
 31
0.0
  0
LINE
  5
F81
  8
250
  6
CONTINUOUS
 10
97.77000000000001
 20
22.62833333333333
 30
0.0
 11
100.0
 21
23.0
 31
0.0
  0
LINE
  5
F82
  8
250
  6
CONTINUOUS
 10
100.0
 20
23.0
 30
0.0
 11
97.77000000000001
 21
23.0
 31
0.0
  0
LINE
  5
F83
  8
250
  6
CONTINUOUS
 10
2.2300000000000031
 20
22.62833333333333
 30
0.0
 11
0.0
 21
23.0
 31
0.0
  0
LINE
  5
F84
  8
250
  6
CONTINUOUS
 10
2.2300000000000031
 20
23.37166666666667
 30
0.0
 11
0.0
 21
23.0
 31
0.0
  0
LINE
  5
F85
  8
250
  6
CONTINUOUS
 10
0.0
 20
23.0
 30
0.0
 11
2.2300000000000031
 21
23.0
 31
0.0
  0
LINE
  5
FBD
  8
250
  6
CONTINUOUS
 10
20.380068126938671
 20
-20.99999999999994
 30
0.0
 11
7.4456264792746358
 21
-20.99999999999994
 31
0.0
1001
ITEMNAME
1000
LNSP2
  0
TEXT
  5
FBE
  8
250
  6
CONTINUOUS
 10
8.3716278807492301
 20
-19.99999999999994
 30
0.0
 40
3.0
  1
ST16
  7
YOKO
1001
ITEMNAME
1000
LNSP3
1001
ACAD
1000
MTEXTBEGIN
1070
    73
1070
     1
1070
    44
1040
1.0
1070
    74
1070
     0
1000
MTEXTEND
  0
LINE
  5
FBF
  8
250
  6
CONTINUOUS
 10
26.770621626403809
 20
-9.9312366504393026
 30
0.0
 11
20.380068126938671
 21
-20.99999999999994
 31
0.0
1001
ACAD
1000
DSTYLE
1002
{
1070
     5
1000
OPEN
1070
    78
1070
     8
1070
   140
1040
3.0
1002
}
  0
LINE
  5
FC0
  8
250
  6
CONTINUOUS
 10
26.44874885133062
 20
-9.7454033171059677
 30
0.0
 11
27.8856216264038
 21
-8.0000000000000568
 31
0.0
  0
LINE
  5
FC1
  8
250
  6
CONTINUOUS
 10
27.09249440147698
 20
-10.11706998377263
 30
0.0
 11
27.8856216264038
 21
-8.0000000000000568
 31
0.0
  0
LINE
  5
FC2
  8
250
  6
CONTINUOUS
 10
27.8856216264038
 20
-8.0000000000000568
 30
0.0
 11
26.770621626403809
 21
-9.9312366504393026
 31
0.0
  0
LINE
  5
FC3
  8
247
  6
CONTINUOUS
 10
6.749999999929968
 20
-5.4999999999999432
 30
0.0
 11
13.44230769196999
 21
-5.4999999999999432
 31
0.0
  0
ARC
  5
FC4
  8
247
  6
CONTINUOUS
 10
6.749999999929968
 20
-3.7500000000699729
 30
0.0
 40
1.7499999999299991
 50
90.0
 51
270.0
  0
ARC
  5
FC5
  8
247
  6
CONTINUOUS
 10
13.44230769196999
 20
-3.7500000000699729
 30
0.0
 40
1.7499999999299991
 50
270.0
 51
90.0
  0
LINE
  5
FC6
  8
247
  6
CONTINUOUS
 10
7.615384615279992
 20
-2.000000000140004
 30
0.0
 11
6.7551484580380068
 21
-5.000000000019952
 31
0.0
  0
LINE
  5
FC7
  8
247
  6
CONTINUOUS
 10
8.5150161816641941
 20
-3.4230769231598401
 30
0.0
 11
7.2073238740241692
 21
-3.4230769231598401
 31
0.0
  0
ARC
  5
FC8
  8
247
  6
CONTINUOUS
 10
8.8548561839102131
 20
-2.5495986677028082
 30
0.0
 40
0.5538165441895349
 50
342.9978896752952
 51
82.924166218513577
  0
ARC
  5
FC9
  8
247
  6
CONTINUOUS
 10
8.4331216769712256
 20
-2.4360330444657721
 30
0.0
 40
0.9904354236226808
 50
274.74293685219902
 51
343.84922627326688
1001
GENIUS_GENOBJ-N-FIL_13
1002
{
1000
OWNER
1000
GEN
1002
}
1001
GENIUS_GENODEF_13
1002
{
1000
HIER
1070
     0
1002
}
1002
{
1000
MANEDIT
1070
     0
1002
}
1002
{
1000
NOSEL
1070
     0
1002
}
1002
{
1000
BEHIND
1070
     0
1002
}
1002
{
1000
OTHER
1070
     0
1002
}
1002
{
1000
REACTOR
1002
}
  0
LINE
  5
FCA
  8
247
  6
CONTINUOUS
 10
8.0628407656780041
 20
-5.000000000019952
 30
0.0
 11
6.7551484580380068
 21
-5.000000000019952
 31
0.0
  0
LINE
  5
FCB
  8
247
  6
CONTINUOUS
 10
7.615384615279992
 20
-2.000000000140004
 30
0.0
 11
8.9230769229200604
 21
-2.000000000140004
 31
0.0
  0
ARC
  5
FCC
  8
247
  6
CONTINUOUS
 10
8.4390803634530869
 20
-3.9820242326654229
 30
0.0
 40
0.5640818586791229
 50
335.9909416525216
 51
82.263443459069066
  0
ARC
  5
FCD
  8
247
  6
CONTINUOUS
 10
7.9617373146529644
 20
-3.9874290391864511
 30
0.0
 40
1.0176059446230981
 50
275.70198516425648
 51
347.27733843682199
1001
GENIUS_GENOBJ-N-FIL_13
1002
{
1000
OWNER
1000
GEN
1002
}
1001
GENIUS_GENODEF_13
1002
{
1000
HIER
1070
     0
1002
}
1002
{
1000
MANEDIT
1070
     0
1002
}
1002
{
1000
NOSEL
1070
     0
1002
}
1002
{
1000
BEHIND
1070
     0
1002
}
1002
{
1000
OTHER
1070
     0
1002
}
1002
{
1000
REACTOR
1002
}
  0
LINE
  5
FCE
  8
247
  6
CONTINUOUS
 10
9.7166869194579562
 20
-5.000000000019952
 30
0.0
 11
10.57692307669998
 21
-2.000000000140004
 31
0.0
  0
LINE
  5
FCF
  8
247
  6
CONTINUOUS
 10
12.99999999967997
 20
-2.000000000140004
 30
0.0
 11
12.434263380543371
 21
-2.000000000140004
 31
0.0
  0
LINE
  5
FD0
  8
247
  6
CONTINUOUS
 10
11.538461538199989
 20
-5.000000000019952
 30
0.0
 11
12.15384615355997
 21
-5.000000000019952
 31
0.0
  0
ARC
  5
FD1
  8
247
  6
CONTINUOUS
 10
13.29120879087713
 20
-4.0832851359733109
 30
0.0
 40
2.2526500823422122
 50
112.3594881415293
 51
164.99324854284629
  0
ARC
  5
FD2
  8
247
  6
CONTINUOUS
 10
12.62593052078677
 20
-2.8083126551945821
 30
0.0
 40
0.8906723995727782
 50
4.9945893190753372
 51
65.166328957300493
1001
GENIUS_GENOBJ-N-FIL_13
1002
{
1000
OWNER
1000
GEN
1002
}
1001
GENIUS_GENODEF_13
1002
{
1000
HIER
1070
     0
1002
}
1002
{
1000
MANEDIT
1070
     0
1002
}
1002
{
1000
NOSEL
1070
     0
1002
}
1002
{
1000
BEHIND
1070
     0
1002
}
1002
{
1000
OTHER
1070
     0
1002
}
1002
{
1000
REACTOR
1002
}
  0
ARC
  5
FD3
  8
247
  6
CONTINUOUS
 10
11.77354111378742
 20
-3.6601458886677269
 30
0.0
 40
1.392781735586712
 50
285.84609655578072
 51
352.32513700416229
  0
ARC
  5
FD4
  8
247
  6
CONTINUOUS
 10
12.35778727415966
 20
-3.9592434315272271
 30
0.0
 40
1.324563662670287
 50
159.71360167048991
 51
231.78874565641431
1001
GENIUS_GENOBJ-N-FIL_13
1002
{
1000
OWNER
1000
GEN
1002
}
1001
GENIUS_GENODEF_13
1002
{
1000
HIER
1070
     0
1002
}
1002
{
1000
MANEDIT
1070
     0
1002
}
1002
{
1000
NOSEL
1070
     0
1002
}
1002
{
1000
BEHIND
1070
     0
1002
}
1002
{
1000
OTHER
1070
     0
1002
}
1002
{
1000
REACTOR
1002
}
  0
LINE
  5
FD5
  8
247
  6
CONTINUOUS
 10
12.46153846124002
 20
-3.8461538462199201
 30
0.0
 11
13.15384615352003
 21
-3.8461538462199201
 31
0.0
  0
LINE
  5
FD6
  8
247
  6
CONTINUOUS
 10
6.749999999929968
 20
-2.000000000140004
 30
0.0
 11
7.423076922979944
 21
-2.000000000140004
 31
0.0
  0
VIEWPORT
  5
22
 67
     1
  8
0
 10
261.51769911999997
 20
148.5
 30
0.0
 40
523.03539823000006
 41
297.0
 68
     1
 69
     1
1001
ACAD
1000
MVIEW
1002
{
1070
    16
1010
0.0
1020
0.0
1030
0.0
1010
0.0
1020
0.0
1030
1.0
1040
0.0
1040
297.0
1040
261.51769911999997
1040
148.5
1040
50.0
1040
0.0
1040
0.0
1070
     0
1070
   100
1070
     1
1070
     1
1070
     0
1070
     0
1070
     0
1070
     0
1040
0.0
1040
0.0
1040
0.0
1040
1.0
1040
1.0
1040
10.0
1040
10.0
1070
     0
1002
{
1002
}
1002
}
1001
GENIUS_GENODEF_13
1002
{
1000
HIER
1070
     0
1002
}
1002
{
1000
MANEDIT
1070
     0
1002
}
1002
{
1000
NOSEL
1070
     0
1002
}
1002
{
1000
BEHIND
1070
     0
1002
}
1002
{
1000
OTHER
1070
     0
1002
}
1002
{
1000
REACTOR
1002
}
1001
GENIUS_GENOBJ-N-SDF_13
1002
{
1000
OWNER
1000
GEN
1002
}
1001
GENIUS_GENSCREG_15
1000
PF
1040
1.0
1000
DF
1040
1.0
1000
MIN
1011
0.0000000049999471
1021
0.0
1031
0.0
1021
0.0
1031
0.0
1000
MAX
1011
523.035398235
1021
0.0
1031
0.0
1021
297.0
1031
0.0
1000
FLAGS
1070
     4
  0
ENDSEC
  0
EOF
