  0
SECTION
  2
HEADER
  9
$ACADVER
  1
AC1009
  9
$INSBASE
 10
0.0
 20
0.0
 30
0.0
  9
$EXTMIN
 10
-103.9977638899111
 20
-20.99999999999978
 30
0.0
  9
$EXTMAX
 10
58.393094368121972
 20
54.869988728637409
 30
0.0
  9
$LIMMIN
 10
0.0
 20
0.0
  9
$LIMMAX
 10
297.0
 20
210.0
  9
$ORTHOMODE
 70
     0
  9
$REGENMODE
 70
     1
  9
$FILLMODE
 70
     1
  9
$QTEXTMODE
 70
     0
  9
$MIRRTEXT
 70
     1
  9
$DRAGMODE
 70
     2
  9
$LTSCALE
 40
10.0
  9
$OSMODE
 70
    39
  9
$ATTMODE
 70
     1
  9
$TEXTSIZE
 40
3.0
  9
$TRACEWID
 40
1.0
  9
$TEXTSTYLE
  7
YOKO
  9
$CLAYER
  8
241
  9
$CELTYPE
  6
BYLAYER
  9
$CECOLOR
 62
   256
  9
$DIMSCALE
 40
1.0
  9
$DIMASZ
 40
2.2299999999999991
  9
$DIMEXO
 40
0.5
  9
$DIMDLI
 40
7.0
  9
$DIMRND
 40
0.0
  9
$DIMDLE
 40
0.0
  9
$DIMEXE
 40
1.0
  9
$DIMTP
 40
0.0
  9
$DIMTM
 40
0.01
  9
$DIMTXT
 40
2.7999999999999989
  9
$DIMCEN
 40
0.0
  9
$DIMTSZ
 40
0.0
  9
$DIMTOL
 70
     0
  9
$DIMLIM
 70
     0
  9
$DIMTIH
 70
     0
  9
$DIMTOH
 70
     0
  9
$DIMSE1
 70
     0
  9
$DIMSE2
 70
     0
  9
$DIMTAD
 70
     3
  9
$DIMZIN
 70
     9
  9
$DIMBLK
  1
OPEN
  9
$DIMASO
 70
     1
  9
$DIMSHO
 70
     1
  9
$DIMPOST
  1

  9
$DIMAPOST
  1

  9
$DIMALT
 70
     0
  9
$DIMALTD
 70
     2
  9
$DIMALTF
 40
25.399999999999999
  9
$DIMLFAC
 40
1.0
  9
$DIMTOFL
 70
     1
  9
$DIMTVP
 40
0.0
  9
$DIMTIX
 70
     1
  9
$DIMSOXD
 70
     0
  9
$DIMSAH
 70
     0
  9
$DIMBLK1
  1

  9
$DIMBLK2
  1

  9
$DIMSTYLE
  2
BIGT
  9
$DIMCLRD
 70
   256
  9
$DIMCLRE
 70
   256
  9
$DIMCLRT
 70
    40
  9
$DIMTFAC
 40
1.0
  9
$DIMGAP
 40
1.0
  9
$LUNITS
 70
     2
  9
$LUPREC
 70
     6
  9
$SKETCHINC
 40
1.0
  9
$FILLETRAD
 40
0.0
  9
$AUNITS
 70
     0
  9
$AUPREC
 70
     6
  9
$MENU
  1
.
  9
$ELEVATION
 40
0.0
  9
$PELEVATION
 40
0.0
  9
$THICKNESS
 40
0.0
  9
$LIMCHECK
 70
     0
  9
$BLIPMODE
 70
     0
  9
$CHAMFERA
 40
0.4
  9
$CHAMFERB
 40
0.4
  9
$SKPOLY
 70
     0
  9
$TDCREATE
 40
2457837.4163158801
  9
$TDUPDATE
 40
2457840.5778000578
  9
$TDINDWG
 40
0.0485355208
  9
$TDUSRTIMER
 40
0.0485354977
  9
$USRTIMER
 70
     1
  9
$ANGBASE
 50
0.0
  9
$ANGDIR
 70
     0
  9
$PDMODE
 70
     1
  9
$PDSIZE
 40
0.0
  9
$PLINEWID
 40
0.0
  9
$COORDS
 70
     1
  9
$SPLFRAME
 70
     0
  9
$SPLINETYPE
 70
     6
  9
$SPLINESEGS
 70
     4
  9
$ATTDIA
 70
     1
  9
$ATTREQ
 70
     1
  9
$HANDLING
 70
     1
  9
$HANDSEED
  5
57D7
  9
$SURFTAB1
 70
     6
  9
$SURFTAB2
 70
     6
  9
$SURFTYPE
 70
     6
  9
$SURFU
 70
     6
  9
$SURFV
 70
     6
  9
$UCSNAME
  2

  9
$UCSORG
 10
0.0
 20
0.0
 30
0.0
  9
$UCSXDIR
 10
1.0
 20
0.0
 30
0.0
  9
$UCSYDIR
 10
0.0
 20
1.0
 30
0.0
  9
$PUCSNAME
  2

  9
$PUCSORG
 10
0.0
 20
0.0
 30
0.0
  9
$PUCSXDIR
 10
1.0
 20
0.0
 30
0.0
  9
$PUCSYDIR
 10
0.0
 20
1.0
 30
0.0
  9
$USERI1
 70
     1
  9
$USERI2
 70
     0
  9
$USERI3
 70
     0
  9
$USERI4
 70
     0
  9
$USERI5
 70
     0
  9
$USERR1
 40
0.0
  9
$USERR2
 40
0.0
  9
$USERR3
 40
0.0
  9
$USERR4
 40
0.0
  9
$USERR5
 40
0.0
  9
$WORLDVIEW
 70
     1
  9
$SHADEDGE
 70
     3
  9
$SHADEDIF
 70
    70
  9
$TILEMODE
 70
     1
  9
$MAXACTVP
 70
    16
  9
$PLIMCHECK
 70
     0
  9
$PEXTMIN
 10
1.0000000000000000E+020
 20
1.0000000000000000E+020
 30
1.0000000000000000E+020
  9
$PEXTMAX
 10
-1.0000000000000000E+020
 20
-1.0000000000000000E+020
 30
-1.0000000000000000E+020
  9
$PLIMMIN
 10
0.0
 20
0.0
  9
$PLIMMAX
 10
420.0
 20
297.0
  9
$UNITMODE
 70
     0
  9
$VISRETAIN
 70
     1
  9
$PLINEGEN
 70
     0
  9
$PSLTSCALE
 70
     1
  0
ENDSEC
  0
SECTION
  2
TABLES
  0
TABLE
  2
VPORT
 70
     1
  0
VPORT
  2
*ACTIVE
 70
     0
 10
0.0
 20
0.0
 11
1.0
 21
1.0
 12
-14.907097501493149
 22
30.225902182211058
 13
0.0
 23
0.0
 14
7.0
 24
7.0
 15
7.0
 25
7.0
 16
0.0
 26
0.0
 36
1.0
 17
0.0
 27
0.0
 37
0.0
 40
181.32909204392229
 41
1.5303030303030301
 42
50.0
 43
0.0
 44
0.0
 50
0.0
 51
0.0
 71
     0
 72
  2000
 73
     1
 74
     0
 75
     0
 76
     1
 77
     0
 78
     0
  0
ENDTAB
  0
TABLE
  2
LTYPE
 70
    15
  0
LTYPE
  2
CONTINUOUS
 70
     0
  3
Solid line
 72
    65
 73
     0
 40
0.0
  0
LTYPE
  2
CENTER2
 70
     0
  3
___ _ ___ _ ___ _ ___ _ ___ _ ___ _ ___ _ ___ _
 72
    65
 73
     4
 40
1.125
 49
0.75
 49
-0.125
 49
0.125
 49
-0.125
  0
LTYPE
  2
AM_ISO02W050
 70
     0
  3
__ __ __ __ __ __ __ __ __ __ __ __ __ __ __
 72
    65
 73
     2
 40
7.5
 49
6.0
 49
-1.5
  0
LTYPE
  2
AMCONSTR
 70
     0
  3
_______________________
 72
    65
 73
     2
 40
9999.0
 49
9999.0
 49
0.0
  0
LTYPE
  2
ACISOWELD
 70
     0
  3
_ _ _ _ _
 72
    65
 73
     2
 40
2.0
 49
2.0
 49
-1.0
  0
LTYPE
  2
ACISOTGB
 70
     0
  3
__ . . __ . .
 72
    65
 73
     6
 40
9.0
 49
4.0
 49
-1.0
 49
1.0
 49
-1.0
 49
1.0
 49
-1.0
  0
LTYPE
  2
ACISOTGL
 70
     0
  3
_ _ _ _ _
 72
    65
 73
     2
 40
3.0
 49
2.0
 49
-1.0
  0
LTYPE
  2
AM_ISO08W050
 70
     0
  3
____ . ____ . ____ . ____ . ____ . ____ . ____
 72
    65
 73
     4
 40
18.0
 49
12.0
 49
-1.5
 49
3.0
 49
-1.5
  0
LTYPE
  2
AM_ISO09W050
 70
     0
  3
_____ . . _____ . . _____ . . ____ .. ____
 72
    65
 73
     6
 40
22.5
 49
12.0
 49
-1.5
 49
3.0
 49
-1.5
 49
3.0
 49
-1.5
  0
LTYPE
  2
AM_ISO08W050X2
 70
     0
  3
__ . __ . __ . __ . __ . __
 72
    65
 73
     4
 40
9.0
 49
6.0
 49
-0.75
 49
1.5
 49
-0.75
  0
LTYPE
  2
AM_ISO02W050X2
 70
     0
  3
 _ _ _ _ _ _ _ _ _ _ _ _
 72
    65
 73
     2
 40
3.75
 49
3.0
 49
-0.75
  0
LTYPE
  2
AMZIGZAG
 70
     0
  3
/\/-/\/-/\/-/\/-/\/-/\/
 72
    65
 73
     2
 40
11.0001
 49
0.0001
 49
-11.0
  0
ENDTAB
  0
TABLE
  2
LAYER
 70
     7
  0
LAYER
  2
0
 70
     0
 62
     7
  6
CONTINUOUS
  0
LAYER
  2
DEFPOINTS
 70
     0
 62
     7
  6
CONTINUOUS
  0
LAYER
  2
245
 70
     0
 62
     2
  6
CENTER2
  0
LAYER
  2
240
 70
     0
 62
     4
  6
CONTINUOUS
  0
LAYER
  2
241
 70
     0
 62
   211
  6
CONTINUOUS
  0
LAYER
  2
247
 70
     0
 62
    60
  6
CONTINUOUS
  0
LAYER
  2
250
 70
     0
 62
     3
  6
CONTINUOUS
  0
ENDTAB
  0
TABLE
  2
STYLE
 70
     5
  0
STYLE
  2
STANDARD
 70
     0
 40
0.0
 41
1.0
 50
0.0
 71
     0
 42
3.0
  3
romans.shx
  4
extfont.shx
  0
STYLE
  2
ACISOGDT
 70
     0
 40
0.0
 41
1.0
 50
0.0
 71
     0
 42
3.0
  3
amgdt.shx
  4
extfont.shx
  0
STYLE
  2
YOKO
 70
     0
 40
0.0
 41
1.0
 50
0.0
 71
     0
 42
3.0
  3
romans.shx
  4
extfont.shx
  0
STYLE
  2

 70
     1
 40
0.0
 41
1.0
 50
0.0
 71
     0
 42
3.0
  3
genltshp.shx
  4

  0
ENDTAB
  0
TABLE
  2
VIEW
 70
     0
  0
ENDTAB
  0
TABLE
  2
UCS
 70
     0
  0
ENDTAB
  0
TABLE
  2
APPID
 70
    39
  0
APPID
  2
ACAD
 70
     0
  0
APPID
  2
GLOBAL
 70
     0
  0
APPID
  2
DETAIL
 70
     0
  0
APPID
  2
GRPNAME
 70
     0
  0
APPID
  2
GPARA
 70
     0
  0
APPID
  2
MCAD_NO_VIS
 70
     0
  0
APPID
  2
ACAD_TEMP_GRAPHIC
 70
     0
  0
APPID
  2
ACATTRIBSERVICES
 70
     0
  0
APPID
  2
GENIUS_GENSCREG_15
 70
     0
  0
APPID
  2
GENIUS_GENODEF_13
 70
     0
  0
APPID
  2
GENIUS_GENOBJ-N-SDF_13
 70
     0
  0
APPID
  2
GENIUS_GENREC_14
 70
     0
  0
APPID
  2
GENIUS_GENOBJ-N-REC_13
 70
     0
  0
APPID
  2
GENIUS_GENDIMSH_14
 70
     0
  0
APPID
  2
GENIUS_GENOBJ-N-DIM_13
 70
     0
  0
APPID
  2
GENIUS_GENDIM_13
 70
     0
  0
APPID
  2
GENIUS_GENDTOL_13
 70
     0
  0
APPID
  2
GENIUS_GENOLIS_13
 70
     0
  0
APPID
  2
GENIUS_GENOENT_13
 70
     0
  0
APPID
  2
GENIUS_GENOBJ-F-FEM_13
 70
     0
  0
APPID
  2
GENIUS_GENOREF_13
 70
     0
  0
APPID
  2
GENIUS_GEFFEM_13
 70
     0
  0
APPID
  2
GENIUS_GEFFEMP_13
 70
     0
  0
APPID
  2
AD_DRAW
 70
     0
  0
APPID
  2
DESIGNERASSEMBLIES
 70
     0
  0
APPID
  2
ACADM_DIM_EDIT
 70
     0
  0
APPID
  2
AMDT_DM_ADJ
 70
     0
  0
APPID
  2
ITEMNAME
 70
     0
  0
APPID
  2
GENIUS_GENOBJ-N-FIL_13
 70
     0
  0
APPID
  2
GENIUS_GENFIL_13
 70
     0
  0
APPID
  2
GENIUS_GENOBJ-N-CHA_13
 70
     0
  0
APPID
  2
ACAECLAYERSTANDARD
 70
     0
  0
APPID
  2
ACAD_NAV_VCDISPLAY
 70
     0
  0
APPID
  2
ACAD_EXEMPT_FROM_CAD_STANDARDS
 70
     0
  0
APPID
  2
ACAD_DSTYLE_DIMINSPECT
 70
     0
  0
APPID
  2
ACAD_MLEADERVER
 70
     0
  0
APPID
  2
ACAD_DSTYLE_DIMBREAK
 70
     0
  0
APPID
  2
ACAD_DSTYLE_DIMJAG
 70
     0
  0
APPID
  2
ACAD_PSEXT
 70
     0
  0
ENDTAB
  0
TABLE
  2
DIMSTYLE
 70
     8
  0
DIMSTYLE
  2
BIGT
 70
     0
  3

  4

  5
OPEN
  6

  7

 40
1.0
 41
2.2299999999999991
 42
0.5
 43
7.0
 44
1.0
 45
0.0
 46
0.0
 47
0.0
 48
0.01
140
2.7999999999999989
141
0.0
142
0.0
143
25.399999999999999
144
1.0
145
0.0
146
1.0
147
1.0
 71
     0
 72
     0
 73
     0
 74
     0
 75
     0
 76
     0
 77
     3
 78
     9
170
     0
171
     2
172
     1
173
     0
174
     1
175
     0
176
   256
177
   256
178
    40
  0
DIMSTYLE
  2
AM_ISO
 70
     0
  3

  4
"
  5

  6

  7

 40
1.0
 41
2.5
 42
1.0
 43
10.0
 44
1.0
 45
0.0
 46
0.0
 47
0.1
 48
0.1
140
3.5
141
0.0
142
0.0
143
0.0393701
144
1.0
145
0.0
146
0.71
147
1.5
 71
     0
 72
     0
 73
     0
 74
     0
 75
     0
 76
     0
 77
     1
 78
     8
170
     0
171
     2
172
     1
173
     0
174
     0
175
     0
176
   256
177
   256
178
     2
  0
DIMSTYLE
  2
AM_ISO$3
 70
     0
  3

  4
"
  5

  6

  7

 40
1.0
 41
2.5
 42
1.0
 43
10.0
 44
1.0
 45
0.0
 46
0.0
 47
0.1
 48
0.1
140
3.5
141
0.0
142
0.0
143
0.0393701
144
1.0
145
0.0
146
0.71
147
1.5
 71
     0
 72
     0
 73
     0
 74
     1
 75
     0
 76
     0
 77
     1
 78
     8
170
     0
171
     2
172
     0
173
     0
174
     0
175
     0
176
   256
177
   256
178
     2
  0
DIMSTYLE
  2
AM_ISO$4
 70
     0
  3

  4
"
  5

  6

  7

 40
1.0
 41
2.5
 42
1.0
 43
10.0
 44
1.0
 45
0.0
 46
0.0
 47
0.1
 48
0.1
140
3.5
141
0.0
142
0.0
143
0.0393701
144
1.0
145
0.0
146
0.71
147
1.5
 71
     0
 72
     0
 73
     0
 74
     1
 75
     0
 76
     0
 77
     1
 78
     8
170
     0
171
     2
172
     0
173
     0
174
     0
175
     0
176
   256
177
   256
178
     2
  0
DIMSTYLE
  2
AM_ISO$6
 70
     0
  3

  4
"
  5

  6

  7

 40
1.0
 41
2.5
 42
1.0
 43
10.0
 44
1.0
 45
0.0
 46
0.0
 47
0.1
 48
0.1
140
3.5
141
0.0
142
0.0
143
0.0393701
144
1.0
145
0.0
146
0.71
147
1.5
 71
     0
 72
     0
 73
     0
 74
     0
 75
     0
 76
     0
 77
     0
 78
     8
170
     0
171
     2
172
     1
173
     0
174
     0
175
     0
176
   256
177
   256
178
     2
  0
DIMSTYLE
  2
AM_ISO$7
 70
     0
  3

  4
"
  5

  6

  7

 40
1.0
 41
2.5
 42
1.0
 43
10.0
 44
1.0
 45
0.0
 46
0.0
 47
0.1
 48
0.1
140
5.0
141
0.0
142
0.0
143
0.0393701
144
1.0
145
0.0
146
0.71
147
1.5
 71
     0
 72
     0
 73
     0
 74
     0
 75
     0
 76
     0
 77
     1
 78
     8
170
     0
171
     2
172
     1
173
     0
174
     0
175
     0
176
   256
177
   256
178
     2
  0
DIMSTYLE
  2
AM_ISO$SF
 70
     0
  3

  4
"
  5

  6

  7

 40
1.0
 41
2.5
 42
1.0
 43
10.0
 44
1.0
 45
0.0
 46
0.0
 47
0.1
 48
0.1
140
3.5
141
0.0
142
0.0
143
0.0393701
144
1.0
145
0.0
146
0.71
147
1.5
 71
     0
 72
     0
 73
     0
 74
     0
 75
     1
 76
     1
 77
     1
 78
     8
170
     0
171
     2
172
     1
173
     0
174
     0
175
     0
176
   256
177
   256
178
     2
  0
DIMSTYLE
  2
AM_ISO$SH
 70
     0
  3

  4
"
  5

  6
GENAXEH
  7

 40
1.0
 41
2.5
 42
1.0
 43
10.0
 44
1.0
 45
0.0
 46
0.0
 47
0.1
 48
0.1
140
3.5
141
0.0
142
0.0
143
0.0393701
144
2.0
145
0.0
146
0.71
147
1.5
 71
     0
 72
     0
 73
     0
 74
     0
 75
     1
 76
     1
 77
     1
 78
     8
170
     0
171
     2
172
     1
173
     1
174
     0
175
     0
176
   256
177
   256
178
     2
  0
ENDTAB
  0
ENDSEC
  0
SECTION
  2
BLOCKS
  0
BLOCK
  8
0
  2
$MODEL_SPACE
 70
     0
 10
0.0
 20
0.0
 30
0.0
  3
$MODEL_SPACE
  1

  0
ENDBLK
  5
1C
  8
0
  0
BLOCK
 67
     1
  8
0
  2
$PAPER_SPACE
 70
     0
 10
0.0
 20
0.0
 30
0.0
  3
$PAPER_SPACE
  1

  0
ENDBLK
  5
19
 67
     1
  8
0
  0
BLOCK
  8
0
  2
_OPEN
 70
     0
 10
0.0
 20
0.0
 30
0.0
  3
_OPEN
  1

  0
LINE
  5
3E1A
  8
0
  6
BYBLOCK
 62
     0
 10
-1.0
 20
0.1666666666666666
 30
0.0
 11
0.0
 21
0.0
 31
0.0
  0
LINE
  5
3E1B
  8
0
  6
BYBLOCK
 62
     0
 10
-1.0
 20
-0.1666666666666666
 30
0.0
 11
0.0
 21
0.0
 31
0.0
  0
LINE
  5
3E1C
  8
0
  6
BYBLOCK
 62
     0
 10
0.0
 20
0.0
 30
0.0
 11
-1.0
 21
0.0
 31
0.0
  0
ENDBLK
  5
3E1D
  8
0
  0
BLOCK
  8
0
  2
GENAXEH
 70
     0
 10
0.0
 20
0.0
 30
0.0
  3
GENAXEH
  1

  0
LINE
  5
3E45
  8
0
 10
-1.0
 20
0.0
 30
0.0
 11
1.0
 21
0.0
 31
0.0
  0
ENDBLK
  5
3E46
  8
0
  0
ENDSEC
  0
SECTION
  2
ENTITIES
  0
LINE
  5
4AE0
  8
241
  6
CONTINUOUS
 10
-2.899999963119626
 20
-9.2769879847762748
 30
0.0
 11
-2.899999963119626
 21
-8.7160775437948743
 31
0.0
  0
LINE
  5
4AE4
  8
241
  6
CONTINUOUS
 10
-4.8000002279877663
 20
-10.09071338921763
 30
0.0
 11
-4.8000002279877663
 21
-9.4297397881742882
 31
0.0
  0
LINE
  5
4AE5
  8
241
  6
CONTINUOUS
 10
-3.8000000640749909
 20
-10.19227690994717
 30
0.0
 11
-4.699999932199713
 21
-10.19227690994717
 31
0.0
  0
LINE
  5
4AE6
  8
240
  6
CONTINUOUS
 10
-0.3000000142492354
 20
-0.2195278256143394
 30
0.0
 11
-0.3000000142492354
 21
-5.7334426213355831
 31
0.0
  0
LINE
  5
4B6E
  8
241
  6
CONTINUOUS
 10
-0.7934494642540813
 20
-6.661081220954431
 30
0.0
 11
-0.899999984540045
 21
-6.661081220954431
 31
0.0
  0
LINE
  5
4B6F
  8
240
  6
CONTINUOUS
 10
-10.030004724163041
 20
-7.6000001281497651
 30
0.0
 11
-9.8137703219574632
 21
-7.383766118436828
 31
0.0
  0
LINE
  5
4B70
  8
241
  6
CONTINUOUS
 10
-6.8000000901520252
 20
-7.3837661184368271
 30
0.0
 11
-7.6299326382193096
 21
-7.383766118436828
 31
0.0
  0
LINE
  5
4B71
  8
240
  6
CONTINUOUS
 10
-0.3000000142492354
 20
5.73344262133556
 30
0.0
 11
-0.3000000142492354
 21
1.799999969080311
 31
0.0
  0
LINE
  5
4B72
  8
241
  6
CONTINUOUS
 10
-0.1854400179581717
 20
1.430287724361043
 30
0.0
 11
0.0
 21
-0.079999997978808
 31
0.0
  0
LINE
  5
4B73
  8
241
  6
CONTINUOUS
 10
-0.2308349794475362
 20
1.799999969080311
 30
0.0
 11
-0.1854400179581717
 21
1.430287724361043
 31
0.0
  0
LINE
  5
4C97
  8
241
  6
CONTINUOUS
 10
-8.4145702421665192
 20
-0.079999997978808
 30
0.0
 11
-8.1837354227900487
 21
1.799999969080311
 31
0.0
  0
LINE
  5
4C99
  8
240
  6
CONTINUOUS
 10
-9.8805073648691142
 20
7.4505032971503571
 30
0.0
 11
-9.6562532708048838
 21
7.4505032971503571
 31
0.0
  0
LINE
  5
4C9A
  8
240
  6
CONTINUOUS
 10
-7.6299326382188628
 20
7.3837661184372738
 30
0.0
 11
-9.5573113237391354
 21
7.3837661184372729
 31
0.0
  0
LINE
  5
4DA4
  8
241
  6
CONTINUOUS
 10
-30.99999904632574
 20
-8.0000003799793848
 30
0.0
 11
-30.99999904632574
 21
8.0000003799798325
 31
0.0
  0
ARC
  5
4DA5
  8
240
  6
CONTINUOUS
 10
-30.18578643762698
 20
-8.5999999999999144
 30
0.0
 40
1.0000000000000071
 50
90.0
 51
135.0
  0
ARC
  5
4DA6
  8
240
  6
CONTINUOUS
 10
-30.18578643762698
 20
8.6000000000001311
 30
0.0
 40
1.0000000000000071
 50
225.0
 51
270.0
  0
LINE
  5
4DA7
  8
240
  6
CONTINUOUS
 10
-100.99999934434879
 20
-7.9999999999997833
 30
0.0
 11
-100.99999934434879
 21
8.0000000000002132
 31
0.0
  0
LINE
  5
4DAA
  8
240
  6
CONTINUOUS
 10
-30.185784697532711
 20
-7.6000001281497651
 30
0.0
 11
-10.030004724163041
 21
-7.6000001281497651
 31
0.0
  0
LINE
  5
4DAB
  8
240
  6
CONTINUOUS
 10
-30.999998666351019
 20
-7.9999999999999316
 30
0.0
 11
-30.89289321881353
 21
-7.8928932188132439
 31
0.0
  0
LINE
  5
4DAC
  8
245
  6
CENTER2
 10
-103.9977638899111
 20
0.000000000000222
 30
0.0
 11
2.4805472465359322
 21
-0.0000000000000053
 31
0.0
  0
LINE
  5
4DAD
  8
241
  6
CONTINUOUS
 10
-30.600003775133189
 20
-7.6898219969098172
 30
0.0
 11
-30.600003775133189
 21
7.6898219969101467
 31
0.0
  0
LINE
  5
4DAE
  8
250
  6
CONTINUOUS
 10
0.0
 20
6.9659183844926194
 30
0.0
 11
0.0
 21
36.0
 31
0.0
  0
LINE
  5
4DAF
  8
250
  6
CONTINUOUS
 10
-100.99999934434879
 20
8.5000000000002132
 30
0.0
 11
-100.99999934434879
 21
36.0
 31
0.0
  0
LINE
  5
4DB0
  8
250
  6
CONTINUOUS
 10
-2.2300000000000182
 20
35.0
 30
0.0
 11
-98.769999344348946
 21
35.0
 31
0.0
  0
TEXT
  5
4DB1
  8
241
  6
CONTINUOUS
 10
-101.5546242201679
 20
49.869988728637409
 30
0.0
 40
5.0
  1
ST16-RC064B-30+RC06100
  7
YOKO
 11
-101.5546242201679
 21
49.869988728637409
 31
0.0
 73
     1
  0
LINE
  5
4DB2
  8
240
  6
CONTINUOUS
 10
-30.18578643762698
 20
7.6000000000002972
 30
0.0
 11
-10.030004195868971
 21
7.6000000000001311
 31
0.0
  0
ARC
  5
4DB4
  8
241
  6
CONTINUOUS
 10
-4.2032890481273757
 20
8.6080720313395904
 30
0.0
 40
4.0089268541738141
 50
236.01716021399551
 51
288.97143656474879
  0
LINE
  5
4DB5
  8
241
  6
CONTINUOUS
 10
-0.5160261061973871
 20
-0.319999991915898
 30
0.0
 11
0.0
 21
-0.079999997978808
 31
0.0
  0
LINE
  5
4DB6
  8
241
  6
CONTINUOUS
 10
-8.4145702421665192
 20
-0.079999997978808
 30
0.0
 11
-7.8985448926687232
 21
-0.319999991915898
 31
0.0
  0
LINE
  5
4DB7
  8
241
  6
CONTINUOUS
 10
-8.1837354227900487
 20
1.799999969080311
 30
0.0
 11
-0.2308349794475362
 21
1.799999969080311
 31
0.0
  0
LINE
  5
4DB8
  8
241
  6
CONTINUOUS
 10
-7.8985448926687232
 20
-0.319999991915898
 30
0.0
 11
-0.5160261061973871
 21
-0.319999991915898
 31
0.0
  0
LINE
  5
4DB9
  8
241
  6
CONTINUOUS
 10
-2.899999963119626
 20
-9.2769879847762748
 30
0.0
 11
-3.8000000640749909
 21
-10.19227690994717
 31
0.0
  0
LINE
  5
4DBA
  8
241
  6
CONTINUOUS
 10
-4.8000002279877663
 20
-10.09071338921763
 30
0.0
 11
-4.699999932199713
 21
-10.19227690994717
 31
0.0
  0
LINE
  5
4DBB
  8
240
  6
CONTINUOUS
 10
-7.6299326382193096
 20
-7.3837661184368271
 30
0.0
 11
-9.8137703219574632
 21
-7.383766118436828
 31
0.0
  0
LINE
  5
4DBD
  8
250
  6
CONTINUOUS
 10
-29.99999999999995
 20
8.1000000000003016
 30
0.0
 11
-29.99999999999995
 21
28.999999999999979
 31
0.0
  0
LINE
  5
4DBE
  8
250
  6
CONTINUOUS
 10
0.0
 20
6.9659183844926194
 30
0.0
 11
0.0000000000000011
 21
28.999999999999979
 31
0.0
  0
LINE
  5
4DBF
  8
250
  6
CONTINUOUS
 10
-27.769999999999929
 20
27.999999999999989
 30
0.0
 11
-2.2299999999999991
 21
27.999999999999989
 31
0.0
  0
LINE
  5
4DC0
  8
250
  6
CONTINUOUS
 10
-3.5087761177317121
 20
10.50000000000022
 30
0.0
 11
15.348893161883501
 21
10.50000000000021
 31
0.0
  0
LINE
  5
4DC1
  8
250
  6
CONTINUOUS
 10
14.348893161883501
 20
8.2700000000002145
 30
0.0
 11
14.348893161883479
 21
-10.50000000000027
 31
0.0
  0
TEXT
  5
4DC5
  8
250
  6
CONTINUOUS
 10
-54.571428243603023
 20
36.0
 30
0.0
 40
3.0
  1
101
  0
LINE
  5
4DC6
  8
250
  6
CONTINUOUS
 10
-98.769999344348946
 20
34.628333333333323
 30
0.0
 11
-100.99999934434879
 21
35.0
 31
0.0
  0
LINE
  5
4DC7
  8
250
  6
CONTINUOUS
 10
-98.769999344348946
 20
35.371666666666663
 30
0.0
 11
-100.99999934434879
 21
35.0
 31
0.0
  0
LINE
  5
4DC8
  8
250
  6
CONTINUOUS
 10
-100.99999934434879
 20
35.0
 30
0.0
 11
-98.769999344348946
 21
35.0
 31
0.0
  0
LINE
  5
4DC9
  8
250
  6
CONTINUOUS
 10
-2.2300000000000182
 20
35.371666666666663
 30
0.0
 11
0.0
 21
35.0
 31
0.0
  0
LINE
  5
4DCA
  8
250
  6
CONTINUOUS
 10
-2.2300000000000182
 20
34.628333333333323
 30
0.0
 11
0.0
 21
35.0
 31
0.0
  0
LINE
  5
4DCB
  8
250
  6
CONTINUOUS
 10
0.0
 20
35.0
 30
0.0
 11
-2.2300000000000182
 21
35.0
 31
0.0
  0
LINE
  5
4DCC
  8
240
  6
CONTINUOUS
 10
-10.030004195868971
 20
7.6000001281502083
 30
0.0
 11
-10.0299771875143
 21
7.599972654134258
 31
0.0
  0
LINE
  5
4DCD
  8
240
  6
CONTINUOUS
 10
-10.0299771875143
 20
7.599972654134258
 30
0.0
 11
-9.8805073648691142
 21
7.4505032971503571
 31
0.0
  0
TEXT
  5
4DD3
  8
250
  6
CONTINUOUS
 10
-17.666666666666629
 20
28.999999999999979
 30
0.0
 40
2.799999999999998
  1
30
  0
LINE
  5
4DD4
  8
250
  6
CONTINUOUS
 10
-2.2299999999999991
 20
28.371666666666659
 30
0.0
 11
0.0000000000000011
 21
27.999999999999989
 31
0.0
  0
LINE
  5
4DD5
  8
250
  6
CONTINUOUS
 10
-2.2299999999999991
 20
27.62833333333333
 30
0.0
 11
0.0000000000000011
 21
27.999999999999989
 31
0.0
  0
LINE
  5
4DD6
  8
250
  6
CONTINUOUS
 10
0.0000000000000011
 20
27.999999999999989
 30
0.0
 11
-2.2299999999999991
 21
27.999999999999989
 31
0.0
  0
LINE
  5
4DD7
  8
250
  6
CONTINUOUS
 10
-27.769999999999929
 20
27.62833333333333
 30
0.0
 11
-29.99999999999995
 21
27.999999999999989
 31
0.0
  0
LINE
  5
4DD8
  8
250
  6
CONTINUOUS
 10
-27.769999999999929
 20
28.371666666666659
 30
0.0
 11
-29.99999999999995
 21
27.999999999999989
 31
0.0
  0
LINE
  5
4DD9
  8
250
  6
CONTINUOUS
 10
-29.99999999999995
 20
27.999999999999989
 30
0.0
 11
-27.769999999999929
 21
27.999999999999989
 31
0.0
  0
TEXT
  5
4DDA
  8
250
  6
CONTINUOUS
 10
13.34889316188349
 20
-3.495238095238097
 30
0.0
 40
3.0
  1
\U+2205
 50
90.0
  0
TEXT
  5
4DDB
  8
250
  6
CONTINUOUS
 10
13.24889316188349
 20
-0.780952380952386
 30
0.0
 40
2.799999999999998
  1
21
 50
90.0
  0
LINE
  5
4DDC
  8
250
  6
CONTINUOUS
 10
13.977226495216829
 20
8.2700000000002145
 30
0.0
 11
14.348893161883501
 21
10.50000000000021
 31
0.0
  0
LINE
  5
4DDD
  8
250
  6
CONTINUOUS
 10
14.72055982855016
 20
8.2700000000002145
 30
0.0
 11
14.348893161883501
 21
10.50000000000021
 31
0.0
  0
LINE
  5
4DDE
  8
250
  6
CONTINUOUS
 10
14.348893161883501
 20
10.50000000000021
 30
0.0
 11
14.348893161883501
 21
8.2700000000002145
 31
0.0
  0
ARC
  5
4DE8
  8
241
  6
CONTINUOUS
 10
-0.8663487991841984
 20
-8.6945677163550243
 30
0.0
 40
2.0337649149428301
 50
90.948073629625114
 51
180.6059920194264
  0
ARC
  5
4DE9
  8
241
  6
CONTINUOUS
 10
-0.8013559808044576
 20
-6.1478278507145907
 30
0.0
 40
0.5019554611861457
 50
281.64939298973172
 51
357.19946554177892
  0
LINE
  5
4DEA
  8
241
  6
CONTINUOUS
 10
-0.7934494642540813
 20
-6.661081220954431
 30
0.0
 11
-0.699999975040555
 21
-6.6394438035783931
 31
0.0
  0
ARC
  5
4DEB
  8
241
  6
CONTINUOUS
 10
-6.8289720209171589
 20
-9.4126034255306088
 30
0.0
 40
2.0290441570916551
 50
359.51610075876732
 51
89.181868091946839
  0
LINE
  5
5061
  8
250
  6
CONTINUOUS
 10
-1.15620870160863
 20
14.012397903540711
 30
0.0
 11
-2.5930814766818449
 21
12.26699458643475
 31
0.0
  0
LINE
  5
5062
  8
250
  6
CONTINUOUS
 10
-1.79995425175506
 20
14.38406457020738
 30
0.0
 11
-2.5930814766818449
 21
12.26699458643475
 31
0.0
  0
LINE
  5
5063
  8
250
  6
CONTINUOUS
 10
-2.5930814766818449
 20
12.26699458643475
 30
0.0
 11
-1.4780814766818431
 21
14.198231236874051
 31
0.0
  0
POLYLINE
  5
5064
  8
250
  6
CONTINUOUS
 66
     1
 10
0.0
 20
0.0
 30
0.0
1001
ACAD
1000
DSTYLE
1002
{
1070
    42
1040
0.5
1070
    44
1040
1.0
1070
   140
1040
2.799999999999998
1002
}
  0
VERTEX
  5
57D4
  8
250
  6
CONTINUOUS
 10
-1.4780814766818431
 20
14.198231236874051
 30
0.0
  0
VERTEX
  5
57D5
  8
250
  6
CONTINUOUS
 10
6.0313311037678723
 20
27.20491536120986
 30
0.0
  0
SEQEND
  5
57D6
  8
250
  6
CONTINUOUS
  0
TEXT
  5
5065
  8
250
  6
CONTINUOUS
 10
8.2979977704345398
 20
28.204915361209888
 30
0.0
 40
2.799999999999998
  1
INSERT MODEL:RC06100
  7
YOKO
1001
ITEMNAME
1000
LNSP3
  0
TEXT
  5
5066
  8
250
  6
CONTINUOUS
 10
7.1513311037678733
 20
23.404915361209859
 30
0.0
 40
2.799999999999998
  1
üiOPTIONüj
  7
YOKO
1001
ITEMNAME
1000
LNSP4
  0
LINE
  5
5067
  8
250
  6
CONTINUOUS
 10
6.0313311037678723
 20
27.20491536120986
 30
0.0
 11
58.393094368121972
 21
27.20491536120986
 31
0.0
1001
ITEMNAME
1000
LNSP2
  0
LINE
  5
51D0
  8
241
  6
CONTINUOUS
 10
-0.3000000142492354
 20
5.6118108154199771
 30
0.0
 11
-2.899999963119626
 21
4.8169070279381812
 31
0.0
  0
LINE
  5
51D1
  8
240
  6
CONTINUOUS
 10
-9.6562532708048838
 20
7.4505032971503571
 30
0.0
 11
-9.5573113237391354
 21
7.3837661184372729
 31
0.0
  0
LINE
  5
51D2
  8
241
  6
CONTINUOUS
 10
-9.5573113237391354
 20
7.3837661184372729
 30
0.0
 11
-6.4440569840371591
 21
5.2838497795166823
 31
0.0
  0
LINE
  5
54FF
  8
241
  6
CONTINUOUS
 10
-0.3000000142492354
 20
-5.7334426213355822
 30
0.0
 11
-0.3000000142492355
 21
-6.1723529361186271
 31
0.0
  0
LINE
  5
5500
  8
240
  6
CONTINUOUS
 10
-30.999998666354969
 20
8.0000000000000657
 30
0.0
 11
-30.892893218817441
 21
7.8928932188134286
 31
0.0
  0
LINE
  5
552B
  8
240
  6
CONTINUOUS
 10
-100.99999934434879
 20
8.0000000000002132
 30
0.0
 11
-30.999998666354969
 21
8.0000000000000657
 31
0.0
  0
LINE
  5
552C
  8
240
  6
CONTINUOUS
 10
-100.99999934434879
 20
-7.9999999999997833
 30
0.0
 11
-30.999998666351019
 21
-7.9999999999999316
 31
0.0
  0
LINE
  5
5551
  8
250
  6
CONTINUOUS
 10
-86.041544118049501
 20
-20.99999999999978
 30
0.0
 11
-101.97654939915169
 21
-20.99999999999978
 31
0.0
1001
ITEMNAME
1000
LNSP2
  0
TEXT
  5
5552
  8
250
  6
CONTINUOUS
 10
-98.984838292984875
 20
-19.99999999999978
 30
0.0
 40
3.0
  1
ST16
  7
YOKO
1001
ITEMNAME
1000
LNSP3
1001
ACAD
1000
MTEXTBEGIN
1070
    73
1070
     1
1070
    44
1040
1.0
1070
    74
1070
     0
1000
MTEXTEND
  0
LINE
  5
5553
  8
250
  6
CONTINUOUS
 10
-79.650990618584373
 20
-9.9312366504391445
 30
0.0
 11
-86.041544118049501
 21
-20.99999999999978
 31
0.0
1001
ACAD
1000
DSTYLE
1002
{
1070
     5
1000
OPEN
1070
    78
1070
     8
1070
   140
1040
3.0
1002
}
  0
LINE
  5
5554
  8
250
  6
CONTINUOUS
 10
-79.972863393657576
 20
-9.7454033171058096
 30
0.0
 11
-78.535990618584378
 21
-7.999999999999897
 31
0.0
  0
LINE
  5
5555
  8
250
  6
CONTINUOUS
 10
-79.329117843511185
 20
-10.117069983772479
 30
0.0
 11
-78.535990618584378
 21
-7.999999999999897
 31
0.0
  0
LINE
  5
5556
  8
250
  6
CONTINUOUS
 10
-78.535990618584378
 20
-7.999999999999897
 30
0.0
 11
-79.650990618584373
 21
-9.9312366504391445
 31
0.0
  0
LINE
  5
5557
  8
247
  6
CONTINUOUS
 10
-94.249999344418825
 20
-5.4999999999997842
 30
0.0
 11
-87.557691652378821
 21
-5.4999999999997842
 31
0.0
  0
ARC
  5
5558
  8
247
  6
CONTINUOUS
 10
-94.249999344418825
 20
-3.7500000000698148
 30
0.0
 40
1.7499999999299991
 50
90.0
 51
270.0
  0
ARC
  5
5559
  8
247
  6
CONTINUOUS
 10
-87.557691652378821
 20
-3.7500000000698148
 30
0.0
 40
1.7499999999299991
 50
270.0
 51
90.0
  0
LINE
  5
555A
  8
247
  6
CONTINUOUS
 10
-93.384614729068801
 20
-2.0000000001398459
 30
0.0
 11
-94.244850886310815
 21
-5.0000000000197931
 31
0.0
  0
LINE
  5
555B
  8
247
  6
CONTINUOUS
 10
-92.484983162684614
 20
-3.4230769231596812
 30
0.0
 11
-93.792675470324639
 21
-3.4230769231596812
 31
0.0
  0
ARC
  5
555C
  8
247
  6
CONTINUOUS
 10
-92.145143160438579
 20
-2.549598667702651
 30
0.0
 40
0.5538165441895349
 50
342.9978896752952
 51
82.924166218513577
  0
ARC
  5
555D
  8
247
  6
CONTINUOUS
 10
-92.566877667377582
 20
-2.436033044465614
 30
0.0
 40
0.9904354236226808
 50
274.74293685219902
 51
343.84922627326682
1001
GENIUS_GENOBJ-N-FIL_13
1002
{
1000
OWNER
1000
GEN
1002
}
1001
GENIUS_GENODEF_13
1002
{
1000
HIER
1070
     0
1002
}
1002
{
1000
MANEDIT
1070
     0
1002
}
1002
{
1000
NOSEL
1070
     0
1002
}
1002
{
1000
BEHIND
1070
     0
1002
}
1002
{
1000
OTHER
1070
     0
1002
}
1002
{
1000
REACTOR
1002
}
  0
LINE
  5
555E
  8
247
  6
CONTINUOUS
 10
-92.93715857867079
 20
-5.0000000000197931
 30
0.0
 11
-94.244850886310815
 21
-5.0000000000197931
 31
0.0
  0
LINE
  5
555F
  8
247
  6
CONTINUOUS
 10
-93.384614729068801
 20
-2.0000000001398459
 30
0.0
 11
-92.076922421428776
 21
-2.0000000001398459
 31
0.0
  0
ARC
  5
5560
  8
247
  6
CONTINUOUS
 10
-92.560918980895735
 20
-3.9820242326652648
 30
0.0
 40
0.5640818586791229
 50
335.9909416525216
 51
82.263443459069066
  0
ARC
  5
5561
  8
247
  6
CONTINUOUS
 10
-93.038262029695829
 20
-3.987429039186293
 30
0.0
 40
1.0176059446230981
 50
275.70198516425648
 51
347.27733843682199
1001
GENIUS_GENOBJ-N-FIL_13
1002
{
1000
OWNER
1000
GEN
1002
}
1001
GENIUS_GENODEF_13
1002
{
1000
HIER
1070
     0
1002
}
1002
{
1000
MANEDIT
1070
     0
1002
}
1002
{
1000
NOSEL
1070
     0
1002
}
1002
{
1000
BEHIND
1070
     0
1002
}
1002
{
1000
OTHER
1070
     0
1002
}
1002
{
1000
REACTOR
1002
}
  0
LINE
  5
5562
  8
247
  6
CONTINUOUS
 10
-91.283312424890823
 20
-5.0000000000197931
 30
0.0
 11
-90.423076267648796
 21
-2.0000000001398459
 31
0.0
  0
LINE
  5
5563
  8
247
  6
CONTINUOUS
 10
-87.999999344668822
 20
-2.0000000001398459
 30
0.0
 11
-88.565735963805423
 21
-2.0000000001398459
 31
0.0
  0
LINE
  5
5564
  8
247
  6
CONTINUOUS
 10
-89.461537806148783
 20
-5.0000000000197931
 30
0.0
 11
-88.846153190788797
 21
-5.0000000000197931
 31
0.0
  0
ARC
  5
5565
  8
247
  6
CONTINUOUS
 10
-87.708790553471644
 20
-4.0832851359731528
 30
0.0
 40
2.2526500823422122
 50
112.3594881415293
 51
164.9932485428464
  0
ARC
  5
5566
  8
247
  6
CONTINUOUS
 10
-88.374068823562027
 20
-2.8083126551944249
 30
0.0
 40
0.8906723995727782
 50
4.9945893190753248
 51
65.166328957300522
1001
GENIUS_GENOBJ-N-FIL_13
1002
{
1000
OWNER
1000
GEN
1002
}
1001
GENIUS_GENODEF_13
1002
{
1000
HIER
1070
     0
1002
}
1002
{
1000
MANEDIT
1070
     0
1002
}
1002
{
1000
NOSEL
1070
     0
1002
}
1002
{
1000
BEHIND
1070
     0
1002
}
1002
{
1000
OTHER
1070
     0
1002
}
1002
{
1000
REACTOR
1002
}
  0
ARC
  5
5567
  8
247
  6
CONTINUOUS
 10
-89.226458230561377
 20
-3.6601458886675688
 30
0.0
 40
1.392781735586712
 50
285.84609655578072
 51
352.3251370041624
  0
ARC
  5
5568
  8
247
  6
CONTINUOUS
 10
-88.642212070189146
 20
-3.9592434315270681
 30
0.0
 40
1.324563662670287
 50
159.71360167048999
 51
231.78874565641439
1001
GENIUS_GENOBJ-N-FIL_13
1002
{
1000
OWNER
1000
GEN
1002
}
1001
GENIUS_GENODEF_13
1002
{
1000
HIER
1070
     0
1002
}
1002
{
1000
MANEDIT
1070
     0
1002
}
1002
{
1000
NOSEL
1070
     0
1002
}
1002
{
1000
BEHIND
1070
     0
1002
}
1002
{
1000
OTHER
1070
     0
1002
}
1002
{
1000
REACTOR
1002
}
  0
LINE
  5
5569
  8
247
  6
CONTINUOUS
 10
-88.538460883108769
 20
-3.8461538462197611
 30
0.0
 11
-87.846153190828772
 21
-3.8461538462197611
 31
0.0
  0
LINE
  5
556A
  8
247
  6
CONTINUOUS
 10
-94.249999344418825
 20
-2.0000000001398459
 30
0.0
 11
-93.576922421368863
 21
-2.0000000001398459
 31
0.0
  0
LINE
  5
5593
  8
250
  6
CONTINUOUS
 10
-3.5087761177317569
 20
-10.500000000000201
 30
0.0
 11
15.348893161883449
 21
-10.500000000000281
 31
0.0
  0
LINE
  5
5594
  8
250
  6
CONTINUOUS
 10
13.97722649521679
 20
-8.2700000000002731
 30
0.0
 11
14.348893161883449
 21
-10.50000000000027
 31
0.0
  0
LINE
  5
5595
  8
250
  6
CONTINUOUS
 10
14.720559828550121
 20
-8.2700000000002785
 30
0.0
 11
14.348893161883449
 21
-10.50000000000027
 31
0.0
  0
LINE
  5
5596
  8
250
  6
CONTINUOUS
 10
14.348893161883449
 20
-10.50000000000027
 30
0.0
 11
14.34889316188346
 21
-8.2700000000002767
 31
0.0
  0
LINE
  5
5680
  8
241
  6
CONTINUOUS
 10
-3.865863991825961
 20
10.464992052353979
 30
0.0
 11
-2.180161217808497
 21
8.7792892783356091
 31
0.0
  0
ARC
  5
5681
  8
241
  6
CONTINUOUS
 10
-0.2000000000033288
 20
6.5162853480565843
 30
0.0
 40
0.2
 50
359.99999999999432
 51
45.000000000000291
  0
ARC
  5
5682
  8
241
  6
CONTINUOUS
 10
-8.2145706961239
 20
6.5162853480557308
 30
0.0
 40
0.2
 50
135.00000000000171
 51
155.1131123984421
  0
ARC
  5
5683
  8
241
  6
CONTINUOUS
 10
-4.4072853480632546
 20
10.32357069611669
 30
0.0
 40
0.2
 50
89.999999999995111
 51
135.00000000000171
  0
LINE
  5
5684
  8
241
  6
CONTINUOUS
 10
-4.407285348063227
 20
10.523570696116691
 30
0.0
 11
-4.0072853480632631
 21
10.52357069611663
 31
0.0
  0
ARC
  5
5685
  8
241
  6
CONTINUOUS
 10
-4.0072853480632782
 20
10.32357069611666
 30
0.0
 40
0.2
 50
45.000000000000291
 51
90.000000000000398
  0
LINE
  5
5686
  8
241
  6
CONTINUOUS
 10
-0.0000000000000006
 20
6.5162853480565701
 30
0.0
 11
-0.0000000000032976
 21
6.1162853480566213
 31
0.0
  0
ARC
  5
5687
  8
241
  6
CONTINUOUS
 10
-0.2000000000033146
 20
6.1162853480566488
 30
0.0
 40
0.2
 50
314.9999999999925
 51
359.99999999999432
  0
LINE
  5
568D
  8
241
  6
CONTINUOUS
 10
-1.040003063725202
 20
7.6391311242510787
 30
0.0
 11
-0.0585786437660125
 21
6.6577067042938998
 31
0.0
  0
ARC
  5
568E
  8
241
  6
CONTINUOUS
 10
-1.1801612178047951
 20
8.6391311242553002
 30
0.0
 40
1.0
 50
180.0
 51
269.99999999999392
  0
LINE
  5
568F
  8
241
  6
CONTINUOUS
 10
-1.040003063725202
 20
7.6391311242510787
 30
0.0
 11
-1.1801612178048939
 21
7.6391311242549591
 31
0.0
  0
LINE
  5
5690
  8
241
  6
CONTINUOUS
 10
-2.1801612178046672
 20
8.6391311242553002
 30
0.0
 11
-2.180161217808497
 21
8.7792892783356091
 31
0.0
  0
LINE
  5
5691
  8
241
  6
CONTINUOUS
 10
-8.3559920523618842
 20
6.6577067042946387
 30
0.0
 11
-6.6702892783435184
 21
8.3434094783121111
 31
0.0
  0
LINE
  5
5692
  8
241
  6
CONTINUOUS
 10
-5.530131124258987
 20
9.4835676323954061
 30
0.0
 11
-4.5487067043018081
 21
10.464992052354599
 31
0.0
  0
ARC
  5
5693
  8
241
  6
CONTINUOUS
 10
-6.5301311242632067
 20
9.3434094783158042
 30
0.0
 40
1.0
 50
270.0
 51
359.99999999999352
  0
LINE
  5
5694
  8
241
  6
CONTINUOUS
 10
-5.530131124258987
 20
9.4835676323954061
 30
0.0
 11
-5.5301311242628657
 21
9.3434094783157207
 31
0.0
  0
LINE
  5
5695
  8
241
  6
CONTINUOUS
 10
-6.5301311242632067
 20
8.343409478315948
 30
0.0
 11
-6.6702892783435184
 21
8.3434094783121111
 31
0.0
  0
LINE
  5
569B
  8
241
  6
CONTINUOUS
 10
-0.0585786437666378
 20
5.9748639918180251
 30
0.0
 11
-0.4751943866745215
 21
5.5582482489103668
 31
0.0
  0
CIRCLE
  5
56A6
  8
241
  6
CONTINUOUS
 10
-4.2072853480636363
 20
6.3162853480569652
 30
0.0
 40
1.5
  0
LINE
  5
56AB
  8
241
  6
CONTINUOUS
 10
-3.8658639918260058
 20
-10.46499205235396
 30
0.0
 11
-2.1801612178085339
 21
-8.779289278335602
 31
0.0
  0
ARC
  5
56AC
  8
241
  6
CONTINUOUS
 10
-0.2000000000033566
 20
-6.5162853480565834
 30
0.0
 40
0.2
 50
314.99999999999949
 51
0.000000000005469
  0
ARC
  5
56AD
  8
241
  6
CONTINUOUS
 10
-4.407285348063299
 20
-10.32357069611667
 30
0.0
 40
0.2
 50
224.99999999999801
 51
270.0000000000046
  0
LINE
  5
56AE
  8
241
  6
CONTINUOUS
 10
-4.4072853480632723
 20
-10.52357069611667
 30
0.0
 11
-4.0072853480633093
 21
-10.523570696116609
 31
0.0
  0
ARC
  5
56AF
  8
241
  6
CONTINUOUS
 10
-4.0072853480633217
 20
-10.32357069611664
 30
0.0
 40
0.2
 50
269.99999999999937
 51
314.99999999999949
  0
LINE
  5
56B0
  8
241
  6
CONTINUOUS
 10
-0.0000000000000285
 20
-6.5162853480565701
 30
0.0
 11
-0.0000000000033237
 21
-6.1162853480566213
 31
0.0
  0
ARC
  5
56B1
  8
241
  6
CONTINUOUS
 10
-0.2000000000033407
 20
-6.1162853480566479
 30
0.0
 40
0.2
 50
0.000000000005469
 51
45.00000000000724
  0
LINE
  5
56B2
  8
241
  6
CONTINUOUS
 10
-1.040003063725234
 20
-7.6391311242510751
 30
0.0
 11
-0.0585786437660409
 21
-6.6577067042938998
 31
0.0
  0
ARC
  5
56B3
  8
241
  6
CONTINUOUS
 10
-1.180161217804832
 20
-8.6391311242552948
 30
0.0
 40
1.0
 50
90.000000000005869
 51
179.9999999999998
  0
LINE
  5
56B4
  8
241
  6
CONTINUOUS
 10
-1.040003063725234
 20
-7.6391311242510751
 30
0.0
 11
-1.180161217804927
 21
-7.6391311242549529
 31
0.0
  0
LINE
  5
56B5
  8
241
  6
CONTINUOUS
 10
-2.1801612178047041
 20
-8.6391311242552913
 30
0.0
 11
-2.1801612178085339
 21
-8.779289278335602
 31
0.0
  0
LINE
  5
56B6
  8
241
  6
CONTINUOUS
 10
-7.6299326382193096
 20
-7.3837661184368271
 30
0.0
 11
-6.670289278343553
 21
-8.3434094783120827
 31
0.0
  0
LINE
  5
56B7
  8
241
  6
CONTINUOUS
 10
-5.530131124259027
 20
-9.483567632395383
 30
0.0
 11
-4.5487067043018516
 21
-10.46499205235458
 31
0.0
  0
ARC
  5
56B8
  8
241
  6
CONTINUOUS
 10
-6.5301311242632467
 20
-9.3434094783157775
 30
0.0
 40
1.0
 50
0.0000000000062832
 51
89.999999999999758
  0
LINE
  5
56B9
  8
241
  6
CONTINUOUS
 10
-5.530131124259027
 20
-9.483567632395383
 30
0.0
 11
-5.5301311242629057
 21
-9.3434094783156976
 31
0.0
  0
LINE
  5
56BA
  8
241
  6
CONTINUOUS
 10
-6.5301311242632432
 20
-8.3434094783159196
 30
0.0
 11
-6.670289278343553
 21
-8.3434094783120827
 31
0.0
  0
LINE
  5
56BB
  8
241
  6
CONTINUOUS
 10
-0.0585786437666633
 20
-5.9748639918180251
 30
0.0
 11
-0.3000000142492354
 21
-5.7334426213355822
 31
0.0
  0
VIEWPORT
  5
22
 67
     1
  8
0
 10
261.51769911504419
 20
148.5
 30
0.0
 40
523.0353982300885
 41
297.0
 68
     1
 69
     1
1001
ACAD
1000
MVIEW
1002
{
1070
    16
1010
0.0
1020
0.0
1030
0.0
1010
0.0
1020
0.0
1030
1.0
1040
0.0
1040
297.0
1040
261.51769911504419
1040
148.5
1040
50.0
1040
0.0
1040
0.0
1070
     0
1070
   100
1070
     1
1070
     1
1070
     0
1070
     0
1070
     0
1070
     0
1040
0.0
1040
0.0
1040
0.0
1040
1.0
1040
1.0
1040
10.0
1040
10.0
1070
     0
1002
{
1002
}
1002
}
1001
GENIUS_GENODEF_13
1002
{
1000
HIER
1070
     0
1002
}
1002
{
1000
MANEDIT
1070
     0
1002
}
1002
{
1000
NOSEL
1070
     0
1002
}
1002
{
1000
BEHIND
1070
     0
1002
}
1002
{
1000
OTHER
1070
     0
1002
}
1002
{
1000
REACTOR
1002
}
1001
GENIUS_GENOBJ-N-SDF_13
1002
{
1000
OWNER
1000
GEN
1002
}
1001
GENIUS_GENSCREG_15
1000
PF
1040
1.0
1000
DF
1040
1.0
1000
MIN
1011
0.0
1021
0.0
1031
0.0
1021
0.0
1031
0.0
1000
MAX
1011
523.0353982300885
1021
0.0
1031
0.0
1021
297.0
1031
0.0
1000
FLAGS
1070
     4
  0
ENDSEC
  0
EOF
