  0
SECTION
  2
HEADER
  9
$ACADVER
  1
AC1009
  9
$INSBASE
 10
0.0
 20
0.0
 30
0.0
  9
$EXTMIN
 10
-4.0712973667993992
 20
-19.792037001546159
 30
0.0
  9
$EXTMAX
 10
224.00000000000011
 20
47.0
 30
0.0
  9
$LIMMIN
 10
0.0
 20
0.0
  9
$LIMMAX
 10
297.0
 20
210.0
  9
$ORTHOMODE
 70
     0
  9
$REGENMODE
 70
     1
  9
$FILLMODE
 70
     1
  9
$QTEXTMODE
 70
     0
  9
$MIRRTEXT
 70
     1
  9
$DRAGMODE
 70
     2
  9
$LTSCALE
 40
10.0
  9
$OSMODE
 70
    32
  9
$ATTMODE
 70
     1
  9
$TEXTSIZE
 40
3.0
  9
$TRACEWID
 40
1.0
  9
$TEXTSTYLE
  7
YOKO
  9
$CLAYER
  8
240
  9
$CELTYPE
  6
BYLAYER
  9
$CECOLOR
 62
   256
  9
$DIMSCALE
 40
1.0
  9
$DIMASZ
 40
2.2299999999999991
  9
$DIMEXO
 40
0.5
  9
$DIMDLI
 40
7.0
  9
$DIMRND
 40
0.0
  9
$DIMDLE
 40
0.0
  9
$DIMEXE
 40
1.0
  9
$DIMTP
 40
0.0
  9
$DIMTM
 40
0.01
  9
$DIMTXT
 40
2.7999999999999989
  9
$DIMCEN
 40
0.0
  9
$DIMTSZ
 40
0.0
  9
$DIMTOL
 70
     0
  9
$DIMLIM
 70
     0
  9
$DIMTIH
 70
     0
  9
$DIMTOH
 70
     0
  9
$DIMSE1
 70
     0
  9
$DIMSE2
 70
     0
  9
$DIMTAD
 70
     3
  9
$DIMZIN
 70
     9
  9
$DIMBLK
  1
OPEN
  9
$DIMASO
 70
     1
  9
$DIMSHO
 70
     1
  9
$DIMPOST
  1

  9
$DIMAPOST
  1

  9
$DIMALT
 70
     0
  9
$DIMALTD
 70
     2
  9
$DIMALTF
 40
25.399999999999999
  9
$DIMLFAC
 40
1.0
  9
$DIMTOFL
 70
     1
  9
$DIMTVP
 40
0.0
  9
$DIMTIX
 70
     1
  9
$DIMSOXD
 70
     0
  9
$DIMSAH
 70
     0
  9
$DIMBLK1
  1

  9
$DIMBLK2
  1

  9
$DIMSTYLE
  2
BIGT
  9
$DIMCLRD
 70
   256
  9
$DIMCLRE
 70
   256
  9
$DIMCLRT
 70
    40
  9
$DIMTFAC
 40
1.0
  9
$DIMGAP
 40
1.0
  9
$LUNITS
 70
     2
  9
$LUPREC
 70
     6
  9
$SKETCHINC
 40
1.0
  9
$FILLETRAD
 40
0.0
  9
$AUNITS
 70
     0
  9
$AUPREC
 70
     6
  9
$MENU
  1
.
  9
$ELEVATION
 40
0.0
  9
$PELEVATION
 40
0.0
  9
$THICKNESS
 40
0.0
  9
$LIMCHECK
 70
     0
  9
$BLIPMODE
 70
     0
  9
$CHAMFERA
 40
0.2
  9
$CHAMFERB
 40
0.2
  9
$SKPOLY
 70
     0
  9
$TDCREATE
 40
2457476.6286453241
  9
$TDUPDATE
 40
2457476.64852397
  9
$TDINDWG
 40
0.0173110301
  9
$TDUSRTIMER
 40
0.0173109954
  9
$USRTIMER
 70
     1
  9
$ANGBASE
 50
0.0
  9
$ANGDIR
 70
     0
  9
$PDMODE
 70
     1
  9
$PDSIZE
 40
0.0
  9
$PLINEWID
 40
0.0
  9
$COORDS
 70
     1
  9
$SPLFRAME
 70
     0
  9
$SPLINETYPE
 70
     6
  9
$SPLINESEGS
 70
     4
  9
$ATTDIA
 70
     1
  9
$ATTREQ
 70
     1
  9
$HANDLING
 70
     1
  9
$HANDSEED
  5
457F
  9
$SURFTAB1
 70
     6
  9
$SURFTAB2
 70
     6
  9
$SURFTYPE
 70
     6
  9
$SURFU
 70
     6
  9
$SURFV
 70
     6
  9
$UCSNAME
  2

  9
$UCSORG
 10
0.0
 20
0.0
 30
0.0
  9
$UCSXDIR
 10
1.0
 20
0.0
 30
0.0
  9
$UCSYDIR
 10
0.0
 20
1.0
 30
0.0
  9
$PUCSNAME
  2

  9
$PUCSORG
 10
0.0
 20
0.0
 30
0.0
  9
$PUCSXDIR
 10
1.0
 20
0.0
 30
0.0
  9
$PUCSYDIR
 10
0.0
 20
1.0
 30
0.0
  9
$USERI1
 70
     1
  9
$USERI2
 70
     0
  9
$USERI3
 70
     0
  9
$USERI4
 70
     0
  9
$USERI5
 70
     0
  9
$USERR1
 40
0.0
  9
$USERR2
 40
0.0
  9
$USERR3
 40
0.0
  9
$USERR4
 40
0.0
  9
$USERR5
 40
0.0
  9
$WORLDVIEW
 70
     1
  9
$SHADEDGE
 70
     3
  9
$SHADEDIF
 70
    70
  9
$TILEMODE
 70
     1
  9
$MAXACTVP
 70
    16
  9
$PLIMCHECK
 70
     0
  9
$PEXTMIN
 10
1.0000000000000000E+020
 20
1.0000000000000000E+020
 30
1.0000000000000000E+020
  9
$PEXTMAX
 10
-1.0000000000000000E+020
 20
-1.0000000000000000E+020
 30
-1.0000000000000000E+020
  9
$PLIMMIN
 10
0.0
 20
0.0
  9
$PLIMMAX
 10
420.0
 20
297.0
  9
$UNITMODE
 70
     0
  9
$VISRETAIN
 70
     1
  9
$PLINEGEN
 70
     0
  9
$PSLTSCALE
 70
     1
  0
ENDSEC
  0
SECTION
  2
TABLES
  0
TABLE
  2
VPORT
 70
     1
  0
VPORT
  2
*ACTIVE
 70
     0
 10
0.0
 20
0.0
 11
1.0
 21
1.0
 12
109.9565283565974
 22
16.353165418148158
 13
0.0
 23
0.0
 14
7.0
 24
7.0
 15
7.0
 25
7.0
 16
0.0
 26
0.0
 36
1.0
 17
0.0
 27
0.0
 37
0.0
 40
186.00984918865581
 41
1.3673469387755099
 42
50.0
 43
0.0
 44
0.0
 50
0.0
 51
0.0
 71
     0
 72
  2000
 73
     1
 74
     0
 75
     0
 76
     1
 77
     0
 78
     0
  0
ENDTAB
  0
TABLE
  2
LTYPE
 70
    16
  0
LTYPE
  2
CONTINUOUS
 70
     0
  3
Solid line
 72
    65
 73
     0
 40
0.0
  0
LTYPE
  2
CENTER2
 70
     0
  3
___ _ ___ _ ___ _ ___ _ ___ _ ___ _ ___ _ ___ _
 72
    65
 73
     4
 40
1.125
 49
0.75
 49
-0.125
 49
0.125
 49
-0.125
  0
LTYPE
  2
HIDDEN2
 70
     0
  3
_ _ _ _ _ _ _ _ _ _ _ _ _ _ _ _ _ _ _ _ _ _ _ _
 72
    65
 73
     2
 40
0.1875
 49
0.125
 49
-0.0625
  0
LTYPE
  2
PHANTOM2
 70
     0
  3
___ _ _ ___ _ _ ___ _ _ ___ _ _ ___ _ _ ___ _ _
 72
    65
 73
     6
 40
1.25
 49
0.625
 49
-0.125
 49
0.125
 49
-0.125
 49
0.125
 49
-0.125
  0
LTYPE
  2
AM_ISO02W050
 70
     0
  3
__ __ __ __ __ __ __ __ __ __ __ __ __ __ __
 72
    65
 73
     2
 40
7.5
 49
6.0
 49
-1.5
  0
LTYPE
  2
AMCONSTR
 70
     0
  3
_______________________
 72
    65
 73
     2
 40
9999.0
 49
9999.0
 49
0.0
  0
LTYPE
  2
ACISOWELD
 70
     0
  3
_ _ _ _ _
 72
    65
 73
     2
 40
2.0
 49
2.0
 49
-1.0
  0
LTYPE
  2
ACISOTGB
 70
     0
  3
__ . . __ . .
 72
    65
 73
     6
 40
9.0
 49
4.0
 49
-1.0
 49
1.0
 49
-1.0
 49
1.0
 49
-1.0
  0
LTYPE
  2
ACISOTGL
 70
     0
  3
_ _ _ _ _
 72
    65
 73
     2
 40
3.0
 49
2.0
 49
-1.0
  0
LTYPE
  2
ACJISTGB
 70
     0
  3
__ . . __ . .
 72
    65
 73
     6
 40
9.0
 49
4.0
 49
-1.0
 49
1.0
 49
-1.0
 49
1.0
 49
-1.0
  0
LTYPE
  2
ACJISTGL
 70
     0
  3
_ _ _ _ _
 72
    65
 73
     2
 40
3.0
 49
2.0
 49
-1.0
  0
ENDTAB
  0
TABLE
  2
LAYER
 70
     8
  0
LAYER
  2
0
 70
     0
 62
     7
  6
CONTINUOUS
  0
LAYER
  2
DEFPOINTS
 70
     0
 62
     7
  6
CONTINUOUS
  0
LAYER
  2
245
 70
     0
 62
     2
  6
CENTER2
  0
LAYER
  2
240
 70
     0
 62
     4
  6
CONTINUOUS
  0
LAYER
  2
241
 70
     0
 62
   211
  6
CONTINUOUS
  0
LAYER
  2
243
 70
     0
 62
   211
  6
HIDDEN2
  0
LAYER
  2
247
 70
     0
 62
    60
  6
CONTINUOUS
  0
LAYER
  2
250
 70
     0
 62
     3
  6
CONTINUOUS
  0
ENDTAB
  0
TABLE
  2
STYLE
 70
     7
  0
STYLE
  2
STANDARD
 70
     0
 40
0.0
 41
1.0
 50
0.0
 71
     0
 42
3.0
  3
romans.shx
  4
extfont.shx
  0
STYLE
  2
ACISOTS
 70
     0
 40
1.0
 41
1.0
 50
0.0
 71
     0
 42
3.0
  3
amgdt.shx
  4
extfont.shx
  0
STYLE
  2
ACISOGDT
 70
     0
 40
0.0
 41
1.0
 50
0.0
 71
     0
 42
3.0
  3
amgdt.shx
  4
extfont.shx
  0
STYLE
  2
ACJISTS
 70
     0
 40
1.0
 41
1.0
 50
0.0
 71
     0
 42
3.0
  3
amgdt.shx
  4
extfont.shx
  0
STYLE
  2
ACJISGDT
 70
     0
 40
0.0
 41
1.0
 50
0.0
 71
     0
 42
3.0
  3
amgdt.shx
  4
extfont.shx
  0
STYLE
  2
YOKO
 70
     0
 40
0.0
 41
1.0
 50
0.0
 71
     0
 42
3.0
  3
romans.shx
  4
extfont.shx
  0
ENDTAB
  0
TABLE
  2
VIEW
 70
     0
  0
ENDTAB
  0
TABLE
  2
UCS
 70
     0
  0
ENDTAB
  0
TABLE
  2
APPID
 70
    35
  0
APPID
  2
ACAD
 70
     0
  0
APPID
  2
GLOBAL
 70
     0
  0
APPID
  2
DETAIL
 70
     0
  0
APPID
  2
GRPNAME
 70
     0
  0
APPID
  2
GPARA
 70
     0
  0
APPID
  2
MCAD_NO_VIS
 70
     0
  0
APPID
  2
ACAD_TEMP_GRAPHIC
 70
     0
  0
APPID
  2
ACATTRIBSERVICES
 70
     0
  0
APPID
  2
GENIUS_GENSCREG_15
 70
     0
  0
APPID
  2
GENIUS_GENODEF_13
 70
     0
  0
APPID
  2
GENIUS_GENOBJ-N-SDF_13
 70
     0
  0
APPID
  2
GENIUS_GENREC_14
 70
     0
  0
APPID
  2
GENIUS_GENOBJ-N-REC_13
 70
     0
  0
APPID
  2
GENIUS_GENDIMSH_14
 70
     0
  0
APPID
  2
GENIUS_GENOBJ-N-DIM_13
 70
     0
  0
APPID
  2
GENIUS_GENDIM_13
 70
     0
  0
APPID
  2
GENIUS_GENDTOL_13
 70
     0
  0
APPID
  2
GENIUS_GENOLIS_13
 70
     0
  0
APPID
  2
GENIUS_GENOENT_13
 70
     0
  0
APPID
  2
GENIUS_GENOBJ-F-FEM_13
 70
     0
  0
APPID
  2
GENIUS_GENOREF_13
 70
     0
  0
APPID
  2
GENIUS_GEFFEM_13
 70
     0
  0
APPID
  2
GENIUS_GEFFEMP_13
 70
     0
  0
APPID
  2
AD_DRAW
 70
     0
  0
APPID
  2
DESIGNERASSEMBLIES
 70
     0
  0
APPID
  2
ACADM_DIM_EDIT
 70
     0
  0
APPID
  2
AMDT_DM_ADJ
 70
     0
  0
APPID
  2
ITEMNAME
 70
     0
  0
APPID
  2
GENIUS_GENOBJ-N-FIL_13
 70
     0
  0
APPID
  2
GENIUS_GENFIL_13
 70
     0
  0
APPID
  2
GENIUS_GENOBJ-N-CHA_13
 70
     0
  0
APPID
  2
ACAD_NAV_VCDISPLAY
 70
     0
  0
APPID
  2
ACAECLAYERSTANDARD
 70
     0
  0
APPID
  2
ACAD_DSTYLE_DIMINSPECT
 70
     0
  0
APPID
  2
ACAD_MLEADERVER
 70
     0
  0
ENDTAB
  0
TABLE
  2
DIMSTYLE
 70
    29
  0
DIMSTYLE
  2
BIGT
 70
     0
  3

  4

  5
OPEN
  6

  7

 40
1.0
 41
2.2299999999999991
 42
0.5
 43
7.0
 44
1.0
 45
0.0
 46
0.0
 47
0.0
 48
0.01
140
2.7999999999999989
141
0.0
142
0.0
143
25.399999999999999
144
1.0
145
0.0
146
1.0
147
1.0
 71
     0
 72
     0
 73
     0
 74
     0
 75
     0
 76
     0
 77
     3
 78
     9
170
     0
171
     2
172
     1
173
     0
174
     1
175
     0
176
   256
177
   256
178
    40
  0
DIMSTYLE
  2
AM_ISO
 70
     0
  3

  4
"
  5

  6

  7

 40
1.0
 41
2.5
 42
1.0
 43
10.0
 44
1.0
 45
0.0
 46
0.0
 47
0.1
 48
0.1
140
3.5
141
0.0
142
0.0
143
0.0393701
144
1.0
145
0.0
146
0.71
147
1.5
 71
     0
 72
     0
 73
     0
 74
     0
 75
     0
 76
     0
 77
     1
 78
     8
170
     0
171
     2
172
     1
173
     0
174
     0
175
     0
176
   256
177
   256
178
     2
  0
DIMSTYLE
  2
AM_ISO$3
 70
     0
  3

  4
"
  5

  6

  7

 40
1.0
 41
2.5
 42
1.0
 43
10.0
 44
1.0
 45
0.0
 46
0.0
 47
0.1
 48
0.1
140
3.5
141
0.0
142
0.0
143
0.0393701
144
1.0
145
0.0
146
0.71
147
1.5
 71
     0
 72
     0
 73
     0
 74
     1
 75
     0
 76
     0
 77
     1
 78
     8
170
     0
171
     2
172
     0
173
     0
174
     0
175
     0
176
   256
177
   256
178
     2
  0
DIMSTYLE
  2
AM_ISO$4
 70
     0
  3

  4
"
  5

  6

  7

 40
1.0
 41
2.5
 42
1.0
 43
10.0
 44
1.0
 45
0.0
 46
0.0
 47
0.1
 48
0.1
140
3.5
141
0.0
142
0.0
143
0.0393701
144
1.0
145
0.0
146
0.71
147
1.5
 71
     0
 72
     0
 73
     0
 74
     1
 75
     0
 76
     0
 77
     1
 78
     8
170
     0
171
     2
172
     0
173
     0
174
     0
175
     0
176
   256
177
   256
178
     2
  0
DIMSTYLE
  2
AM_ISO$6
 70
     0
  3

  4
"
  5

  6

  7

 40
1.0
 41
2.5
 42
1.0
 43
10.0
 44
1.0
 45
0.0
 46
0.0
 47
0.1
 48
0.1
140
3.5
141
0.0
142
0.0
143
0.0393701
144
1.0
145
0.0
146
0.71
147
1.5
 71
     0
 72
     0
 73
     0
 74
     0
 75
     0
 76
     0
 77
     0
 78
     8
170
     0
171
     2
172
     1
173
     0
174
     0
175
     0
176
   256
177
   256
178
     2
  0
DIMSTYLE
  2
AM_ISO$7
 70
     0
  3

  4
"
  5

  6

  7

 40
1.0
 41
2.5
 42
1.0
 43
10.0
 44
1.0
 45
0.0
 46
0.0
 47
0.1
 48
0.1
140
5.0
141
0.0
142
0.0
143
0.0393701
144
1.0
145
0.0
146
0.71
147
1.5
 71
     0
 72
     0
 73
     0
 74
     0
 75
     0
 76
     0
 77
     1
 78
     8
170
     0
171
     2
172
     1
173
     0
174
     0
175
     0
176
   256
177
   256
178
     2
  0
DIMSTYLE
  2
AM_ISO$SF
 70
     0
  3

  4
"
  5

  6

  7

 40
1.0
 41
2.5
 42
1.0
 43
10.0
 44
1.0
 45
0.0
 46
0.0
 47
0.1
 48
0.1
140
3.5
141
0.0
142
0.0
143
0.0393701
144
1.0
145
0.0
146
0.71
147
1.5
 71
     0
 72
     0
 73
     0
 74
     0
 75
     1
 76
     1
 77
     1
 78
     8
170
     0
171
     2
172
     1
173
     0
174
     0
175
     0
176
   256
177
   256
178
     2
  0
DIMSTYLE
  2
AM_ISO$SH
 70
     0
  3

  4
"
  5

  6
GENAXEH
  7

 40
1.0
 41
2.5
 42
1.0
 43
10.0
 44
1.0
 45
0.0
 46
0.0
 47
0.1
 48
0.1
140
3.5
141
0.0
142
0.0
143
0.0393701
144
2.0
145
0.0
146
0.71
147
1.5
 71
     0
 72
     0
 73
     0
 74
     0
 75
     1
 76
     1
 77
     1
 78
     8
170
     0
171
     2
172
     1
173
     1
174
     0
175
     0
176
   256
177
   256
178
     2
  0
DIMSTYLE
  2
BIGT$2
 70
     0
  3

  4

  5
OPEN
  6

  7

 40
1.0
 41
2.2299999999999991
 42
0.5
 43
7.0
 44
1.0
 45
0.0
 46
0.0
 47
0.0
 48
0.01
140
2.7999999999999989
141
0.0
142
0.0
143
25.399999999999999
144
1.0
145
0.0
146
1.0
147
1.0
 71
     0
 72
     0
 73
     0
 74
     0
 75
     0
 76
     0
 77
     3
 78
     9
170
     0
171
     2
172
     1
173
     0
174
     0
175
     0
176
   256
177
   256
178
    40
  0
DIMSTYLE
  2
BIGT$3
 70
     0
  3

  4

  5
OPEN
  6

  7

 40
1.0
 41
2.2299999999999991
 42
0.5
 43
2.5
 44
1.0
 45
0.0
 46
0.0
 47
0.0
 48
0.01
140
2.7999999999999989
141
0.0
142
0.0
143
25.399999999999999
144
1.0
145
0.0
146
1.0
147
1.0
 71
     0
 72
     0
 73
     0
 74
     0
 75
     0
 76
     0
 77
     3
 78
     9
170
     0
171
     2
172
     1
173
     0
174
     0
175
     0
176
   256
177
   256
178
    40
  0
DIMSTYLE
  2
BIGT$7
 70
     0
  3

  4

  5
OPEN
  6

  7

 40
0.0
 41
2.2299999999999991
 42
0.5
 43
7.0
 44
1.0
 45
0.0
 46
0.0
 47
0.0
 48
0.01
140
2.7999999999999989
141
0.0
142
0.0
143
25.399999999999999
144
1.0
145
0.0
146
1.0
147
1.0
 71
     0
 72
     0
 73
     0
 74
     0
 75
     0
 76
     0
 77
     3
 78
     9
170
     0
171
     2
172
     0
173
     0
174
     0
175
     0
176
   256
177
   256
178
    40
  0
DIMSTYLE
  2
BIGT$6
 70
     0
  3

  4

  5
OPEN
  6

  7

 40
1.0
 41
2.2299999999999991
 42
0.5
 43
2.5
 44
1.0
 45
0.0
 46
0.0
 47
0.0
 48
0.01
140
2.7999999999999989
141
0.0
142
0.0
143
25.399999999999999
144
1.0
145
0.0
146
1.0
147
1.0
 71
     0
 72
     0
 73
     0
 74
     0
 75
     0
 76
     0
 77
     3
 78
     9
170
     0
171
     2
172
     1
173
     0
174
     0
175
     0
176
   256
177
   256
178
    40
  0
DIMSTYLE
  2
BIGT$0
 70
     0
  3

  4

  5
OPEN
  6

  7

 40
1.0
 41
2.2299999999999991
 42
0.5
 43
7.0
 44
1.0
 45
0.0
 46
0.0
 47
0.0
 48
0.01
140
2.7999999999999989
141
0.0
142
0.0
143
25.399999999999999
144
1.0
145
0.0
146
1.0
147
1.0
 71
     0
 72
     0
 73
     0
 74
     0
 75
     0
 76
     0
 77
     3
 78
     9
170
     0
171
     2
172
     1
173
     0
174
     1
175
     0
176
   256
177
   256
178
    40
  0
DIMSTYLE
  2
BIGT$4
 70
     0
  3

  4

  5
OPEN
  6

  7

 40
1.0
 41
2.2299999999999991
 42
0.5
 43
2.5
 44
1.0
 45
0.0
 46
0.0
 47
0.0
 48
0.01
140
2.7999999999999989
141
0.0
142
0.0
143
25.399999999999999
144
1.0
145
0.0
146
1.0
147
1.0
 71
     0
 72
     0
 73
     0
 74
     0
 75
     0
 76
     0
 77
     3
 78
     9
170
     0
171
     2
172
     1
173
     0
174
     0
175
     0
176
   256
177
   256
178
    40
  0
DIMSTYLE
  2
BIGT$SH
 70
     0
  3

  4

  5
OPEN
  6

  7

 40
1.0
 41
2.2299999999999991
 42
0.5
 43
7.0
 44
1.0
 45
0.0
 46
0.0
 47
0.0
 48
0.0
140
2.7999999999999989
141
0.0
142
0.0
143
25.399999999999999
144
1.0
145
0.0
146
1.0
147
1.0
 71
     0
 72
     0
 73
     0
 74
     0
 75
     0
 76
     0
 77
     3
 78
     9
170
     0
171
     2
172
     1
173
     0
174
     0
175
     0
176
   256
177
   256
178
    40
  0
DIMSTYLE
  2
BIGT$SF
 70
     0
  3

  4

  5
OPEN
  6

  7

 40
1.0
 41
2.2299999999999991
 42
0.5
 43
7.0
 44
1.0
 45
0.0
 46
0.0
 47
0.0
 48
0.0
140
2.7999999999999989
141
0.0
142
0.0
143
25.399999999999999
144
1.0
145
0.0
146
1.0
147
1.0
 71
     0
 72
     0
 73
     0
 74
     0
 75
     0
 76
     0
 77
     3
 78
     9
170
     0
171
     2
172
     1
173
     0
174
     0
175
     0
176
   256
177
   256
178
    40
  0
DIMSTYLE
  2
TECHNICAL_OSAKA
 70
     0
  3

  4
"
  5
OPEN30
  6

  7

 40
1.0
 41
2.5
 42
1.0
 43
10.0
 44
1.0
 45
0.0
 46
0.0
 47
0.1
 48
0.1
140
2.7999999999999989
141
0.0
142
0.0
143
0.0393701
144
1.0
145
0.0
146
0.71
147
1.5
 71
     0
 72
     0
 73
     0
 74
     0
 75
     0
 76
     0
 77
     3
 78
     8
170
     0
171
     2
172
     1
173
     0
174
     0
175
     0
176
   256
177
   256
178
    40
  0
DIMSTYLE
  2
TECHNICAL_OSAKA$3
 70
     0
  3

  4
"
  5
OPEN30
  6

  7

 40
1.0
 41
2.5
 42
1.0
 43
10.0
 44
1.0
 45
0.0
 46
0.0
 47
0.1
 48
0.1
140
2.7999999999999989
141
0.0
142
0.0
143
0.0393701
144
1.0
145
0.0
146
0.71
147
1.5
 71
     0
 72
     0
 73
     0
 74
     1
 75
     0
 76
     0
 77
     3
 78
     8
170
     0
171
     2
172
     0
173
     0
174
     0
175
     0
176
   256
177
   256
178
    40
  0
DIMSTYLE
  2
TECHNICAL_OSAKA$4
 70
     0
  3

  4
"
  5
OPEN30
  6

  7

 40
1.0
 41
2.5
 42
1.0
 43
10.0
 44
1.0
 45
0.0
 46
0.0
 47
0.1
 48
0.1
140
2.7999999999999989
141
0.0
142
0.0
143
0.0393701
144
1.0
145
0.0
146
0.71
147
1.5
 71
     0
 72
     0
 73
     0
 74
     1
 75
     0
 76
     0
 77
     3
 78
     8
170
     0
171
     2
172
     0
173
     0
174
     0
175
     0
176
   256
177
   256
178
    40
  0
DIMSTYLE
  2
TECHNICAL_OSAKA$6
 70
     0
  3

  4
"
  5
OPEN30
  6

  7

 40
1.0
 41
2.5
 42
1.0
 43
10.0
 44
1.0
 45
0.0
 46
0.0
 47
0.1
 48
0.1
140
2.7999999999999989
141
0.0
142
0.0
143
0.0393701
144
1.0
145
0.0
146
0.71
147
1.5
 71
     0
 72
     0
 73
     0
 74
     0
 75
     0
 76
     0
 77
     0
 78
     8
170
     0
171
     2
172
     1
173
     0
174
     0
175
     0
176
   256
177
   256
178
    40
  0
DIMSTYLE
  2
TECHNICAL_OSAKA$7
 70
     0
  3

  4
"
  5
OPEN30
  6

  7

 40
1.0
 41
2.5
 42
1.0
 43
10.0
 44
1.0
 45
0.0
 46
0.0
 47
0.1
 48
0.1
140
2.7999999999999989
141
0.0
142
0.0
143
0.0393701
144
1.0
145
0.0
146
0.71
147
1.5
 71
     0
 72
     0
 73
     0
 74
     0
 75
     0
 76
     0
 77
     3
 78
     8
170
     0
171
     2
172
     1
173
     0
174
     0
175
     0
176
   256
177
   256
178
    40
  0
DIMSTYLE
  2
TECHNICAL_OSAKA$SF
 70
     0
  3

  4
"
  5
OPEN30
  6
OPEN30
  7
OPEN30
 40
1.0
 41
2.5
 42
1.0
 43
10.0
 44
1.0
 45
0.0
 46
0.0
 47
0.1
 48
0.1
140
3.5
141
0.0
142
0.0
143
0.0393701
144
1.0
145
0.0
146
0.71
147
1.5
 71
     0
 72
     0
 73
     0
 74
     0
 75
     1
 76
     1
 77
     3
 78
     8
170
     0
171
     2
172
     1
173
     0
174
     0
175
     0
176
   256
177
   256
178
    40
  0
DIMSTYLE
  2
TECHNICAL_OSAKA$SH
 70
     0
  3

  4
"
  5
OPEN30
  6
GENAXEH
  7
OPEN30
 40
1.0
 41
2.5
 42
1.0
 43
10.0
 44
1.0
 45
0.0
 46
0.0
 47
0.1
 48
0.1
140
3.5
141
0.0
142
0.0
143
0.0393701
144
2.0
145
0.0
146
0.71
147
1.5
 71
     0
 72
     0
 73
     0
 74
     0
 75
     1
 76
     1
 77
     3
 78
     8
170
     0
171
     2
172
     1
173
     1
174
     0
175
     0
176
   256
177
   256
178
    40
  0
ENDTAB
  0
ENDSEC
  0
SECTION
  2
BLOCKS
  0
BLOCK
  8
0
  2
$MODEL_SPACE
 70
     0
 10
0.0
 20
0.0
 30
0.0
  3
$MODEL_SPACE
  1

  0
ENDBLK
  5
1C
  8
0
  0
BLOCK
 67
     1
  8
0
  2
$PAPER_SPACE
 70
     0
 10
0.0
 20
0.0
 30
0.0
  3
$PAPER_SPACE
  1

  0
ENDBLK
  5
19
 67
     1
  8
0
  0
BLOCK
  8
0
  2
_OPEN
 70
     0
 10
0.0
 20
0.0
 30
0.0
  3
_OPEN
  1

  0
LINE
  5
4486
  8
0
  6
BYBLOCK
 62
     0
 10
-1.0
 20
0.1666666666666666
 30
0.0
 11
0.0
 21
0.0
 31
0.0
  0
LINE
  5
4487
  8
0
  6
BYBLOCK
 62
     0
 10
-1.0
 20
-0.1666666666666666
 30
0.0
 11
0.0
 21
0.0
 31
0.0
  0
LINE
  5
4488
  8
0
  6
BYBLOCK
 62
     0
 10
0.0
 20
0.0
 30
0.0
 11
-1.0
 21
0.0
 31
0.0
  0
ENDBLK
  5
4489
  8
0
  0
BLOCK
  8
0
  2
GENAXEH
 70
     0
 10
0.0
 20
0.0
 30
0.0
  3
GENAXEH
  1

  0
LINE
  5
44C1
  8
0
 10
-1.0
 20
0.0
 30
0.0
 11
1.0
 21
0.0
 31
0.0
  0
ENDBLK
  5
44C2
  8
0
  0
BLOCK
  8
0
  2
_OPEN30
 70
     0
 10
0.0
 20
0.0
 30
0.0
  3
_OPEN30
  1

  0
LINE
  5
44FD
  8
0
  6
BYBLOCK
 62
     0
 10
-1.0
 20
0.26794919
 30
0.0
 11
0.0
 21
0.0
 31
0.0
  0
LINE
  5
44FE
  8
0
  6
BYBLOCK
 62
     0
 10
0.0
 20
0.0
 30
0.0
 11
-1.0
 21
-0.26794919
 31
0.0
  0
LINE
  5
44FF
  8
0
  6
BYBLOCK
 62
     0
 10
0.0
 20
0.0
 30
0.0
 11
-1.0
 21
0.0
 31
0.0
  0
ENDBLK
  5
4500
  8
0
  0
BLOCK
  8
0
  2
*U4
 70
     1
 10
0.0
 20
0.0
 30
0.0
  3
*U4
  1

  0
TEXT
  5
42E0
  8
250
 10
15.0
 20
-12.299999999999979
 30
0.0
 40
3.0
  1
max.\U+03C68.05
 50
90.0
  0
ENDBLK
  5
42E1
  8
0
  0
BLOCK
  8
0
  2
*U5
 70
     1
 10
0.0
 20
0.0
 30
0.0
  3
*U5
  1

  0
TEXT
  5
42E4
  8
250
 10
22.0
 20
-4.2142857142857073
 30
0.0
 40
3.0
  1
\U+220518
 50
90.0
  0
ENDBLK
  5
42E5
  8
0
  0
ENDSEC
  0
SECTION
  2
ENTITIES
  0
LINE
  5
4263
  8
245
  6
CENTER2
 10
-2.0000000000002842
 20
-0.0000000000000009
 30
0.0
 11
201.35786007177981
 21
0.0000000000000275
 31
0.0
  0
LINE
  5
4264
  8
240
  6
CONTINUOUS
 10
-0.0000000000000334
 20
-8.0000000000000018
 30
0.0
 11
178.39999999999779
 21
-7.9999999999999707
 31
0.0
  0
LINE
  5
4265
  8
240
  6
CONTINUOUS
 10
-0.0000000000000334
 20
-8.0000000000000018
 30
0.0
 11
0.0000000000000568
 21
7.9999999999999929
 31
0.0
  0
LINE
  5
4266
  8
240
  6
CONTINUOUS
 10
0.0000000000000325
 20
7.9999999999999929
 30
0.0
 11
178.40000000000509
 21
8.0000000000000568
 31
0.0
  0
LINE
  5
4269
  8
240
  6
CONTINUOUS
 10
181.50000000000011
 20
8.0500000000009528
 30
0.0
 11
180.39999999999861
 21
8.0500000000016581
 31
0.0
  0
LINE
  5
4275
  8
240
  6
CONTINUOUS
 10
178.7464101615127
 20
7.7999999999997538
 30
0.0
 11
179.96698729810319
 21
7.7999999999999527
 31
0.0
  0
LINE
  5
4276
  8
240
  6
CONTINUOUS
 10
178.7464101615127
 20
7.7999999999997538
 30
0.0
 11
178.39999999999841
 21
7.9999999999998277
 31
0.0
  0
LINE
  5
4277
  8
240
  6
CONTINUOUS
 10
180.39999999999861
 20
8.050000000001944
 30
0.0
 11
179.96698729810319
 21
7.7999999999999527
 31
0.0
  0
LINE
  5
4278
  8
240
  6
CONTINUOUS
 10
178.7464101615127
 20
-7.7999999999997831
 30
0.0
 11
179.96698729810331
 21
-7.8000000000000078
 31
0.0
  0
LINE
  5
4279
  8
240
  6
CONTINUOUS
 10
178.7464101615127
 20
-7.7999999999997831
 30
0.0
 11
178.3999999999977
 21
-8.0000000000000284
 31
0.0
  0
LINE
  5
427A
  8
240
  6
CONTINUOUS
 10
180.39999999999861
 20
-8.0500000000007468
 30
0.0
 11
179.96698729810331
 21
-7.8000000000000078
 31
0.0
  0
LINE
  5
427B
  8
241
  6
CONTINUOUS
 10
178.3999999999977
 20
-8.0000000000000284
 30
0.0
 11
178.3999999999977
 21
7.9999999999989901
 31
0.0
  0
LINE
  5
427C
  8
241
  6
CONTINUOUS
 10
180.39999999999861
 20
8.0500000000022265
 30
0.0
 11
180.3999999999987
 21
-8.0500000000022851
 31
0.0
  0
LINE
  5
42A1
  8
240
  6
CONTINUOUS
 10
181.5000000000002
 20
-8.0500000000042338
 30
0.0
 11
180.40000000001189
 21
-8.0500000000067722
 31
0.0
  0
TEXT
  5
42A6
  8
241
  6
CONTINUOUS
 10
0.0000000000000568
 20
42.0
 30
0.0
 40
5.0
  1
ST16-MEGA8S-200
  7
YOKO
 11
0.0000000000000568
 21
42.0
 31
0.0
 73
     1
  0
LINE
  5
42A7
  8
250
  6
CONTINUOUS
 10
0.0000000000000568
 20
8.4999999999999911
 30
0.0
 11
0.0000000000000568
 21
29.000000000000028
 31
0.0
  0
LINE
  5
42A8
  8
250
  6
CONTINUOUS
 10
200.00000000000011
 20
9.4999999999990266
 30
0.0
 11
200.00000000000011
 21
29.000000000000028
 31
0.0
  0
LINE
  5
42A9
  8
250
  6
CONTINUOUS
 10
2.2299999999999609
 20
28.000000000000028
 30
0.0
 11
197.7700000000001
 21
28.000000000000028
 31
0.0
  0
LINE
  5
42AD
  8
250
  6
CONTINUOUS
 10
-4.0712973667993992
 20
-19.792037001546159
 30
0.0
 11
8.0620359665339834
 21
-19.792037001546159
 31
0.0
  0
LINE
  5
42AE
  8
250
  6
CONTINUOUS
 10
8.0620359665339834
 20
-19.792037001546159
 30
0.0
 11
14.724432977788471
 21
-9.8523737671853766
 31
0.0
  0
LINE
  5
42AF
  8
250
  6
CONTINUOUS
 10
14.724432977788471
 20
-9.8523737671853766
 30
0.0
 11
15.966049434929539
 21
-8.0
 31
0.0
  0
LINE
  5
42B0
  8
250
  6
CONTINUOUS
 10
14.96830260961573
 20
-10.015835674084281
 30
0.0
 11
15.966049434929539
 21
-8.0
 31
0.0
  0
LINE
  5
42B1
  8
250
  6
CONTINUOUS
 10
15.966049434929539
 20
-8.0
 30
0.0
 11
14.48056334596126
 21
-9.6889118602864652
 31
0.0
  0
TEXT
  5
42C2
  8
250
  6
CONTINUOUS
 10
87.80000000000004
 20
29.000000000000028
 30
0.0
 40
2.799999999999998
  1
200
  0
LINE
  5
42C3
  8
250
  6
CONTINUOUS
 10
197.7700000000001
 20
28.37166666666668
 30
0.0
 11
200.00000000000011
 21
28.000000000000028
 31
0.0
  0
LINE
  5
42C4
  8
250
  6
CONTINUOUS
 10
197.7700000000001
 20
27.628333333333359
 30
0.0
 11
200.00000000000011
 21
28.000000000000028
 31
0.0
  0
LINE
  5
42C5
  8
250
  6
CONTINUOUS
 10
200.00000000000011
 20
28.000000000000028
 30
0.0
 11
197.7700000000001
 21
28.000000000000028
 31
0.0
  0
LINE
  5
42C6
  8
250
  6
CONTINUOUS
 10
2.2299999999999609
 20
27.628333333333359
 30
0.0
 11
0.0000000000000568
 21
28.000000000000028
 31
0.0
  0
LINE
  5
42C7
  8
250
  6
CONTINUOUS
 10
2.2299999999999609
 20
28.37166666666668
 30
0.0
 11
0.0000000000000568
 21
28.000000000000028
 31
0.0
  0
LINE
  5
42C8
  8
250
  6
CONTINUOUS
 10
0.0000000000000568
 20
28.000000000000028
 30
0.0
 11
2.2299999999999609
 21
28.000000000000028
 31
0.0
  0
TEXT
  5
42D0
  8
250
  6
CONTINUOUS
 10
-4.4712973667993188
 20
-18.392037001546161
 30
0.0
 40
2.799999999999998
  1
ST16
  7
YOKO
  0
LINE
  5
431A
  8
240
  6
CONTINUOUS
 10
200.0000000000002
 20
-8.9999999999989733
 30
0.0
 11
200.0
 21
8.9999999999990266
 31
0.0
  0
LINE
  5
431B
  8
240
  6
CONTINUOUS
 10
181.50000000000031
 20
-9.1499999999989452
 30
0.0
 11
181.50000000000011
 21
-8.0500000000014147
 31
0.0
  0
LINE
  5
431C
  8
240
  6
CONTINUOUS
 10
200.0000000000002
 20
-8.9999999999989733
 30
0.0
 11
183.75980762113559
 21
-8.9999999999989484
 31
0.0
  0
LINE
  5
431D
  8
241
  6
CONTINUOUS
 10
183.50000000000011
 20
-9.1499999999989772
 30
0.0
 11
183.50000000000011
 21
9.1499999999991033
 31
0.0
  0
LINE
  5
431E
  8
240
  6
CONTINUOUS
 10
183.50000000000011
 20
-9.149999999999018
 30
0.0
 11
181.50000000000031
 21
-9.1499999999989452
 31
0.0
  0
LINE
  5
431F
  8
241
  6
CONTINUOUS
 10
181.50000000000011
 20
-8.0500000000014005
 30
0.0
 11
181.50000000000011
 21
8.0500000000014893
 31
0.0
  0
LINE
  5
4320
  8
240
  6
CONTINUOUS
 10
183.75980762113559
 20
-8.9999999999989484
 30
0.0
 11
183.50000000000011
 21
-9.149999999999018
 31
0.0
  0
LINE
  5
4321
  8
240
  6
CONTINUOUS
 10
181.50000000000031
 20
9.1499999999990003
 30
0.0
 11
181.50000000000011
 21
8.0500000000014467
 31
0.0
  0
LINE
  5
4322
  8
240
  6
CONTINUOUS
 10
183.50000000000011
 20
9.1499999999990678
 30
0.0
 11
181.50000000000031
 21
9.1499999999990003
 31
0.0
  0
LINE
  5
4323
  8
240
  6
CONTINUOUS
 10
200.0
 20
8.9999999999990266
 30
0.0
 11
183.75980762113559
 21
8.9999999999989981
 31
0.0
  0
LINE
  5
4324
  8
240
  6
CONTINUOUS
 10
183.75980762113559
 20
8.9999999999989981
 30
0.0
 11
183.50000000000011
 21
9.1499999999990678
 31
0.0
  0
LINE
  5
4325
  8
243
  6
HIDDEN2
 10
171.19999999999999
 20
4.950000000000025
 30
0.0
 11
171.19999999999999
 21
-4.9499999999999647
 31
0.0
  0
LINE
  5
4326
  8
243
  6
HIDDEN2
 10
180.38430043045349
 20
4.9500000000000837
 30
0.0
 11
171.19999999999999
 21
4.950000000000025
 31
0.0
  0
LINE
  5
4327
  8
243
  6
HIDDEN2
 10
196.20042843897511
 20
5.7000000000004087
 30
0.0
 11
196.00288358321751
 21
6.0421577269474698
 31
0.0
  0
LINE
  5
4328
  8
243
  6
HIDDEN2
 10
180.38430043045349
 20
-4.9500000000000384
 30
0.0
 11
171.19999999999999
 21
-4.9499999999999647
 31
0.0
  0
LINE
  5
4329
  8
243
  6
HIDDEN2
 10
171.19999999999999
 20
4.0000000000000329
 30
0.0
 11
198.2000000000001
 21
4.000000000000008
 31
0.0
  0
LINE
  5
432A
  8
243
  6
HIDDEN2
 10
180.38430043045349
 20
4.9500000000000837
 30
0.0
 11
196.00288358321751
 21
6.0421577269474698
 31
0.0
  0
LINE
  5
432B
  8
243
  6
HIDDEN2
 10
196.002883583217
 20
-6.0421577269474041
 30
0.0
 11
180.38430043045349
 21
-4.9500000000000384
 31
0.0
  0
LINE
  5
432C
  8
243
  6
HIDDEN2
 10
197.7499999999996
 20
6.2500000000002398
 30
0.0
 11
197.3000000000003
 21
6.250000000000095
 31
0.0
  0
LINE
  5
432D
  8
243
  6
HIDDEN2
 10
196.83849520285281
 20
5.7000000000001583
 30
0.0
 11
196.20042843897511
 21
5.7000000000004087
 31
0.0
  0
LINE
  5
432E
  8
243
  6
HIDDEN2
 10
198.19999999999999
 20
5.8000000000005389
 30
0.0
 11
197.7499999999996
 21
6.2500000000002398
 31
0.0
  0
LINE
  5
432F
  8
243
  6
HIDDEN2
 10
196.20042843897579
 20
-5.7000000000004087
 30
0.0
 11
196.002883583217
 21
-6.0421577269474041
 31
0.0
  0
LINE
  5
4330
  8
243
  6
HIDDEN2
 10
196.8384952028527
 20
-5.7000000000000037
 30
0.0
 11
196.20042843897579
 21
-5.7000000000004087
 31
0.0
  0
LINE
  5
4331
  8
243
  6
HIDDEN2
 10
198.2000000000001
 20
-5.7999999999999403
 30
0.0
 11
197.74999999999989
 21
-6.2500000000000888
 31
0.0
  0
LINE
  5
4332
  8
243
  6
HIDDEN2
 10
198.2000000000001
 20
-5.7999999999999403
 30
0.0
 11
198.19999999999999
 21
5.8000000000005389
 31
0.0
  0
LINE
  5
4333
  8
243
  6
HIDDEN2
 10
197.3000000000003
 20
6.250000000000095
 30
0.0
 11
196.83849520285281
 21
5.7000000000001583
 31
0.0
  0
LINE
  5
4334
  8
243
  6
HIDDEN2
 10
197.74999999999989
 20
-6.2500000000000888
 30
0.0
 11
197.3000000000003
 21
-6.25000000000004
 31
0.0
  0
LINE
  5
4335
  8
243
  6
HIDDEN2
 10
197.3000000000003
 20
-6.25000000000004
 30
0.0
 11
196.8384952028527
 21
-5.7000000000000037
 31
0.0
  0
LINE
  5
4336
  8
243
  6
HIDDEN2
 10
171.19999999999999
 20
-3.9999999999999778
 30
0.0
 11
198.2000000000001
 21
-3.9999999999999529
 31
0.0
  0
LINE
  5
4337
  8
250
  6
CONTINUOUS
 10
198.7000000000001
 20
-3.9999999999999529
 30
0.0
 11
217.00000000000011
 21
-3.9999999999999569
 31
0.0
  0
LINE
  5
4338
  8
250
  6
CONTINUOUS
 10
198.69999999999999
 20
4.000000000000008
 30
0.0
 11
217.00000000000011
 21
4.0000000000000027
 31
0.0
  0
LINE
  5
4339
  8
250
  6
CONTINUOUS
 10
216.00000000000011
 20
-1.7699999999999561
 30
0.0
 11
216.00000000000011
 21
1.7700000000000049
 31
0.0
  0
INSERT
  5
433A
  8
250
  6
CONTINUOUS
  2
_OPEN
 10
216.00000000000011
 20
-3.9999999999999569
 30
0.0
 41
2.2299999999999991
 42
2.2299999999999991
 43
2.2299999999999991
 50
270.0
  0
INSERT
  5
433B
  8
250
  6
CONTINUOUS
  2
_OPEN
 10
216.00000000000011
 20
4.0000000000000027
 30
0.0
 41
2.2299999999999991
 42
2.2299999999999991
 43
2.2299999999999991
 50
90.0
  0
INSERT
  5
433C
  8
250
  6
CONTINUOUS
  2
*U4
 10
200.00000000000011
 20
0.0000000000000275
 30
0.0
  0
LINE
  5
433D
  8
250
  6
CONTINUOUS
 10
200.5000000000002
 20
-8.9999999999989733
 30
0.0
 11
224.00000000000011
 21
-8.9999999999989804
 31
0.0
  0
LINE
  5
433E
  8
250
  6
CONTINUOUS
 10
200.5
 20
8.9999999999990266
 30
0.0
 11
224.00000000000011
 21
8.9999999999990195
 31
0.0
  0
LINE
  5
433F
  8
250
  6
CONTINUOUS
 10
223.00000000000011
 20
-6.7699999999989844
 30
0.0
 11
223.00000000000011
 21
6.769999999999019
 31
0.0
  0
INSERT
  5
4340
  8
250
  6
CONTINUOUS
  2
_OPEN
 10
223.00000000000011
 20
-8.9999999999989804
 30
0.0
 41
2.2299999999999991
 42
2.2299999999999991
 43
2.2299999999999991
 50
270.0
  0
INSERT
  5
4341
  8
250
  6
CONTINUOUS
  2
_OPEN
 10
223.00000000000011
 20
8.9999999999990195
 30
0.0
 41
2.2299999999999991
 42
2.2299999999999991
 43
2.2299999999999991
 50
90.0
  0
INSERT
  5
4342
  8
250
  6
CONTINUOUS
  2
*U5
 10
200.00000000000011
 20
0.0000000000000275
 30
0.0
  0
LINE
  5
4364
  8
247
  6
CONTINUOUS
 10
6.7499999999299796
 20
-5.5
 30
0.0
 11
13.44230769196998
 21
-5.5
 31
0.0
  0
ARC
  5
4365
  8
247
  6
CONTINUOUS
 10
6.7499999999299796
 20
-3.7500000000700311
 30
0.0
 40
1.7499999999299991
 50
90.0
 51
270.0
  0
ARC
  5
4366
  8
247
  6
CONTINUOUS
 10
13.44230769196998
 20
-3.7500000000700311
 30
0.0
 40
1.7499999999299991
 50
270.0
 51
90.0
  0
LINE
  5
4367
  8
247
  6
CONTINUOUS
 10
7.6153846152800044
 20
-2.0000000001400622
 30
0.0
 11
6.7551484580379899
 21
-5.000000000020008
 31
0.0
  0
LINE
  5
4368
  8
247
  6
CONTINUOUS
 10
8.5150161816641923
 20
-3.4230769231598961
 30
0.0
 11
7.2073238740241656
 21
-3.4230769231598961
 31
0.0
  0
ARC
  5
4369
  8
247
  6
CONTINUOUS
 10
8.8548561839102273
 20
-2.5495986677028659
 30
0.0
 40
0.5538165441895349
 50
342.99788967529531
 51
82.924166218513577
  0
ARC
  5
436A
  8
247
  6
CONTINUOUS
 10
8.4331216769712238
 20
-2.4360330444658298
 30
0.0
 40
0.9904354236226808
 50
274.74293685219902
 51
343.84922627326682
1001
GENIUS_GENOBJ-N-FIL_13
1002
{
1000
OWNER
1000
GEN
1002
}
1001
GENIUS_GENODEF_13
1002
{
1000
HIER
1070
     0
1002
}
1002
{
1000
MANEDIT
1070
     0
1002
}
1002
{
1000
NOSEL
1070
     0
1002
}
1002
{
1000
BEHIND
1070
     0
1002
}
1002
{
1000
OTHER
1070
     0
1002
}
1002
{
1000
REACTOR
1002
}
  0
LINE
  5
436B
  8
247
  6
CONTINUOUS
 10
8.0628407656780166
 20
-5.000000000020008
 30
0.0
 11
6.7551484580379899
 21
-5.000000000020008
 31
0.0
  0
LINE
  5
436C
  8
247
  6
CONTINUOUS
 10
7.6153846152800044
 20
-2.0000000001400622
 30
0.0
 11
8.9230769229200302
 21
-2.0000000001400622
 31
0.0
  0
ARC
  5
436D
  8
247
  6
CONTINUOUS
 10
8.4390803634530709
 20
-3.9820242326654798
 30
0.0
 40
0.5640818586791229
 50
335.9909416525216
 51
82.263443459069109
  0
ARC
  5
436E
  8
247
  6
CONTINUOUS
 10
7.9617373146529751
 20
-3.9874290391865079
 30
0.0
 40
1.0176059446230981
 50
275.70198516425648
 51
347.27733843682199
1001
GENIUS_GENOBJ-N-FIL_13
1002
{
1000
OWNER
1000
GEN
1002
}
1001
GENIUS_GENODEF_13
1002
{
1000
HIER
1070
     0
1002
}
1002
{
1000
MANEDIT
1070
     0
1002
}
1002
{
1000
NOSEL
1070
     0
1002
}
1002
{
1000
BEHIND
1070
     0
1002
}
1002
{
1000
OTHER
1070
     0
1002
}
1002
{
1000
REACTOR
1002
}
  0
LINE
  5
436F
  8
247
  6
CONTINUOUS
 10
9.7166869194579828
 20
-5.000000000020008
 30
0.0
 11
10.576923076699989
 21
-2.0000000001400622
 31
0.0
  0
LINE
  5
4370
  8
247
  6
CONTINUOUS
 10
12.99999999967998
 20
-2.0000000001400622
 30
0.0
 11
12.43426338054338
 21
-2.0000000001400622
 31
0.0
  0
LINE
  5
4371
  8
247
  6
CONTINUOUS
 10
11.53846153820002
 20
-5.000000000020008
 30
0.0
 11
12.153846153559989
 21
-5.000000000020008
 31
0.0
  0
ARC
  5
4372
  8
247
  6
CONTINUOUS
 10
13.29120879087715
 20
-4.0832851359733686
 30
0.0
 40
2.2526500823422122
 50
112.3594881415295
 51
164.99324854284649
  0
ARC
  5
4373
  8
247
  6
CONTINUOUS
 10
12.625930520786779
 20
-2.8083126551946398
 30
0.0
 40
0.8906723995727782
 50
4.9945893190753123
 51
65.166328957300664
1001
GENIUS_GENOBJ-N-FIL_13
1002
{
1000
OWNER
1000
GEN
1002
}
1001
GENIUS_GENODEF_13
1002
{
1000
HIER
1070
     0
1002
}
1002
{
1000
MANEDIT
1070
     0
1002
}
1002
{
1000
NOSEL
1070
     0
1002
}
1002
{
1000
BEHIND
1070
     0
1002
}
1002
{
1000
OTHER
1070
     0
1002
}
1002
{
1000
REACTOR
1002
}
  0
ARC
  5
4374
  8
247
  6
CONTINUOUS
 10
11.773541113787431
 20
-3.6601458886677838
 30
0.0
 40
1.392781735586712
 50
285.84609655578072
 51
352.3251370041624
  0
ARC
  5
4375
  8
247
  6
CONTINUOUS
 10
12.35778727415966
 20
-3.9592434315272831
 30
0.0
 40
1.324563662670287
 50
159.71360167049011
 51
231.78874565641459
1001
GENIUS_GENOBJ-N-FIL_13
1002
{
1000
OWNER
1000
GEN
1002
}
1001
GENIUS_GENODEF_13
1002
{
1000
HIER
1070
     0
1002
}
1002
{
1000
MANEDIT
1070
     0
1002
}
1002
{
1000
NOSEL
1070
     0
1002
}
1002
{
1000
BEHIND
1070
     0
1002
}
1002
{
1000
OTHER
1070
     0
1002
}
1002
{
1000
REACTOR
1002
}
  0
LINE
  5
4376
  8
247
  6
CONTINUOUS
 10
12.461538461240041
 20
-3.846153846219976
 30
0.0
 11
13.15384615352003
 21
-3.846153846219976
 31
0.0
  0
LINE
  5
4377
  8
247
  6
CONTINUOUS
 10
6.7499999999299796
 20
-2.0000000001400622
 30
0.0
 11
7.4230769229799423
 21
-2.0000000001400622
 31
0.0
  0
LINE
  5
43D4
  8
250
  6
CONTINUOUS
 10
200.0
 20
9.4999999999990266
 30
0.0
 11
200.0
 21
22.0
 31
0.0
  0
LINE
  5
43D5
  8
250
  6
CONTINUOUS
 10
128.0
 20
4.0000000000000329
 30
0.0
 11
128.0
 21
22.0
 31
0.0
  0
LINE
  5
43D6
  8
250
  6
CONTINUOUS
 10
197.77000000000001
 20
21.0
 30
0.0
 11
130.2299999999999
 21
21.0
 31
0.0
  0
TEXT
  5
43DA
  8
250
  6
CONTINUOUS
 10
154.40000000000001
 20
23.199999999999999
 30
0.0
 40
2.7999999999999989
  1
(max.72)
  0
LINE
  5
43DB
  8
250
  6
CONTINUOUS
 10
130.2299999999999
 20
20.62833333333333
 30
0.0
 11
128.0
 21
21.0
 31
0.0
  0
LINE
  5
43DC
  8
250
  6
CONTINUOUS
 10
130.2299999999999
 20
21.37166666666667
 30
0.0
 11
128.0
 21
21.0
 31
0.0
  0
LINE
  5
43DD
  8
250
  6
CONTINUOUS
 10
128.0
 20
21.0
 30
0.0
 11
130.2299999999999
 21
21.0
 31
0.0
  0
LINE
  5
43DE
  8
250
  6
CONTINUOUS
 10
197.77000000000001
 20
21.37166666666667
 30
0.0
 11
200.0
 21
21.0
 31
0.0
  0
LINE
  5
43DF
  8
250
  6
CONTINUOUS
 10
197.77000000000001
 20
20.62833333333333
 30
0.0
 11
200.0
 21
21.0
 31
0.0
  0
LINE
  5
43E0
  8
250
  6
CONTINUOUS
 10
200.0
 20
21.0
 30
0.0
 11
197.77000000000001
 21
21.0
 31
0.0
  0
VIEWPORT
  5
22
 67
     1
  8
0
 10
261.51769911504419
 20
148.5
 30
0.0
 40
523.0353982300885
 41
297.0
 68
     1
 69
     1
1001
ACAD
1000
MVIEW
1002
{
1070
    16
1010
0.0
1020
0.0
1030
0.0
1010
0.0
1020
0.0
1030
1.0
1040
0.0
1040
297.0
1040
261.51769911504419
1040
148.5
1040
50.0
1040
0.0
1040
0.0
1070
     0
1070
   100
1070
     1
1070
     1
1070
     0
1070
     0
1070
     0
1070
     0
1040
0.0
1040
0.0
1040
0.0
1040
1.0
1040
1.0
1040
10.0
1040
10.0
1070
     0
1002
{
1002
}
1002
}
1001
GENIUS_GENODEF_13
1002
{
1000
HIER
1070
     0
1002
}
1002
{
1000
MANEDIT
1070
     0
1002
}
1002
{
1000
NOSEL
1070
     0
1002
}
1002
{
1000
BEHIND
1070
     0
1002
}
1002
{
1000
OTHER
1070
     0
1002
}
1002
{
1000
REACTOR
1002
}
1001
GENIUS_GENOBJ-N-SDF_13
1002
{
1000
OWNER
1000
GEN
1002
}
1001
GENIUS_GENSCREG_15
1000
PF
1040
1.0
1000
DF
1040
1.0
1000
MIN
1011
0.0
1021
0.0
1031
0.0
1021
0.0
1031
0.0
1000
MAX
1011
523.0353982300885
1021
0.0
1031
0.0
1021
297.0
1031
0.0
1000
FLAGS
1070
     4
  0
ENDSEC
  0
EOF
