  0
SECTION
  2
HEADER
  9
$ACADVER
  1
AC1009
  9
$INSBASE
 10
0.0
 20
0.0
 30
0.0
  9
$EXTMIN
 10
-14.313252773011531
 20
-18.026649513582921
 30
-0.0015258207003583
  9
$EXTMAX
 10
102.5188544013524
 20
50.518011808362992
 30
0.0000000349246037
  9
$LIMMIN
 10
0.0
 20
0.0
  9
$LIMMAX
 10
420.0
 20
297.0
  9
$ORTHOMODE
 70
     1
  9
$REGENMODE
 70
     1
  9
$FILLMODE
 70
     1
  9
$QTEXTMODE
 70
     0
  9
$MIRRTEXT
 70
     1
  9
$DRAGMODE
 70
     2
  9
$LTSCALE
 40
10.0
  9
$OSMODE
 70
    39
  9
$ATTMODE
 70
     1
  9
$TEXTSIZE
 40
3.0
  9
$TRACEWID
 40
1.0
  9
$TEXTSTYLE
  7
YOKO
  9
$CLAYER
  8
240
  9
$CELTYPE
  6
BYLAYER
  9
$CECOLOR
 62
   256
  9
$DIMSCALE
 40
1.0
  9
$DIMASZ
 40
2.0
  9
$DIMEXO
 40
2.0
  9
$DIMDLI
 40
2.5
  9
$DIMRND
 40
0.0
  9
$DIMDLE
 40
0.0
  9
$DIMEXE
 40
2.0
  9
$DIMTP
 40
0.0
  9
$DIMTM
 40
0.0
  9
$DIMTXT
 40
4.0
  9
$DIMCEN
 40
0.0
  9
$DIMTSZ
 40
0.0
  9
$DIMTOL
 70
     0
  9
$DIMLIM
 70
     0
  9
$DIMTIH
 70
     0
  9
$DIMTOH
 70
     0
  9
$DIMSE1
 70
     0
  9
$DIMSE2
 70
     0
  9
$DIMTAD
 70
     3
  9
$DIMZIN
 70
     8
  9
$DIMBLK
  1

  9
$DIMASO
 70
     1
  9
$DIMSHO
 70
     1
  9
$DIMPOST
  1

  9
$DIMAPOST
  1

  9
$DIMALT
 70
     0
  9
$DIMALTD
 70
     2
  9
$DIMALTF
 40
25.399999999999999
  9
$DIMLFAC
 40
1.0
  9
$DIMTOFL
 70
     1
  9
$DIMTVP
 40
0.0
  9
$DIMTIX
 70
     1
  9
$DIMSOXD
 70
     0
  9
$DIMSAH
 70
     1
  9
$DIMBLK1
  1
OPEN
  9
$DIMBLK2
  1
OPEN
  9
$DIMSTYLE
  2
BIGT
  9
$DIMCLRD
 70
   256
  9
$DIMCLRE
 70
   256
  9
$DIMCLRT
 70
    40
  9
$DIMTFAC
 40
1.0
  9
$DIMGAP
 40
1.0
  9
$LUNITS
 70
     2
  9
$LUPREC
 70
     3
  9
$SKETCHINC
 40
1.0
  9
$FILLETRAD
 40
0.0
  9
$AUNITS
 70
     0
  9
$AUPREC
 70
     3
  9
$MENU
  1
.
  9
$ELEVATION
 40
0.0
  9
$PELEVATION
 40
0.0
  9
$THICKNESS
 40
0.0
  9
$LIMCHECK
 70
     0
  9
$BLIPMODE
 70
     0
  9
$CHAMFERA
 40
10.0
  9
$CHAMFERB
 40
10.0
  9
$SKPOLY
 70
     0
  9
$TDCREATE
 40
2454999.490501482
  9
$TDUPDATE
 40
2456091.6915264819
  9
$TDINDWG
 40
0.0302306944
  9
$TDUSRTIMER
 40
0.0302306944
  9
$USRTIMER
 70
     1
  9
$ANGBASE
 50
0.0
  9
$ANGDIR
 70
     0
  9
$PDMODE
 70
     1
  9
$PDSIZE
 40
-5.0
  9
$PLINEWID
 40
0.0
  9
$COORDS
 70
     0
  9
$SPLFRAME
 70
     0
  9
$SPLINETYPE
 70
     6
  9
$SPLINESEGS
 70
     8
  9
$ATTDIA
 70
     1
  9
$ATTREQ
 70
     1
  9
$HANDLING
 70
     1
  9
$HANDSEED
  5
195F
  9
$SURFTAB1
 70
     6
  9
$SURFTAB2
 70
     6
  9
$SURFTYPE
 70
     6
  9
$SURFU
 70
     6
  9
$SURFV
 70
     6
  9
$UCSNAME
  2

  9
$UCSORG
 10
0.0
 20
0.0
 30
0.0
  9
$UCSXDIR
 10
1.0
 20
0.0
 30
0.0
  9
$UCSYDIR
 10
0.0
 20
1.0
 30
0.0
  9
$PUCSNAME
  2

  9
$PUCSORG
 10
0.0
 20
0.0
 30
0.0
  9
$PUCSXDIR
 10
1.0
 20
0.0
 30
0.0
  9
$PUCSYDIR
 10
0.0
 20
1.0
 30
0.0
  9
$USERI1
 70
     1
  9
$USERI2
 70
     0
  9
$USERI3
 70
     0
  9
$USERI4
 70
     0
  9
$USERI5
 70
     0
  9
$USERR1
 40
0.0
  9
$USERR2
 40
0.0
  9
$USERR3
 40
0.0
  9
$USERR4
 40
0.0
  9
$USERR5
 40
0.0
  9
$WORLDVIEW
 70
     1
  9
$SHADEDGE
 70
     3
  9
$SHADEDIF
 70
    70
  9
$TILEMODE
 70
     1
  9
$MAXACTVP
 70
    16
  9
$PLIMCHECK
 70
     0
  9
$PEXTMIN
 10
1.0000000000000000E+020
 20
1.0000000000000000E+020
 30
1.0000000000000000E+020
  9
$PEXTMAX
 10
-1.0000000000000000E+020
 20
-1.0000000000000000E+020
 30
-1.0000000000000000E+020
  9
$PLIMMIN
 10
0.0
 20
0.0
  9
$PLIMMAX
 10
420.0
 20
297.0
  9
$UNITMODE
 70
     0
  9
$VISRETAIN
 70
     0
  9
$PLINEGEN
 70
     0
  9
$PSLTSCALE
 70
     1
  0
ENDSEC
  0
SECTION
  2
TABLES
  0
TABLE
  2
VPORT
 70
   113
  0
VPORT
  2
*ACTIVE
 70
     0
 10
0.0
 20
0.0
 11
1.0
 21
1.0
 12
44.102800814170443
 22
16.24568114739003
 13
0.0
 23
0.0
 14
7.0
 24
7.0
 15
7.0
 25
7.0
 16
0.0
 26
0.0
 36
1.0
 17
0.0
 27
0.0
 37
0.0
 40
80.644701605855985
 41
1.4552401746724879
 42
50.0
 43
0.0
 44
0.0
 50
0.0
 51
0.0
 71
     0
 72
  2000
 73
     1
 74
     0
 75
     0
 76
     0
 77
     0
 78
     0
  0
ENDTAB
  0
TABLE
  2
LTYPE
 70
    16
  0
LTYPE
  2
CONTINUOUS
 70
     0
  3
Solid line
 72
    65
 73
     0
 40
0.0
  0
LTYPE
  2
CENTER2
 70
     0
  3
___ _ ___ _ ___ _ ___ _ ___ _ ___ _ ___ _ ___ _
 72
    65
 73
     4
 40
1.125
 49
0.75
 49
-0.125
 49
0.125
 49
-0.125
  0
LTYPE
  2
PHANTOM2
 70
     0
  3
___ _ _ ___ _ _ ___ _ _ ___ _ _ ___ _ _ ___ _ _
 72
    65
 73
     6
 40
1.25
 49
0.625
 49
-0.125
 49
0.125
 49
-0.125
 49
0.125
 49
-0.125
  0
LTYPE
  2
HIDDEN2
 70
     0
  3
_ _ _ _ _ _ _ _ _ _ _ _ _ _ _ _ _ _ _ _ _ _ _ _
 72
    65
 73
     2
 40
0.1875
 49
0.125
 49
-0.0625
  0
LTYPE
  2
AMCONSTR
 70
     0
  3
_______________________
 72
    65
 73
     2
 40
9999.0
 49
9999.0
 49
0.0
  0
LTYPE
  2
AM_ISO02W050
 70
     0
  3
__ __ __ __ __ __ __ __ __ __ __ __ __ __ __
 72
    65
 73
     2
 40
7.5
 49
6.0
 49
-1.5
  0
LTYPE
  2
HIDDEN
 70
     0
  3
Hidden __ __ __ __ __ __ __ __ __ __ __ __ __ _
 72
    65
 73
     2
 40
9.5249999999999986
 49
6.3499999999999988
 49
-3.1749999999999989
  0
LTYPE
  2
CENTER
 70
     0
  3
____ _ ____ _ ____ _ ____ _ ____ _ ____ _ ____ 
 72
    65
 73
     4
 40
2.0
 49
1.25
 49
-0.25
 49
0.25
 49
-0.25
  0
LTYPE
  2
ACJISTGB
 70
     0
  3
__ . . __ . .
 72
    65
 73
     6
 40
9.0
 49
4.0
 49
-1.0
 49
1.0
 49
-1.0
 49
1.0
 49
-1.0
  0
LTYPE
  2
ACJISTGL
 70
     0
  3
_ _ _ _ _
 72
    65
 73
     2
 40
3.0
 49
2.0
 49
-1.0
  0
LTYPE
  2
ACISOWELD
 70
     0
  3
_ _ _ _ _
 72
    65
 73
     2
 40
2.0
 49
2.0
 49
-1.0
  0
LTYPE
  2
ACISOTGB
 70
     0
  3
__ . . __ . .
 72
    65
 73
     6
 40
9.0
 49
4.0
 49
-1.0
 49
1.0
 49
-1.0
 49
1.0
 49
-1.0
  0
LTYPE
  2
ACISOTGL
 70
     0
  3
_ _ _ _ _
 72
    65
 73
     2
 40
3.0
 49
2.0
 49
-1.0
  0
LTYPE
  2
ACANSTGB
 70
     0
  3
__ . . __ . .
 72
    65
 73
     6
 40
0.35433070866
 49
0.15748031496
 49
-0.03937007874
 49
0.03937007874
 49
-0.03937007874
 49
0.03937007874
 49
-0.03937007874
  0
LTYPE
  2
ACANSTGL
 70
     0
  3
_ _ _ _ _
 72
    65
 73
     2
 40
0.11811023622
 49
0.07874015748
 49
-0.03937007874
  0
LTYPE
  2
AMZIGZAG2
 70
     0
  3
/\/-/\/-/\/-/\/-/\/-/\/
 72
    65
 73
     2
 40
0.4401
 49
0.0001
 49
-0.4400000000000001
  0
ENDTAB
  0
TABLE
  2
LAYER
 70
    12
  0
LAYER
  2
0
 70
     0
 62
     7
  6
CONTINUOUS
  0
LAYER
  2
240
 70
     0
 62
     4
  6
CONTINUOUS
  0
LAYER
  2
241
 70
     0
 62
   211
  6
CONTINUOUS
  0
LAYER
  2
242
 70
     0
 62
     3
  6
CONTINUOUS
  0
LAYER
  2
245
 70
     0
 62
     2
  6
CENTER2
  0
LAYER
  2
250
 70
     0
 62
     3
  6
CONTINUOUS
  0
LAYER
  2
251
 70
     0
 62
    40
  6
CONTINUOUS
  0
LAYER
  2
DEFPOINTS
 70
     0
 62
     7
  6
CONTINUOUS
  0
LAYER
  2
DETAIL
 70
     0
 62
     3
  6
CONTINUOUS
  0
LAYER
  2
AM_CL
 70
     0
 62
   254
  6
AMCONSTR
  0
LAYER
  2
2
 70
     0
 62
     7
  6
CONTINUOUS
  0
LAYER
  2
AM_5
 70
     0
 62
     3
  6
CONTINUOUS
  0
ENDTAB
  0
TABLE
  2
STYLE
 70
     9
  0
STYLE
  2
STANDARD
 70
     0
 40
0.0
 41
1.0
 50
0.0
 71
     0
 42
3.0
  3
romans.shx
  4
BIGFONT.SHX
  0
STYLE
  2
YOKO
 70
     0
 40
0.0
 41
1.0
 50
0.0
 71
     0
 42
3.0
  3
romans.shx
  4
extfont.shx
  0
STYLE
  2
ACJISGDT
 70
     0
 40
0.0
 41
1.0
 50
0.0
 71
     0
 42
3.0
  3
amgdt.shx
  4
extfont.shx
  0
STYLE
  2
ACJISTS
 70
     0
 40
1.0
 41
1.0
 50
0.0
 71
     0
 42
3.0
  3
amgdt.shx
  4
extfont.shx
  0
STYLE
  2
ACISOTS
 70
     0
 40
1.0
 41
1.0
 50
0.0
 71
     0
 42
3.0
  3
amgdt.shx
  4
extfont.shx
  0
STYLE
  2
ACISOGDT
 70
     0
 40
0.0
 41
1.0
 50
0.0
 71
     0
 42
3.0
  3
amgdt.shx
  4
extfont.shx
  0
STYLE
  2
ACANSTS
 70
     0
 40
1.0
 41
1.0
 50
0.0
 71
     0
 42
3.0
  3
romans.shx
  4
extfont.shx
  0
STYLE
  2
ACANSGDT
 70
     0
 40
0.0
 41
1.0
 50
0.0
 71
     0
 42
3.0
  3
amgdtans.shx
  4

  0
STYLE
  2

 70
     1
 40
0.0
 41
1.0
 50
0.0
 71
     0
 42
3.0
  3
ltypeshp.shx
  4

  0
ENDTAB
  0
TABLE
  2
VIEW
 70
     1
  0
VIEW
  2
OLE1
 70
     0
 40
80.676262960000003
 10
44.113001320000002
 20
16.245681149999989
 41
117.46129478
 11
0.0
 21
0.0
 31
1.0
 12
0.0
 22
0.0
 32
0.0
 42
50.0
 43
0.0
 44
0.0
 50
0.0
 71
     0
  0
ENDTAB
  0
TABLE
  2
UCS
 70
     0
  0
ENDTAB
  0
TABLE
  2
APPID
 70
    34
  0
APPID
  2
ACAD
 70
     0
  0
APPID
  2
GLOBAL
 70
     0
  0
APPID
  2
DETAIL
 70
     0
  0
APPID
  2
GRPNAME
 70
     0
  0
APPID
  2
GPARA
 70
     0
  0
APPID
  2
DCO15
 70
     0
  0
APPID
  2
ITEMNAME
 70
     0
  0
APPID
  2
GRADE_0
 70
     0
  0
APPID
  2
HATCH_TYPE
 70
     0
  0
APPID
  2
HATCH_DISPLAY
 70
     0
  0
APPID
  2
HATCH_DISTANCE
 70
     0
  0
APPID
  2
CONTENTBLOCKICON
 70
     0
  0
APPID
  2
MCAD_NO_VIS
 70
     0
  0
APPID
  2
ACAD_TEMP_GRAPHIC
 70
     0
  0
APPID
  2
ACATTRIBSERVICES
 70
     0
  0
APPID
  2
GENIUS_GENSCREG_15
 70
     0
  0
APPID
  2
GENIUS_GENODEF_13
 70
     0
  0
APPID
  2
GENIUS_GENOBJ-N-SDF_13
 70
     0
  0
APPID
  2
GENIUS_GENREC_14
 70
     0
  0
APPID
  2
GENIUS_GENOBJ-N-REC_13
 70
     0
  0
APPID
  2
GENIUS_GENDIMSH_14
 70
     0
  0
APPID
  2
GENIUS_GENOBJ-N-DIM_13
 70
     0
  0
APPID
  2
GENIUS_GENDIM_13
 70
     0
  0
APPID
  2
GENIUS_GENDTOL_13
 70
     0
  0
APPID
  2
GENIUS_GENOLIS_13
 70
     0
  0
APPID
  2
GENIUS_GENOENT_13
 70
     0
  0
APPID
  2
GENIUS_GENOBJ-F-FEM_13
 70
     0
  0
APPID
  2
GENIUS_GENOREF_13
 70
     0
  0
APPID
  2
GENIUS_GEFFEM_13
 70
     0
  0
APPID
  2
GENIUS_GEFFEMP_13
 70
     0
  0
APPID
  2
AD_DRAW
 70
     0
  0
APPID
  2
DESIGNERASSEMBLIES
 70
     0
  0
APPID
  2
ACADM_DIM_EDIT
 70
     0
  0
APPID
  2
AMDT_DM_ADJ
 70
     0
  0
ENDTAB
  0
TABLE
  2
DIMSTYLE
 70
    32
  0
DIMSTYLE
  2
BIGT
 70
     0
  3

  4

  5
OPEN
  6

  7

 40
1.0
 41
2.2299999999999991
 42
0.5
 43
7.0
 44
1.0
 45
0.0
 46
0.0
 47
0.0
 48
0.01
140
2.7999999999999989
141
0.0
142
0.0
143
25.399999999999999
144
1.0
145
0.0
146
1.0
147
1.0
 71
     0
 72
     0
 73
     0
 74
     0
 75
     0
 76
     0
 77
     3
 78
     9
170
     0
171
     2
172
     1
173
     0
174
     1
175
     0
176
   256
177
   256
178
    40
  0
DIMSTYLE
  2
BIGT$0
 70
     0
  3

  4

  5
OPEN
  6

  7

 40
1.0
 41
2.2299999999999991
 42
0.5
 43
7.0
 44
1.0
 45
0.0
 46
0.0
 47
0.0
 48
0.01
140
2.7999999999999989
141
0.0
142
0.0
143
25.399999999999999
144
1.0
145
0.0
146
1.0
147
1.0
 71
     0
 72
     0
 73
     0
 74
     0
 75
     0
 76
     0
 77
     3
 78
     9
170
     0
171
     2
172
     1
173
     0
174
     0
175
     0
176
   256
177
   256
178
    40
  0
DIMSTYLE
  2
BIGT$2
 70
     0
  3

  4

  5
OPEN
  6

  7

 40
1.0
 41
2.2299999999999991
 42
0.5
 43
7.0
 44
1.0
 45
0.0
 46
0.0
 47
0.0
 48
0.01
140
2.7999999999999989
141
0.0
142
0.0
143
25.399999999999999
144
1.0
145
0.0
146
1.0
147
1.0
 71
     0
 72
     0
 73
     0
 74
     0
 75
     0
 76
     0
 77
     3
 78
     9
170
     0
171
     2
172
     1
173
     0
174
     0
175
     0
176
   256
177
   256
178
    40
  0
DIMSTYLE
  2
BIGT$3
 70
     0
  3

  4

  5
OPEN
  6

  7

 40
1.0
 41
2.2299999999999991
 42
0.5
 43
2.5
 44
1.0
 45
0.0
 46
0.0
 47
0.0
 48
0.01
140
2.7999999999999989
141
0.0
142
0.0
143
25.399999999999999
144
1.0
145
0.0
146
1.0
147
1.0
 71
     0
 72
     0
 73
     0
 74
     0
 75
     0
 76
     0
 77
     3
 78
     9
170
     0
171
     2
172
     1
173
     0
174
     0
175
     0
176
   256
177
   256
178
    40
  0
DIMSTYLE
  2
BIGT$4
 70
     0
  3

  4

  5
OPEN
  6

  7

 40
1.0
 41
2.2299999999999991
 42
0.5
 43
2.5
 44
1.0
 45
0.0
 46
0.0
 47
0.0
 48
0.01
140
2.7999999999999989
141
0.0
142
0.0
143
25.399999999999999
144
1.0
145
0.0
146
1.0
147
1.0
 71
     0
 72
     0
 73
     0
 74
     0
 75
     0
 76
     0
 77
     3
 78
     9
170
     0
171
     2
172
     1
173
     0
174
     0
175
     0
176
   256
177
   256
178
    40
  0
DIMSTYLE
  2
BIGT$6
 70
     0
  3

  4

  5
OPEN
  6

  7

 40
1.0
 41
2.2299999999999991
 42
0.5
 43
2.5
 44
1.0
 45
0.0
 46
0.0
 47
0.0
 48
0.01
140
2.7999999999999989
141
0.0
142
0.0
143
25.399999999999999
144
1.0
145
0.0
146
1.0
147
1.0
 71
     0
 72
     0
 73
     0
 74
     0
 75
     0
 76
     0
 77
     3
 78
     9
170
     0
171
     2
172
     1
173
     0
174
     0
175
     0
176
   256
177
   256
178
    40
  0
DIMSTYLE
  2
BIGT$7
 70
     0
  3

  4

  5
OPEN
  6

  7

 40
0.0
 41
2.2299999999999991
 42
0.5
 43
7.0
 44
1.0
 45
0.0
 46
0.0
 47
0.0
 48
0.01
140
2.7999999999999989
141
0.0
142
0.0
143
25.399999999999999
144
1.0
145
0.0
146
1.0
147
1.0
 71
     0
 72
     0
 73
     0
 74
     0
 75
     0
 76
     0
 77
     3
 78
     9
170
     0
171
     2
172
     0
173
     0
174
     0
175
     0
176
   256
177
   256
178
    40
  0
DIMSTYLE
  2
BIGT$SF
 70
     0
  3

  4

  5
OPEN
  6

  7

 40
1.0
 41
2.2299999999999991
 42
0.5
 43
7.0
 44
1.0
 45
0.0
 46
0.0
 47
0.0
 48
0.0
140
2.7999999999999989
141
0.0
142
0.0
143
25.399999999999999
144
1.0
145
0.0
146
1.0
147
1.0
 71
     0
 72
     0
 73
     0
 74
     0
 75
     0
 76
     0
 77
     3
 78
     9
170
     0
171
     2
172
     1
173
     0
174
     0
175
     0
176
   256
177
   256
178
    40
  0
DIMSTYLE
  2
BIGT$SH
 70
     0
  3

  4

  5
OPEN
  6

  7

 40
1.0
 41
2.2299999999999991
 42
0.5
 43
7.0
 44
1.0
 45
0.0
 46
0.0
 47
0.0
 48
0.0
140
2.7999999999999989
141
0.0
142
0.0
143
25.399999999999999
144
1.0
145
0.0
146
1.0
147
1.0
 71
     0
 72
     0
 73
     0
 74
     0
 75
     0
 76
     0
 77
     3
 78
     9
170
     0
171
     2
172
     1
173
     0
174
     0
175
     0
176
   256
177
   256
178
    40
  0
DIMSTYLE
  2
AM_ISO
 70
     0
  3

  4
"
  5

  6

  7

 40
1.0
 41
2.5
 42
1.0
 43
10.0
 44
1.0
 45
0.0
 46
0.0
 47
0.1
 48
0.1
140
3.5
141
0.0
142
0.0
143
0.0393701
144
1.0
145
0.0
146
0.71
147
1.5
 71
     0
 72
     0
 73
     0
 74
     0
 75
     0
 76
     0
 77
     1
 78
     8
170
     0
171
     2
172
     1
173
     0
174
     0
175
     0
176
   256
177
   256
178
     2
  0
DIMSTYLE
  2
AM_ISO$3
 70
     0
  3

  4
"
  5

  6

  7

 40
1.0
 41
2.5
 42
1.0
 43
10.0
 44
1.0
 45
0.0
 46
0.0
 47
0.1
 48
0.1
140
3.5
141
0.0
142
0.0
143
0.0393701
144
1.0
145
0.0
146
0.71
147
1.5
 71
     0
 72
     0
 73
     0
 74
     1
 75
     0
 76
     0
 77
     1
 78
     8
170
     0
171
     2
172
     0
173
     0
174
     0
175
     0
176
   256
177
   256
178
     2
  0
DIMSTYLE
  2
AM_ISO$4
 70
     0
  3

  4
"
  5

  6

  7

 40
1.0
 41
2.5
 42
1.0
 43
10.0
 44
1.0
 45
0.0
 46
0.0
 47
0.1
 48
0.1
140
3.5
141
0.0
142
0.0
143
0.0393701
144
1.0
145
0.0
146
0.71
147
1.5
 71
     0
 72
     0
 73
     0
 74
     1
 75
     0
 76
     0
 77
     1
 78
     8
170
     0
171
     2
172
     0
173
     0
174
     0
175
     0
176
   256
177
   256
178
     2
  0
DIMSTYLE
  2
AM_ISO$6
 70
     0
  3

  4
"
  5

  6

  7

 40
1.0
 41
2.5
 42
1.0
 43
10.0
 44
1.0
 45
0.0
 46
0.0
 47
0.1
 48
0.1
140
3.5
141
0.0
142
0.0
143
0.0393701
144
1.0
145
0.0
146
0.71
147
1.5
 71
     0
 72
     0
 73
     0
 74
     0
 75
     0
 76
     0
 77
     0
 78
     8
170
     0
171
     2
172
     1
173
     0
174
     0
175
     0
176
   256
177
   256
178
     2
  0
DIMSTYLE
  2
AM_ISO$7
 70
     0
  3

  4
"
  5

  6

  7

 40
1.0
 41
2.5
 42
1.0
 43
10.0
 44
1.0
 45
0.0
 46
0.0
 47
0.1
 48
0.1
140
5.0
141
0.0
142
0.0
143
0.0393701
144
1.0
145
0.0
146
0.71
147
1.5
 71
     0
 72
     0
 73
     0
 74
     0
 75
     0
 76
     0
 77
     1
 78
     8
170
     0
171
     2
172
     1
173
     0
174
     0
175
     0
176
   256
177
   256
178
     2
  0
DIMSTYLE
  2
AM_ISO$SF
 70
     0
  3

  4
"
  5

  6

  7

 40
1.0
 41
2.5
 42
1.0
 43
10.0
 44
1.0
 45
0.0
 46
0.0
 47
0.1
 48
0.1
140
3.5
141
0.0
142
0.0
143
0.0393701
144
1.0
145
0.0
146
0.71
147
1.5
 71
     0
 72
     0
 73
     0
 74
     0
 75
     1
 76
     1
 77
     1
 78
     8
170
     0
171
     2
172
     1
173
     0
174
     0
175
     0
176
   256
177
   256
178
     2
  0
DIMSTYLE
  2
AM_ISO$SH
 70
     0
  3

  4
"
  5

  6
GENAXEH
  7

 40
1.0
 41
2.5
 42
1.0
 43
10.0
 44
1.0
 45
0.0
 46
0.0
 47
0.1
 48
0.1
140
3.5
141
0.0
142
0.0
143
0.0393701
144
2.0
145
0.0
146
0.71
147
1.5
 71
     0
 72
     0
 73
     0
 74
     0
 75
     1
 76
     1
 77
     1
 78
     8
170
     0
171
     2
172
     1
173
     1
174
     0
175
     0
176
   256
177
   256
178
     2
  0
DIMSTYLE
  2
TECHNICAL_OSAKA
 70
     0
  3

  4
"
  5
OPEN30
  6

  7

 40
1.0
 41
2.5
 42
1.0
 43
10.0
 44
1.0
 45
0.0
 46
0.0
 47
0.1
 48
0.1
140
2.7999999999999989
141
0.0
142
0.0
143
0.0393701
144
1.0
145
0.0
146
0.71
147
1.5
 71
     0
 72
     0
 73
     0
 74
     0
 75
     0
 76
     0
 77
     3
 78
     8
170
     0
171
     2
172
     1
173
     0
174
     0
175
     0
176
   256
177
   256
178
    40
  0
DIMSTYLE
  2
TECHNICAL_OSAKA$3
 70
     0
  3

  4
"
  5
OPEN30
  6

  7

 40
1.0
 41
2.5
 42
1.0
 43
10.0
 44
1.0
 45
0.0
 46
0.0
 47
0.1
 48
0.1
140
2.7999999999999989
141
0.0
142
0.0
143
0.0393701
144
1.0
145
0.0
146
0.71
147
1.5
 71
     0
 72
     0
 73
     0
 74
     1
 75
     0
 76
     0
 77
     3
 78
     8
170
     0
171
     2
172
     0
173
     0
174
     0
175
     0
176
   256
177
   256
178
    40
  0
DIMSTYLE
  2
TECHNICAL_OSAKA$4
 70
     0
  3

  4
"
  5
OPEN30
  6

  7

 40
1.0
 41
2.5
 42
1.0
 43
10.0
 44
1.0
 45
0.0
 46
0.0
 47
0.1
 48
0.1
140
2.7999999999999989
141
0.0
142
0.0
143
0.0393701
144
1.0
145
0.0
146
0.71
147
1.5
 71
     0
 72
     0
 73
     0
 74
     1
 75
     0
 76
     0
 77
     3
 78
     8
170
     0
171
     2
172
     0
173
     0
174
     0
175
     0
176
   256
177
   256
178
    40
  0
DIMSTYLE
  2
TECHNICAL_OSAKA$6
 70
     0
  3

  4
"
  5
OPEN30
  6

  7

 40
1.0
 41
2.5
 42
1.0
 43
10.0
 44
1.0
 45
0.0
 46
0.0
 47
0.1
 48
0.1
140
2.7999999999999989
141
0.0
142
0.0
143
0.0393701
144
1.0
145
0.0
146
0.71
147
1.5
 71
     0
 72
     0
 73
     0
 74
     0
 75
     0
 76
     0
 77
     0
 78
     8
170
     0
171
     2
172
     1
173
     0
174
     0
175
     0
176
   256
177
   256
178
    40
  0
DIMSTYLE
  2
TECHNICAL_OSAKA$7
 70
     0
  3

  4
"
  5
OPEN30
  6

  7

 40
1.0
 41
2.5
 42
1.0
 43
10.0
 44
1.0
 45
0.0
 46
0.0
 47
0.1
 48
0.1
140
2.7999999999999989
141
0.0
142
0.0
143
0.0393701
144
1.0
145
0.0
146
0.71
147
1.5
 71
     0
 72
     0
 73
     0
 74
     0
 75
     0
 76
     0
 77
     3
 78
     8
170
     0
171
     2
172
     1
173
     0
174
     0
175
     0
176
   256
177
   256
178
    40
  0
DIMSTYLE
  2
TECHNICAL_OSAKA$SF
 70
     0
  3

  4
"
  5
OPEN30
  6
OPEN30
  7
OPEN30
 40
1.0
 41
2.5
 42
1.0
 43
10.0
 44
1.0
 45
0.0
 46
0.0
 47
0.1
 48
0.1
140
3.5
141
0.0
142
0.0
143
0.0393701
144
1.0
145
0.0
146
0.71
147
1.5
 71
     0
 72
     0
 73
     0
 74
     0
 75
     1
 76
     1
 77
     3
 78
     8
170
     0
171
     2
172
     1
173
     0
174
     0
175
     0
176
   256
177
   256
178
    40
  0
DIMSTYLE
  2
TECHNICAL_OSAKA$SH
 70
     0
  3

  4
"
  5
OPEN30
  6
GENAXEH
  7
OPEN30
 40
1.0
 41
2.5
 42
1.0
 43
10.0
 44
1.0
 45
0.0
 46
0.0
 47
0.1
 48
0.1
140
3.5
141
0.0
142
0.0
143
0.0393701
144
2.0
145
0.0
146
0.71
147
1.5
 71
     0
 72
     0
 73
     0
 74
     0
 75
     1
 76
     1
 77
     3
 78
     8
170
     0
171
     2
172
     1
173
     1
174
     0
175
     0
176
   256
177
   256
178
    40
  0
DIMSTYLE
  2
GRADE
 70
     0
  3

  4

  5

  6

  7

 40
1.0
 41
2.0
 42
2.0
 43
3.75
 44
2.0
 45
0.0
 46
0.0
 47
0.0
 48
0.0
140
4.0
141
0.0
142
0.0
143
25.399999999999999
144
1.0
145
0.0
146
1.0
147
1.0
 71
     0
 72
     0
 73
     0
 74
     0
 75
     0
 76
     0
 77
     3
 78
     8
170
     0
171
     2
172
     1
173
     1
174
     0
175
     0
176
     0
177
     0
178
     0
  0
DIMSTYLE
  2
ISO1
 70
     0
  3

  4

  5

  6

  7

 40
1.0
 41
10.0
 42
2.5
 43
15.0
 44
5.0
 45
0.0
 46
0.0
 47
0.0
 48
0.0
140
10.0
141
10.0
142
0.0
143
0.0394
144
1.0
145
4.0
146
1.0
147
2.5
 71
     0
 72
     0
 73
     1
 74
     0
 75
     0
 76
     0
 77
     1
 78
     8
170
     0
171
     2
172
     1
173
     0
174
     0
175
     0
176
     0
177
     0
178
     0
  0
DIMSTYLE
  2
BIGTO
 70
     0
  3

  4

  5
OPEN
  6

  7

 40
1.0
 41
2.2299999999999991
 42
0.5
 43
2.5
 44
1.0
 45
0.0
 46
0.0
 47
0.0
 48
0.0
140
3.5
141
0.0
142
0.0
143
25.399999999999999
144
1.0
145
0.0
146
1.0
147
1.0
 71
     0
 72
     0
 73
     0
 74
     0
 75
     0
 76
     0
 77
     3
 78
     9
170
     0
171
     2
172
     1
173
     0
174
     0
175
     0
176
   256
177
   256
178
    40
  0
DIMSTYLE
  2
AM_ANSI
 70
     0
  3

  4
mm
  5

  6

  7

 40
1.0
 41
0.1
 42
0.05
 43
0.5
 44
0.1
 45
0.0
 46
0.0
 47
0.1
 48
0.1
140
0.12
141
0.0
142
0.0
143
25.399999999999999
144
1.0
145
0.0
146
0.71
147
0.06
 71
     0
 72
     0
 73
     1
 74
     1
 75
     0
 76
     0
 77
     0
 78
     7
170
     0
171
     2
172
     0
173
     0
174
     0
175
     0
176
   256
177
   256
178
     2
  0
DIMSTYLE
  2
AM_ANSI$3
 70
     0
  3

  4
mm
  5

  6

  7

 40
1.0
 41
0.1
 42
0.05
 43
0.5
 44
0.1
 45
0.0
 46
0.0
 47
0.1
 48
0.1
140
0.12
141
0.0
142
0.0
143
25.399999999999999
144
1.0
145
0.0
146
0.71
147
0.06
 71
     0
 72
     0
 73
     1
 74
     1
 75
     0
 76
     0
 77
     0
 78
     7
170
     0
171
     2
172
     0
173
     0
174
     0
175
     0
176
   256
177
   256
178
     2
  0
DIMSTYLE
  2
AM_ANSI$4
 70
     0
  3

  4
mm
  5

  6

  7

 40
1.0
 41
0.1
 42
0.05
 43
0.5
 44
0.1
 45
0.0
 46
0.0
 47
0.1
 48
0.1
140
0.12
141
0.0
142
0.0
143
25.399999999999999
144
1.0
145
0.0
146
0.71
147
0.06
 71
     0
 72
     0
 73
     1
 74
     1
 75
     0
 76
     0
 77
     0
 78
     7
170
     0
171
     2
172
     0
173
     0
174
     0
175
     0
176
   256
177
   256
178
     2
  0
DIMSTYLE
  2
AM_ANSI$7
 70
     0
  3

  4
mm
  5

  6

  7

 40
1.0
 41
0.1
 42
0.05
 43
0.5
 44
0.1
 45
0.0
 46
0.0
 47
0.1
 48
0.1
140
0.24
141
0.0
142
0.0
143
25.399999999999999
144
1.0
145
0.0
146
0.71
147
0.06
 71
     0
 72
     0
 73
     1
 74
     1
 75
     0
 76
     0
 77
     0
 78
     7
170
     0
171
     2
172
     0
173
     0
174
     0
175
     0
176
   256
177
   256
178
     2
  0
DIMSTYLE
  2
AM_ANSI$SF
 70
     0
  3

  4
mm
  5

  6

  7

 40
1.0
 41
0.1
 42
0.05
 43
0.5
 44
0.1
 45
0.0
 46
0.0
 47
0.1
 48
0.1
140
0.12
141
0.0
142
0.0
143
25.399999999999999
144
1.0
145
0.0
146
0.71
147
0.06
 71
     0
 72
     0
 73
     1
 74
     1
 75
     1
 76
     1
 77
     0
 78
     7
170
     0
171
     2
172
     0
173
     0
174
     0
175
     0
176
   256
177
   256
178
     2
  0
DIMSTYLE
  2
AM_ANSI$SH
 70
     0
  3

  4
mm
  5

  6

  7

 40
1.0
 41
0.1
 42
0.05
 43
0.5
 44
0.1
 45
0.0
 46
0.0
 47
0.1
 48
0.1
140
0.12
141
0.0
142
0.0
143
25.399999999999999
144
1.0
145
0.0
146
0.71
147
0.06
 71
     0
 72
     0
 73
     1
 74
     1
 75
     1
 76
     1
 77
     0
 78
     7
170
     0
171
     2
172
     0
173
     1
174
     0
175
     0
176
   256
177
   256
178
     2
  0
ENDTAB
  0
ENDSEC
  0
SECTION
  2
BLOCKS
  0
BLOCK
  8
0
  2
$MODEL_SPACE
 70
     0
 10
0.0
 20
0.0
 30
0.0
  3
$MODEL_SPACE
  1

  0
ENDBLK
  5
1C
  8
0
  0
BLOCK
 67
     1
  8
0
  2
$PAPER_SPACE
 70
     0
 10
0.0
 20
0.0
 30
0.0
  3
$PAPER_SPACE
  1

  0
ENDBLK
  5
19
 67
     1
  8
0
  0
BLOCK
  8
0
  2
_OPEN
 70
     0
 10
0.0
 20
0.0
 30
0.0
  3
_OPEN
  1

  0
LINE
  5
1499
  8
0
  6
BYBLOCK
 62
     0
 10
-1.0
 20
0.1666666666666666
 30
0.0
 11
0.0
 21
0.0
 31
0.0
  0
LINE
  5
149A
  8
0
  6
BYBLOCK
 62
     0
 10
-1.0
 20
-0.1666666666666666
 30
0.0
 11
0.0
 21
0.0
 31
0.0
  0
LINE
  5
149B
  8
0
  6
BYBLOCK
 62
     0
 10
0.0
 20
0.0
 30
0.0
 11
-1.0
 21
0.0
 31
0.0
  0
ENDBLK
  5
149C
  8
0
  0
BLOCK
  8
0
  2
矢印なし
 70
     0
 10
0.0
 20
0.0
 30
0.0
  3
矢印なし
  1

  0
ENDBLK
  5
6E5
  8
0
  0
BLOCK
  8
0
  2
*D2
 70
     1
 10
0.0
 20
0.0
 30
0.0
  3
*D2
  1

  0
LINE
  5
1348
  8
250
  6
CONTINUOUS
 10
1.5
 20
-8.0
 30
0.0
 11
-11.5
 21
-8.0
 31
0.0
  0
LINE
  5
1349
  8
250
  6
CONTINUOUS
 10
1.5
 20
8.0
 30
0.0
 11
-11.5
 21
8.0
 31
0.0
  0
LINE
  5
134A
  8
250
  6
CONTINUOUS
 10
-10.5
 20
-5.7699999999999978
 30
0.0
 11
-10.5
 21
5.7699999999999978
 31
0.0
  0
INSERT
  5
134B
  8
250
  6
CONTINUOUS
  2
_OPEN
 10
-10.5
 20
-8.0
 30
0.0
 41
2.2299999999999991
 42
2.2299999999999991
 43
2.2299999999999991
 50
270.0
  0
INSERT
  5
134C
  8
250
  6
CONTINUOUS
  2
_OPEN
 10
-10.5
 20
8.0
 30
0.0
 41
2.2299999999999991
 42
2.2299999999999991
 43
2.2299999999999991
 50
90.0
  0
INSERT
  5
134D
  8
240
  2
*U19
 10
0.0
 20
0.0
 30
0.0
  0
POINT
  5
134E
  8
DEFPOINTS
  6
CONTINUOUS
 62
     0
 10
2.0
 20
-8.0
 30
0.0
  0
POINT
  5
134F
  8
DEFPOINTS
  6
CONTINUOUS
 62
     0
 10
2.0
 20
8.0
 30
0.0
  0
POINT
  5
1350
  8
DEFPOINTS
  6
CONTINUOUS
 62
     0
 10
-10.5
 20
8.0
 30
0.0
  0
ENDBLK
  5
C27
  8
0
  0
BLOCK
  8
0
  2
*D3
 70
     1
 10
0.0
 20
0.0
 30
0.0
  3
*D3
  1

  0
LINE
  5
1316
  8
250
  6
CONTINUOUS
 10
0.0
 20
7.3452994599999979
 30
0.0
 11
0.0
 21
32.5
 31
0.0
  0
LINE
  5
1317
  8
250
  6
CONTINUOUS
 10
90.0
 20
6.5
 30
0.0
 11
90.0
 21
32.5
 31
0.0
  0
LINE
  5
1318
  8
250
  6
CONTINUOUS
 10
2.2299999999999991
 20
31.5
 30
0.0
 11
87.769999999999996
 21
31.5
 31
0.0
  0
INSERT
  5
1319
  8
250
  6
CONTINUOUS
  2
_OPEN
 10
0.0
 20
31.5
 30
0.0
 41
2.2299999999999991
 42
2.2299999999999991
 43
2.2299999999999991
 50
180.0
  0
INSERT
  5
131A
  8
250
  6
CONTINUOUS
  2
_OPEN
 10
90.0
 20
31.5
 30
0.0
 41
2.2299999999999991
 42
2.2299999999999991
 43
2.2299999999999991
  0
INSERT
  5
131B
  8
240
  2
*U16
 10
0.0
 20
0.0
 30
0.0
  0
POINT
  5
131C
  8
DEFPOINTS
  6
CONTINUOUS
 62
     0
 10
0.0
 20
6.8452994599999979
 30
0.0
  0
POINT
  5
131D
  8
DEFPOINTS
  6
CONTINUOUS
 62
     0
 10
90.0
 20
6.0
 30
0.0
  0
POINT
  5
131E
  8
DEFPOINTS
  6
CONTINUOUS
 62
     0
 10
90.0
 20
31.5
 30
0.0
  0
ENDBLK
  5
C33
  8
0
  0
BLOCK
  8
0
  2
*D4
 70
     1
 10
0.0
 20
0.0
 30
0.0
  3
*D4
  1

  0
LINE
  5
1304
  8
250
  6
CONTINUOUS
 10
90.5
 20
-6.0
 30
0.0
 11
102.4999999999999
 21
-6.0
 31
0.0
  0
LINE
  5
1305
  8
250
  6
CONTINUOUS
 10
90.5
 20
6.0
 30
0.0
 11
102.4999999999999
 21
6.0
 31
0.0
  0
LINE
  5
1306
  8
250
  6
CONTINUOUS
 10
101.5
 20
-3.77
 30
0.0
 11
101.5
 21
3.77
 31
0.0
  0
INSERT
  5
1307
  8
250
  6
CONTINUOUS
  2
_OPEN
 10
101.5
 20
-6.0
 30
0.0
 41
2.2299999999999991
 42
2.2299999999999991
 43
2.2299999999999991
 50
270.0
  0
INSERT
  5
1308
  8
250
  6
CONTINUOUS
  2
_OPEN
 10
101.5
 20
6.0
 30
0.0
 41
2.2299999999999991
 42
2.2299999999999991
 43
2.2299999999999991
 50
90.0
  0
INSERT
  5
1309
  8
240
  2
*U15
 10
0.0
 20
0.0
 30
0.0
  0
POINT
  5
130A
  8
DEFPOINTS
  6
CONTINUOUS
 62
     0
 10
90.0
 20
-6.0
 30
0.0
  0
POINT
  5
130B
  8
DEFPOINTS
  6
CONTINUOUS
 62
     0
 10
90.0
 20
6.0
 30
0.0
  0
POINT
  5
130C
  8
DEFPOINTS
  6
CONTINUOUS
 62
     0
 10
101.5
 20
6.0
 30
0.0
  0
ENDBLK
  5
C3F
  8
0
  0
BLOCK
  8
0
  2
*D5
 70
     1
 10
0.0
 20
0.0
 30
0.0
  3
*D5
  1

  0
LINE
  5
1328
  8
250
  6
CONTINUOUS
 10
81.0
 20
6.5
 30
0.0
 11
81.0
 21
18.5
 31
0.0
  0
LINE
  5
1329
  8
250
  6
CONTINUOUS
 10
90.0
 20
6.5
 30
0.0
 11
90.0
 21
18.5
 31
0.0
  0
LINE
  5
132A
  8
250
  6
CONTINUOUS
 10
83.230000000000004
 20
17.5
 30
0.0
 11
87.769999999999996
 21
17.5
 31
0.0
  0
INSERT
  5
132B
  8
250
  6
CONTINUOUS
  2
_OPEN
 10
81.0
 20
17.5
 30
0.0
 41
2.2299999999999991
 42
2.2299999999999991
 43
2.2299999999999991
 50
180.0
  0
INSERT
  5
132C
  8
250
  6
CONTINUOUS
  2
_OPEN
 10
90.0
 20
17.5
 30
0.0
 41
2.2299999999999991
 42
2.2299999999999991
 43
2.2299999999999991
  0
INSERT
  5
132D
  8
240
  2
*U18
 10
0.0
 20
0.0
 30
0.0
  0
POINT
  5
132E
  8
DEFPOINTS
  6
CONTINUOUS
 62
     0
 10
81.0
 20
6.0
 30
0.0
  0
POINT
  5
132F
  8
DEFPOINTS
  6
CONTINUOUS
 62
     0
 10
90.0
 20
6.0
 30
0.0
  0
POINT
  5
1330
  8
DEFPOINTS
  6
CONTINUOUS
 62
     0
 10
90.0
 20
17.5
 30
0.0
  0
ENDBLK
  5
C4B
  8
0
  0
BLOCK
  8
0
  2
1
 70
     0
 10
0.0
 20
0.0
 30
0.0
  3
1
  1

  0
LINE
  5
1351
  8
240
  6
CONTINUOUS
 10
69.999999990000006
 20
8.0
 30
0.0
 11
2.0000000099999991
 21
8.0
 31
0.0
  0
LINE
  5
1352
  8
240
  6
CONTINUOUS
 10
70.0
 20
-8.0
 30
0.0
 11
2.0000000099999991
 21
-8.0
 31
0.0
  0
LINE
  5
1353
  8
245
  6
CENTER2
 10
-0.7785403500000001
 20
0.0
 30
0.0
 11
91.0
 21
0.0
 31
0.0
  0
LINE
  5
1354
  8
240
  6
CONTINUOUS
 10
0.0
 20
6.8452994599999979
 30
0.0
 11
0.0
 21
0.0
 31
0.0
  0
LINE
  5
1355
  8
241
  6
CONTINUOUS
 10
2.0
 20
0.0
 30
0.0
 11
2.0
 21
8.0
 31
0.0
  0
LINE
  5
1356
  8
240
  6
CONTINUOUS
 10
0.0
 20
-6.8452994599999979
 30
0.0
 11
0.0
 21
0.0
 31
0.0
  0
LINE
  5
1357
  8
241
  6
CONTINUOUS
 10
2.0
 20
0.0
 30
0.0
 11
2.0
 21
-8.0
 31
0.0
  0
LINE
  5
1358
  8
240
  6
CONTINUOUS
 10
0.0
 20
-6.8452994599999979
 30
0.0
 11
2.0000000099999991
 21
-8.0
 31
0.0
  0
LINE
  5
1359
  8
240
  6
CONTINUOUS
 10
0.0
 20
6.8452994599999979
 30
0.0
 11
2.0000000099999991
 21
8.0
 31
0.0
  0
LINE
  5
135A
  8
241
  6
CONTINUOUS
 10
78.737161920000005
 20
-0.34213163
 30
0.0
 11
89.099999999999994
 21
-3.1188457299999981
 31
0.0
  0
LINE
  5
135B
  8
241
  6
CONTINUOUS
 10
89.099999999999994
 20
0.91470672
 30
0.0
 11
79.540655610000002
 21
1.7510409799999991
 31
0.0
  0
LINE
  5
135C
  8
240
  6
CONTINUOUS
 10
89.099999999999994
 20
-5.4000000000000004
 30
0.0
 11
79.600000030000004
 21
-5.5
 31
0.0
  0
LINE
  5
135D
  8
240
  6
CONTINUOUS
 10
89.099999999999994
 20
5.4000000000000004
 30
0.0
 11
79.600000030000004
 21
5.5
 31
0.0
  0
LINE
  5
135E
  8
242
  6
PHANTOM2
 10
90.0
 20
6.0
 30
0.0
 11
81.0
 21
6.0
 31
0.0
  0
LINE
  5
135F
  8
242
  6
PHANTOM2
 10
90.0
 20
-6.0
 30
0.0
 11
81.0
 21
-6.0
 31
0.0
  0
LINE
  5
1360
  8
241
  6
CONTINUOUS
 10
70.0
 20
8.0
 30
0.0
 11
70.0
 21
0.0
 31
0.0
  0
LINE
  5
1361
  8
241
  6
CONTINUOUS
 10
71.0
 20
7.4204792399999979
 30
0.0
 11
71.0
 21
0.0
 31
0.0
  0
LINE
  5
1362
  8
241
  6
CONTINUOUS
 10
75.0
 20
-0.88296956
 30
0.0
 11
75.0
 21
5.467611299999998
 31
0.0
  0
ARC
  5
1363
  8
240
  6
CONTINUOUS
 10
77.397728619999981
 20
-15.108290139999999
 30
0.0
 40
10.0
 50
112.01701993
 51
129.7748845399999
  0
ARC
  5
1364
  8
241
  6
CONTINUOUS
 10
76.599999999999994
 20
-3.9958460399999982
 30
0.0
 40
3.5000000000000009
 50
85.0
 51
211.90650933000001
  0
LINE
  5
1365
  8
241
  6
CONTINUOUS
 10
71.0
 20
-7.4204792399999979
 30
0.0
 11
71.0
 21
0.0
 31
0.0
  0
LINE
  5
1366
  8
241
  6
CONTINUOUS
 10
70.0
 20
-8.0
 30
0.0
 11
70.0
 21
0.0
 31
0.0
  0
LINE
  5
1367
  8
240
  6
CONTINUOUS
 10
70.99999999000002
 20
-7.422649739999998
 30
0.0
 11
69.999999990000006
 21
-8.0
 31
0.0
  0
LINE
  5
1368
  8
240
  6
CONTINUOUS
 10
79.032871839999984
 20
-5.4000000000000004
 30
0.0
 11
75.898200619999997
 21
-5.4000000000000004
 31
0.0
  0
ARC
  5
1369
  8
240
  6
CONTINUOUS
 10
75.898200619999997
 20
-11.4
 30
0.0
 40
6.0
 50
90.0
 51
112.01701993
  0
LINE
  5
136A
  8
240
  6
CONTINUOUS
 10
79.032871839999984
 20
-5.4000000000000004
 30
0.0
 11
79.600000030000004
 21
-5.5
 31
0.0
  0
LINE
  5
136B
  8
241
  6
CONTINUOUS
 10
76.905045099999995
 20
-0.5091646
 30
0.0
 11
78.615597219999984
 21
-0.65881852
 31
0.0
  0
LINE
  5
136C
  8
241
  6
CONTINUOUS
 10
79.540655610000002
 20
1.7510409799999991
 30
0.0
 11
78.615597219999984
 21
-0.65881852
 31
0.0
  0
ARC
  5
136D
  8
240
  6
CONTINUOUS
 10
77.397728619999981
 20
15.108290139999999
 30
0.0
 40
10.0
 50
230.22509786000001
 51
247.98298007
  0
LINE
  5
136E
  8
240
  6
CONTINUOUS
 10
70.99999999000002
 20
7.422649739999998
 30
0.0
 11
69.999999990000006
 21
8.0
 31
0.0
  0
LINE
  5
136F
  8
240
  6
CONTINUOUS
 10
79.032871839999984
 20
5.4000000000000004
 30
0.0
 11
75.898200619999997
 21
5.4000000000000004
 31
0.0
  0
ARC
  5
1370
  8
240
  6
CONTINUOUS
 10
75.898200619999997
 20
11.4
 30
0.0
 40
5.9999999999999991
 50
247.98298007
 51
270.0
  0
LINE
  5
1371
  8
240
  6
CONTINUOUS
 10
79.032871839999984
 20
5.4000000000000004
 30
0.0
 11
79.600000030000004
 21
5.5
 31
0.0
  0
LINE
  5
1372
  8
240
  6
CONTINUOUS
 10
89.099999999999994
 20
5.4000000000000004
 30
0.0
 11
89.099999999999994
 21
0.91470672
 31
0.0
  0
LINE
  5
1373
  8
242
  6
PHANTOM2
 10
90.0
 20
6.0
 30
0.0
 11
90.0
 21
-6.0
 31
0.0
  0
POLYLINE
  5
1374
  8
241
  6
CONTINUOUS
 10
82.830566138097154
 20
4.9337505967530575
 30
0.0
 66
     1
 70
     8
  0
VERTEX
  8
241
  5
185B
 10
82.8306
 20
4.93375
 30
0.000000
  70
    32
  0
VERTEX
  8
241
  5
185C
 10
82.8291
 20
4.91203
 30
0.000000
  70
    32
  0
VERTEX
  8
241
  5
185D
 10
82.8286
 20
4.89024
 30
0.000000
  70
    32
  0
VERTEX
  8
241
  5
185E
 10
82.8289
 20
4.86840
 30
0.000000
  70
    32
  0
VERTEX
  8
241
  5
185F
 10
82.8302
 20
4.84653
 30
0.000000
  70
    32
  0
VERTEX
  8
241
  5
1860
 10
82.8323
 20
4.82462
 30
0.000000
  70
    32
  0
VERTEX
  8
241
  5
1861
 10
82.8354
 20
4.80270
 30
0.000000
  70
    32
  0
VERTEX
  8
241
  5
1862
 10
82.8394
 20
4.78079
 30
0.000000
  70
    32
  0
VERTEX
  8
241
  5
1863
 10
82.8442
 20
4.75888
 30
0.000000
  70
    32
  0
VERTEX
  8
241
  5
1864
 10
82.8499
 20
4.73701
 30
0.000000
  70
    32
  0
VERTEX
  8
241
  5
1865
 10
82.8566
 20
4.71517
 30
0.000000
  70
    32
  0
VERTEX
  8
241
  5
1866
 10
82.8641
 20
4.69338
 30
0.000000
  70
    32
  0
VERTEX
  8
241
  5
1867
 10
82.8725
 20
4.67167
 30
0.000000
  70
    32
  0
VERTEX
  8
241
  5
1868
 10
82.8817
 20
4.65003
 30
0.000000
  70
    32
  0
VERTEX
  8
241
  5
1869
 10
82.8919
 20
4.62848
 30
0.000000
  70
    32
  0
VERTEX
  8
241
  5
186A
 10
82.9029
 20
4.60704
 30
0.000000
  70
    32
  0
VERTEX
  8
241
  5
186B
 10
82.9147
 20
4.58571
 30
0.000000
  70
    32
  0
VERTEX
  8
241
  5
186C
 10
82.9274
 20
4.56452
 30
0.000000
  70
    32
  0
VERTEX
  8
241
  5
186D
 10
82.9410
 20
4.54347
 30
0.000000
  70
    32
  0
VERTEX
  8
241
  5
186E
 10
82.9554
 20
4.52258
 30
0.000000
  70
    32
  0
VERTEX
  8
241
  5
186F
 10
82.9706
 20
4.50185
 30
0.000000
  70
    32
  0
VERTEX
  8
241
  5
1870
 10
82.9866
 20
4.48131
 30
0.000000
  70
    32
  0
VERTEX
  8
241
  5
1871
 10
83.0034
 20
4.46096
 30
0.000000
  70
    32
  0
VERTEX
  8
241
  5
1872
 10
83.0210
 20
4.44082
 30
0.000000
  70
    32
  0
VERTEX
  8
241
  5
1873
 10
83.0395
 20
4.42089
 30
0.000000
  70
    32
  0
VERTEX
  8
241
  5
1874
 10
83.0586
 20
4.40120
 30
0.000000
  70
    32
  0
VERTEX
  8
241
  5
1875
 10
83.0786
 20
4.38175
 30
0.000000
  70
    32
  0
VERTEX
  8
241
  5
1876
 10
83.0993
 20
4.36255
 30
0.000000
  70
    32
  0
VERTEX
  8
241
  5
1877
 10
83.1207
 20
4.34361
 30
0.000000
  70
    32
  0
VERTEX
  8
241
  5
1878
 10
83.1429
 20
4.32496
 30
0.000000
  70
    32
  0
VERTEX
  8
241
  5
1879
 10
83.1658
 20
4.30659
 30
0.000000
  70
    32
  0
VERTEX
  8
241
  5
187A
 10
83.1893
 20
4.28852
 30
0.000000
  70
    32
  0
VERTEX
  8
241
  5
187B
 10
83.2136
 20
4.27076
 30
0.000000
  70
    32
  0
VERTEX
  8
241
  5
187C
 10
83.2385
 20
4.25332
 30
0.000000
  70
    32
  0
VERTEX
  8
241
  5
187D
 10
83.2641
 20
4.23621
 30
0.000000
  70
    32
  0
VERTEX
  8
241
  5
187E
 10
83.2903
 20
4.21944
 30
0.000000
  70
    32
  0
VERTEX
  8
241
  5
187F
 10
83.3171
 20
4.20303
 30
0.000000
  70
    32
  0
VERTEX
  8
241
  5
1880
 10
83.3446
 20
4.18698
 30
0.000000
  70
    32
  0
VERTEX
  8
241
  5
1881
 10
83.3726
 20
4.17129
 30
0.000000
  70
    32
  0
VERTEX
  8
241
  5
1882
 10
83.4012
 20
4.15599
 30
0.000000
  70
    32
  0
VERTEX
  8
241
  5
1883
 10
83.4304
 20
4.14108
 30
0.000000
  70
    32
  0
VERTEX
  8
241
  5
1884
 10
83.4601
 20
4.12656
 30
0.000000
  70
    32
  0
VERTEX
  8
241
  5
1885
 10
83.4903
 20
4.11246
 30
0.000000
  70
    32
  0
VERTEX
  8
241
  5
1886
 10
83.5211
 20
4.09877
 30
0.000000
  70
    32
  0
VERTEX
  8
241
  5
1887
 10
83.5523
 20
4.08550
 30
0.000000
  70
    32
  0
VERTEX
  8
241
  5
1888
 10
83.5840
 20
4.07267
 30
0.000000
  70
    32
  0
VERTEX
  8
241
  5
1889
 10
83.6161
 20
4.06027
 30
0.000000
  70
    32
  0
VERTEX
  8
241
  5
188A
 10
83.6486
 20
4.04833
 30
0.000000
  70
    32
  0
VERTEX
  8
241
  5
188B
 10
83.6816
 20
4.03684
 30
0.000000
  70
    32
  0
VERTEX
  8
241
  5
188C
 10
83.7150
 20
4.02580
 30
0.000000
  70
    32
  0
VERTEX
  8
241
  5
188D
 10
83.7487
 20
4.01524
 30
0.000000
  70
    32
  0
VERTEX
  8
241
  5
188E
 10
83.7827
 20
4.00515
 30
0.000000
  70
    32
  0
VERTEX
  8
241
  5
188F
 10
83.8171
 20
3.99555
 30
0.000000
  70
    32
  0
VERTEX
  8
241
  5
1890
 10
83.8518
 20
3.98643
 30
0.000000
  70
    32
  0
VERTEX
  8
241
  5
1891
 10
83.8868
 20
3.97780
 30
0.000000
  70
    32
  0
VERTEX
  8
241
  5
1892
 10
83.9220
 20
3.96967
 30
0.000000
  70
    32
  0
VERTEX
  8
241
  5
1893
 10
83.9575
 20
3.96204
 30
0.000000
  70
    32
  0
VERTEX
  8
241
  5
1894
 10
83.9932
 20
3.95491
 30
0.000000
  70
    32
  0
VERTEX
  8
241
  5
1895
 10
84.0291
 20
3.94830
 30
0.000000
  70
    32
  0
VERTEX
  8
241
  5
1896
 10
84.0652
 20
3.94220
 30
0.000000
  70
    32
  0
VERTEX
  8
241
  5
1897
 10
84.1015
 20
3.93662
 30
0.000000
  70
    32
  0
VERTEX
  8
241
  5
1898
 10
84.1378
 20
3.93157
 30
0.000000
  70
    32
  0
VERTEX
  8
241
  5
1899
 10
84.1743
 20
3.92703
 30
0.000000
  70
    32
  0
VERTEX
  8
241
  5
189A
 10
84.2109
 20
3.92303
 30
0.000000
  70
    32
  0
VERTEX
  8
241
  5
189B
 10
84.2476
 20
3.91956
 30
0.000000
  70
    32
  0
VERTEX
  8
241
  5
189C
 10
84.2843
 20
3.91661
 30
0.000000
  70
    32
  0
VERTEX
  8
241
  5
189D
 10
84.3210
 20
3.91421
 30
0.000000
  70
    32
  0
VERTEX
  8
241
  5
189E
 10
84.3577
 20
3.91233
 30
0.000000
  70
    32
  0
VERTEX
  8
241
  5
189F
 10
84.3944
 20
3.91100
 30
0.000000
  70
    32
  0
VERTEX
  8
241
  5
18A0
 10
84.4311
 20
3.91020
 30
0.000000
  70
    32
  0
VERTEX
  8
241
  5
18A1
 10
84.4677
 20
3.90994
 30
0.000000
  70
    32
  0
VERTEX
  8
241
  5
18A2
 10
84.5042
 20
3.91021
 30
0.000000
  70
    32
  0
VERTEX
  8
241
  5
18A3
 10
84.5406
 20
3.91103
 30
0.000000
  70
    32
  0
VERTEX
  8
241
  5
18A4
 10
84.5768
 20
3.91238
 30
0.000000
  70
    32
  0
VERTEX
  8
241
  5
18A5
 10
84.6130
 20
3.91427
 30
0.000000
  70
    32
  0
VERTEX
  8
241
  5
18A6
 10
84.6489
 20
3.91669
 30
0.000000
  70
    32
  0
VERTEX
  8
241
  5
18A7
 10
84.6847
 20
3.91965
 30
0.000000
  70
    32
  0
VERTEX
  8
241
  5
18A8
 10
84.7202
 20
3.92314
 30
0.000000
  70
    32
  0
VERTEX
  8
241
  5
18A9
 10
84.7555
 20
3.92716
 30
0.000000
  70
    32
  0
VERTEX
  8
241
  5
18AA
 10
84.7905
 20
3.93170
 30
0.000000
  70
    32
  0
VERTEX
  8
241
  5
18AB
 10
84.8253
 20
3.93678
 30
0.000000
  70
    32
  0
VERTEX
  8
241
  5
18AC
 10
84.8597
 20
3.94237
 30
0.000000
  70
    32
  0
VERTEX
  8
241
  5
18AD
 10
84.8939
 20
3.94848
 30
0.000000
  70
    32
  0
VERTEX
  8
241
  5
18AE
 10
84.9277
 20
3.95511
 30
0.000000
  70
    32
  0
VERTEX
  8
241
  5
18AF
 10
84.9611
 20
3.96225
 30
0.000000
  70
    32
  0
VERTEX
  8
241
  5
18B0
 10
84.9941
 20
3.96989
 30
0.000000
  70
    32
  0
VERTEX
  8
241
  5
18B1
 10
85.0268
 20
3.97804
 30
0.000000
  70
    32
  0
VERTEX
  8
241
  5
18B2
 10
85.0590
 20
3.98668
 30
0.000000
  70
    32
  0
VERTEX
  8
241
  5
18B3
 10
85.0908
 20
3.99581
 30
0.000000
  70
    32
  0
VERTEX
  8
241
  5
18B4
 10
85.1221
 20
4.00544
 30
0.000000
  70
    32
  0
VERTEX
  8
241
  5
18B5
 10
85.1529
 20
4.01554
 30
0.000000
  70
    32
  0
VERTEX
  8
241
  5
18B6
 10
85.1833
 20
4.02611
 30
0.000000
  70
    32
  0
VERTEX
  8
241
  5
18B7
 10
85.2131
 20
4.03716
 30
0.000000
  70
    32
  0
VERTEX
  8
241
  5
18B8
 10
85.2424
 20
4.04866
 30
0.000000
  70
    32
  0
VERTEX
  8
241
  5
18B9
 10
85.2711
 20
4.06062
 30
0.000000
  70
    32
  0
VERTEX
  8
241
  5
18BA
 10
85.2993
 20
4.07303
 30
0.000000
  70
    32
  0
VERTEX
  8
241
  5
18BB
 10
85.3268
 20
4.08587
 30
0.000000
  70
    32
  0
VERTEX
  8
241
  5
18BC
 10
85.3538
 20
4.09915
 30
0.000000
  70
    32
  0
VERTEX
  8
241
  5
18BD
 10
85.3801
 20
4.11285
 30
0.000000
  70
    32
  0
VERTEX
  8
241
  5
18BE
 10
85.4059
 20
4.12697
 30
0.000000
  70
    32
  0
VERTEX
  8
241
  5
18BF
 10
85.4309
 20
4.14150
 30
0.000000
  70
    32
  0
VERTEX
  8
241
  5
18C0
 10
85.4553
 20
4.15642
 30
0.000000
  70
    32
  0
VERTEX
  8
241
  5
18C1
 10
85.4790
 20
4.17173
 30
0.000000
  70
    32
  0
VERTEX
  8
241
  5
18C2
 10
85.5021
 20
4.18743
 30
0.000000
  70
    32
  0
VERTEX
  8
241
  5
18C3
 10
85.5244
 20
4.20349
 30
0.000000
  70
    32
  0
VERTEX
  8
241
  5
18C4
 10
85.5460
 20
4.21992
 30
0.000000
  70
    32
  0
VERTEX
  8
241
  5
18C5
 10
85.5668
 20
4.23669
 30
0.000000
  70
    32
  0
VERTEX
  8
241
  5
18C6
 10
85.5869
 20
4.25381
 30
0.000000
  70
    32
  0
VERTEX
  8
241
  5
18C7
 10
85.6063
 20
4.27126
 30
0.000000
  70
    32
  0
VERTEX
  8
241
  5
18C8
 10
85.6248
 20
4.28903
 30
0.000000
  70
    32
  0
VERTEX
  8
241
  5
18C9
 10
85.6426
 20
4.30711
 30
0.000000
  70
    32
  0
VERTEX
  8
241
  5
18CA
 10
85.6596
 20
4.32548
 30
0.000000
  70
    32
  0
VERTEX
  8
241
  5
18CB
 10
85.6758
 20
4.34415
 30
0.000000
  70
    32
  0
VERTEX
  8
241
  5
18CC
 10
85.6912
 20
4.36309
 30
0.000000
  70
    32
  0
VERTEX
  8
241
  5
18CD
 10
85.7058
 20
4.38230
 30
0.000000
  70
    32
  0
VERTEX
  8
241
  5
18CE
 10
85.7195
 20
4.40176
 30
0.000000
  70
    32
  0
VERTEX
  8
241
  5
18CF
 10
85.7324
 20
4.42146
 30
0.000000
  70
    32
  0
VERTEX
  8
241
  5
18D0
 10
85.7444
 20
4.44139
 30
0.000000
  70
    32
  0
VERTEX
  8
241
  5
18D1
 10
85.7556
 20
4.46154
 30
0.000000
  70
    32
  0
VERTEX
  8
241
  5
18D2
 10
85.7659
 20
4.48189
 30
0.000000
  70
    32
  0
VERTEX
  8
241
  5
18D3
 10
85.7754
 20
4.50244
 30
0.000000
  70
    32
  0
VERTEX
  8
241
  5
18D4
 10
85.7839
 20
4.52317
 30
0.000000
  70
    32
  0
VERTEX
  8
241
  5
18D5
 10
85.7916
 20
4.54407
 30
0.000000
  70
    32
  0
VERTEX
  8
241
  5
18D6
 10
85.7985
 20
4.56512
 30
0.000000
  70
    32
  0
VERTEX
  8
241
  5
18D7
 10
85.8044
 20
4.58632
 30
0.000000
  70
    32
  0
VERTEX
  8
241
  5
18D8
 10
85.8094
 20
4.60765
 30
0.000000
  70
    32
  0
VERTEX
  8
241
  5
18D9
 10
85.8136
 20
4.62909
 30
0.000000
  70
    32
  0
VERTEX
  8
241
  5
18DA
 10
85.8168
 20
4.65064
 30
0.000000
  70
    32
  0
VERTEX
  8
241
  5
18DB
 10
85.8192
 20
4.67228
 30
0.000000
  70
    32
  0
SEQEND
  8
241
  5
18DC
  0
LINE
  5
1375
  8
240
  6
CONTINUOUS
 10
89.099999999999994
 20
-3.1188457299999981
 30
0.0
 11
90.0
 21
-3.3599999999999981
 31
0.0
  0
LINE
  5
1376
  8
240
  6
CONTINUOUS
 10
89.170276310000006
 20
0.90855834
 30
0.0
 11
90.0
 21
-3.3599999999999981
 31
0.0
  0
LINE
  5
1377
  8
240
  6
CONTINUOUS
 10
89.099999999999994
 20
-5.4000000000000004
 30
0.0
 11
89.099999999999994
 21
-3.1188457299999981
 31
0.0
  0
LINE
  5
1378
  8
240
  6
CONTINUOUS
 10
89.170276310000006
 20
0.90855834
 30
0.0
 11
89.099999999999994
 21
0.91470672
 31
0.0
  0
POLYLINE
  5
1379
  8
241
  6
CONTINUOUS
 10
85.819150270666142
 20
4.6722838062169147
 30
0.0
 66
     1
 70
     8
  0
VERTEX
  8
241
  5
18DD
 10
85.8192
 20
4.67228
 30
0.000000
  70
    32
  0
VERTEX
  8
241
  5
18DE
 10
85.8198
 20
4.68478
 30
0.000000
  70
    32
  0
VERTEX
  8
241
  5
18DF
 10
85.8195
 20
4.69735
 30
0.000000
  70
    32
  0
VERTEX
  8
241
  5
18E0
 10
85.8184
 20
4.70998
 30
0.000000
  70
    32
  0
VERTEX
  8
241
  5
18E1
 10
85.8163
 20
4.72266
 30
0.000000
  70
    32
  0
VERTEX
  8
241
  5
18E2
 10
85.8133
 20
4.73540
 30
0.000000
  70
    32
  0
VERTEX
  8
241
  5
18E3
 10
85.8095
 20
4.74818
 30
0.000000
  70
    32
  0
VERTEX
  8
241
  5
18E4
 10
85.8047
 20
4.76098
 30
0.000000
  70
    32
  0
VERTEX
  8
241
  5
18E5
 10
85.7991
 20
4.77382
 30
0.000000
  70
    32
  0
VERTEX
  8
241
  5
18E6
 10
85.7926
 20
4.78667
 30
0.000000
  70
    32
  0
VERTEX
  8
241
  5
18E7
 10
85.7852
 20
4.79953
 30
0.000000
  70
    32
  0
VERTEX
  8
241
  5
18E8
 10
85.7769
 20
4.81240
 30
0.000000
  70
    32
  0
VERTEX
  8
241
  5
18E9
 10
85.7677
 20
4.82525
 30
0.000000
  70
    32
  0
VERTEX
  8
241
  5
18EA
 10
85.7577
 20
4.83810
 30
0.000000
  70
    32
  0
VERTEX
  8
241
  5
18EB
 10
85.7468
 20
4.85092
 30
0.000000
  70
    32
  0
VERTEX
  8
241
  5
18EC
 10
85.7350
 20
4.86372
 30
0.000000
  70
    32
  0
VERTEX
  8
241
  5
18ED
 10
85.7224
 20
4.87648
 30
0.000000
  70
    32
  0
VERTEX
  8
241
  5
18EE
 10
85.7090
 20
4.88919
 30
0.000000
  70
    32
  0
VERTEX
  8
241
  5
18EF
 10
85.6947
 20
4.90185
 30
0.000000
  70
    32
  0
VERTEX
  8
241
  5
18F0
 10
85.6796
 20
4.91445
 30
0.000000
  70
    32
  0
VERTEX
  8
241
  5
18F1
 10
85.6636
 20
4.92699
 30
0.000000
  70
    32
  0
VERTEX
  8
241
  5
18F2
 10
85.6469
 20
4.93945
 30
0.000000
  70
    32
  0
VERTEX
  8
241
  5
18F3
 10
85.6294
 20
4.95183
 30
0.000000
  70
    32
  0
VERTEX
  8
241
  5
18F4
 10
85.6111
 20
4.96412
 30
0.000000
  70
    32
  0
VERTEX
  8
241
  5
18F5
 10
85.5920
 20
4.97631
 30
0.000000
  70
    32
  0
VERTEX
  8
241
  5
18F6
 10
85.5721
 20
4.98840
 30
0.000000
  70
    32
  0
VERTEX
  8
241
  5
18F7
 10
85.5515
 20
5.00037
 30
0.000000
  70
    32
  0
VERTEX
  8
241
  5
18F8
 10
85.5302
 20
5.01223
 30
0.000000
  70
    32
  0
VERTEX
  8
241
  5
18F9
 10
85.5081
 20
5.02396
 30
0.000000
  70
    32
  0
VERTEX
  8
241
  5
18FA
 10
85.4854
 20
5.03556
 30
0.000000
  70
    32
  0
VERTEX
  8
241
  5
18FB
 10
85.4619
 20
5.04702
 30
0.000000
  70
    32
  0
VERTEX
  8
241
  5
18FC
 10
85.4377
 20
5.05833
 30
0.000000
  70
    32
  0
VERTEX
  8
241
  5
18FD
 10
85.4129
 20
5.06948
 30
0.000000
  70
    32
  0
VERTEX
  8
241
  5
18FE
 10
85.3874
 20
5.08048
 30
0.000000
  70
    32
  0
VERTEX
  8
241
  5
18FF
 10
85.3613
 20
5.09131
 30
0.000000
  70
    32
  0
VERTEX
  8
241
  5
1900
 10
85.3345
 20
5.10197
 30
0.000000
  70
    32
  0
VERTEX
  8
241
  5
1901
 10
85.3072
 20
5.11244
 30
0.000000
  70
    32
  0
VERTEX
  8
241
  5
1902
 10
85.2792
 20
5.12273
 30
0.000000
  70
    32
  0
VERTEX
  8
241
  5
1903
 10
85.2507
 20
5.13283
 30
0.000000
  70
    32
  0
VERTEX
  8
241
  5
1904
 10
85.2216
 20
5.14272
 30
0.000000
  70
    32
  0
VERTEX
  8
241
  5
1905
 10
85.1920
 20
5.15242
 30
0.000000
  70
    32
  0
VERTEX
  8
241
  5
1906
 10
85.1618
 20
5.16190
 30
0.000000
  70
    32
  0
VERTEX
  8
241
  5
1907
 10
85.1312
 20
5.17117
 30
0.000000
  70
    32
  0
VERTEX
  8
241
  5
1908
 10
85.1000
 20
5.18021
 30
0.000000
  70
    32
  0
VERTEX
  8
241
  5
1909
 10
85.0684
 20
5.18903
 30
0.000000
  70
    32
  0
VERTEX
  8
241
  5
190A
 10
85.0364
 20
5.19762
 30
0.000000
  70
    32
  0
VERTEX
  8
241
  5
190B
 10
85.0039
 20
5.20596
 30
0.000000
  70
    32
  0
VERTEX
  8
241
  5
190C
 10
84.9710
 20
5.21407
 30
0.000000
  70
    32
  0
VERTEX
  8
241
  5
190D
 10
84.9377
 20
5.22192
 30
0.000000
  70
    32
  0
VERTEX
  8
241
  5
190E
 10
84.9041
 20
5.22953
 30
0.000000
  70
    32
  0
VERTEX
  8
241
  5
190F
 10
84.8701
 20
5.23688
 30
0.000000
  70
    32
  0
VERTEX
  8
241
  5
1910
 10
84.8358
 20
5.24396
 30
0.000000
  70
    32
  0
VERTEX
  8
241
  5
1911
 10
84.8011
 20
5.25079
 30
0.000000
  70
    32
  0
VERTEX
  8
241
  5
1912
 10
84.7662
 20
5.25734
 30
0.000000
  70
    32
  0
VERTEX
  8
241
  5
1913
 10
84.7310
 20
5.26361
 30
0.000000
  70
    32
  0
VERTEX
  8
241
  5
1914
 10
84.6956
 20
5.26961
 30
0.000000
  70
    32
  0
VERTEX
  8
241
  5
1915
 10
84.6599
 20
5.27533
 30
0.000000
  70
    32
  0
VERTEX
  8
241
  5
1916
 10
84.6241
 20
5.28077
 30
0.000000
  70
    32
  0
VERTEX
  8
241
  5
1917
 10
84.5880
 20
5.28591
 30
0.000000
  70
    32
  0
VERTEX
  8
241
  5
1918
 10
84.5518
 20
5.29077
 30
0.000000
  70
    32
  0
VERTEX
  8
241
  5
1919
 10
84.5155
 20
5.29533
 30
0.000000
  70
    32
  0
VERTEX
  8
241
  5
191A
 10
84.4791
 20
5.29960
 30
0.000000
  70
    32
  0
VERTEX
  8
241
  5
191B
 10
84.4425
 20
5.30357
 30
0.000000
  70
    32
  0
VERTEX
  8
241
  5
191C
 10
84.4059
 20
5.30723
 30
0.000000
  70
    32
  0
VERTEX
  8
241
  5
191D
 10
84.3693
 20
5.31059
 30
0.000000
  70
    32
  0
VERTEX
  8
241
  5
191E
 10
84.3326
 20
5.31365
 30
0.000000
  70
    32
  0
VERTEX
  8
241
  5
191F
 10
84.2959
 20
5.31639
 30
0.000000
  70
    32
  0
VERTEX
  8
241
  5
1920
 10
84.2592
 20
5.31883
 30
0.000000
  70
    32
  0
VERTEX
  8
241
  5
1921
 10
84.2226
 20
5.32096
 30
0.000000
  70
    32
  0
VERTEX
  8
241
  5
1922
 10
84.1860
 20
5.32278
 30
0.000000
  70
    32
  0
VERTEX
  8
241
  5
1923
 10
84.1495
 20
5.32428
 30
0.000000
  70
    32
  0
VERTEX
  8
241
  5
1924
 10
84.1131
 20
5.32547
 30
0.000000
  70
    32
  0
VERTEX
  8
241
  5
1925
 10
84.0769
 20
5.32634
 30
0.000000
  70
    32
  0
VERTEX
  8
241
  5
1926
 10
84.0408
 20
5.32690
 30
0.000000
  70
    32
  0
VERTEX
  8
241
  5
1927
 10
84.0049
 20
5.32715
 30
0.000000
  70
    32
  0
VERTEX
  8
241
  5
1928
 10
83.9691
 20
5.32707
 30
0.000000
  70
    32
  0
VERTEX
  8
241
  5
1929
 10
83.9336
 20
5.32669
 30
0.000000
  70
    32
  0
VERTEX
  8
241
  5
192A
 10
83.8983
 20
5.32598
 30
0.000000
  70
    32
  0
VERTEX
  8
241
  5
192B
 10
83.8633
 20
5.32496
 30
0.000000
  70
    32
  0
VERTEX
  8
241
  5
192C
 10
83.8285
 20
5.32363
 30
0.000000
  70
    32
  0
VERTEX
  8
241
  5
192D
 10
83.7940
 20
5.32198
 30
0.000000
  70
    32
  0
VERTEX
  8
241
  5
192E
 10
83.7599
 20
5.32003
 30
0.000000
  70
    32
  0
VERTEX
  8
241
  5
192F
 10
83.7261
 20
5.31775
 30
0.000000
  70
    32
  0
VERTEX
  8
241
  5
1930
 10
83.6927
 20
5.31517
 30
0.000000
  70
    32
  0
VERTEX
  8
241
  5
1931
 10
83.6596
 20
5.31228
 30
0.000000
  70
    32
  0
VERTEX
  8
241
  5
1932
 10
83.6270
 20
5.30909
 30
0.000000
  70
    32
  0
VERTEX
  8
241
  5
1933
 10
83.5947
 20
5.30559
 30
0.000000
  70
    32
  0
VERTEX
  8
241
  5
1934
 10
83.5629
 20
5.30179
 30
0.000000
  70
    32
  0
VERTEX
  8
241
  5
1935
 10
83.5316
 20
5.29768
 30
0.000000
  70
    32
  0
VERTEX
  8
241
  5
1936
 10
83.5007
 20
5.29328
 30
0.000000
  70
    32
  0
VERTEX
  8
241
  5
1937
 10
83.4704
 20
5.28858
 30
0.000000
  70
    32
  0
VERTEX
  8
241
  5
1938
 10
83.4405
 20
5.28359
 30
0.000000
  70
    32
  0
VERTEX
  8
241
  5
1939
 10
83.4112
 20
5.27831
 30
0.000000
  70
    32
  0
VERTEX
  8
241
  5
193A
 10
83.3825
 20
5.27275
 30
0.000000
  70
    32
  0
VERTEX
  8
241
  5
193B
 10
83.3543
 20
5.26690
 30
0.000000
  70
    32
  0
VERTEX
  8
241
  5
193C
 10
83.3266
 20
5.26077
 30
0.000000
  70
    32
  0
VERTEX
  8
241
  5
193D
 10
83.2996
 20
5.25437
 30
0.000000
  70
    32
  0
VERTEX
  8
241
  5
193E
 10
83.2732
 20
5.24769
 30
0.000000
  70
    32
  0
VERTEX
  8
241
  5
193F
 10
83.2475
 20
5.24075
 30
0.000000
  70
    32
  0
VERTEX
  8
241
  5
1940
 10
83.2224
 20
5.23354
 30
0.000000
  70
    32
  0
VERTEX
  8
241
  5
1941
 10
83.1979
 20
5.22608
 30
0.000000
  70
    32
  0
VERTEX
  8
241
  5
1942
 10
83.1742
 20
5.21836
 30
0.000000
  70
    32
  0
VERTEX
  8
241
  5
1943
 10
83.1511
 20
5.21039
 30
0.000000
  70
    32
  0
VERTEX
  8
241
  5
1944
 10
83.1287
 20
5.20217
 30
0.000000
  70
    32
  0
VERTEX
  8
241
  5
1945
 10
83.1071
 20
5.19371
 30
0.000000
  70
    32
  0
VERTEX
  8
241
  5
1946
 10
83.0862
 20
5.18502
 30
0.000000
  70
    32
  0
VERTEX
  8
241
  5
1947
 10
83.0660
 20
5.17610
 30
0.000000
  70
    32
  0
VERTEX
  8
241
  5
1948
 10
83.0466
 20
5.16695
 30
0.000000
  70
    32
  0
VERTEX
  8
241
  5
1949
 10
83.0279
 20
5.15758
 30
0.000000
  70
    32
  0
VERTEX
  8
241
  5
194A
 10
83.0101
 20
5.14800
 30
0.000000
  70
    32
  0
VERTEX
  8
241
  5
194B
 10
82.9930
 20
5.13821
 30
0.000000
  70
    32
  0
VERTEX
  8
241
  5
194C
 10
82.9768
 20
5.12823
 30
0.000000
  70
    32
  0
VERTEX
  8
241
  5
194D
 10
82.9613
 20
5.11804
 30
0.000000
  70
    32
  0
VERTEX
  8
241
  5
194E
 10
82.9467
 20
5.10766
 30
0.000000
  70
    32
  0
VERTEX
  8
241
  5
194F
 10
82.9329
 20
5.09711
 30
0.000000
  70
    32
  0
VERTEX
  8
241
  5
1950
 10
82.9199
 20
5.08637
 30
0.000000
  70
    32
  0
VERTEX
  8
241
  5
1951
 10
82.9078
 20
5.07546
 30
0.000000
  70
    32
  0
VERTEX
  8
241
  5
1952
 10
82.8965
 20
5.06439
 30
0.000000
  70
    32
  0
VERTEX
  8
241
  5
1953
 10
82.8861
 20
5.05316
 30
0.000000
  70
    32
  0
VERTEX
  8
241
  5
1954
 10
82.8766
 20
5.04178
 30
0.000000
  70
    32
  0
VERTEX
  8
241
  5
1955
 10
82.8679
 20
5.03026
 30
0.000000
  70
    32
  0
VERTEX
  8
241
  5
1956
 10
82.8602
 20
5.01860
 30
0.000000
  70
    32
  0
VERTEX
  8
241
  5
1957
 10
82.8533
 20
5.00681
 30
0.000000
  70
    32
  0
VERTEX
  8
241
  5
1958
 10
82.8472
 20
4.99490
 30
0.000000
  70
    32
  0
VERTEX
  8
241
  5
1959
 10
82.8421
 20
4.98287
 30
0.000000
  70
    32
  0
VERTEX
  8
241
  5
195A
 10
82.8379
 20
4.97074
 30
0.000000
  70
    32
  0
VERTEX
  8
241
  5
195B
 10
82.8345
 20
4.95850
 30
0.000000
  70
    32
  0
VERTEX
  8
241
  5
195C
 10
82.8321
 20
4.94617
 30
0.000000
  70
    32
  0
VERTEX
  8
241
  5
195D
 10
82.8306
 20
4.93375
 30
0.000000
  70
    32
  0
SEQEND
  8
241
  5
195E
  0
ENDBLK
  5
C9F
  8
0
  0
BLOCK
  8
0
  2
*D7
 70
     1
 10
0.0
 20
0.0
 30
0.0
  3
*D7
  1

  0
LINE
  5
131F
  8
250
  6
CONTINUOUS
 10
75.0
 20
5.967611299999998
 30
0.0
 11
75.0
 21
25.5
 31
0.0
  0
LINE
  5
1320
  8
250
  6
CONTINUOUS
 10
90.0
 20
6.5
 30
0.0
 11
90.0
 21
25.5
 31
0.0
  0
LINE
  5
1321
  8
250
  6
CONTINUOUS
 10
77.230000000000004
 20
24.5
 30
0.0
 11
87.769999999999996
 21
24.5
 31
0.0
  0
INSERT
  5
1322
  8
250
  6
CONTINUOUS
  2
_OPEN
 10
75.0
 20
24.5
 30
0.0
 41
2.2299999999999991
 42
2.2299999999999991
 43
2.2299999999999991
 50
180.0
  0
INSERT
  5
1323
  8
250
  6
CONTINUOUS
  2
_OPEN
 10
90.0
 20
24.5
 30
0.0
 41
2.2299999999999991
 42
2.2299999999999991
 43
2.2299999999999991
  0
INSERT
  5
1324
  8
240
  2
*U17
 10
0.0
 20
0.0
 30
0.0
  0
POINT
  5
1325
  8
DEFPOINTS
  6
CONTINUOUS
 62
     0
 10
75.0
 20
5.467611299999998
 30
0.0
  0
POINT
  5
1326
  8
DEFPOINTS
  6
CONTINUOUS
 62
     0
 10
90.0
 20
6.0
 30
0.0
  0
POINT
  5
1327
  8
DEFPOINTS
  6
CONTINUOUS
 62
     0
 10
90.0
 20
24.5
 30
0.0
  0
ENDBLK
  5
E3E
  8
0
  0
BLOCK
  8
0
  2
GENAXEH
 70
     0
 10
0.0
 20
0.0
 30
0.0
  3
GENAXEH
  1

  0
LINE
  5
14C4
  8
0
 10
-1.0
 20
0.0
 30
0.0
 11
1.0
 21
0.0
 31
0.0
  0
ENDBLK
  5
14C5
  8
0
  0
BLOCK
  8
0
  2
_OPEN30
 70
     0
 10
0.0
 20
0.0
 30
0.0
  3
_OPEN30
  1

  0
LINE
  5
14E9
  8
0
  6
BYBLOCK
 62
     0
 10
-1.0
 20
0.26794919
 30
0.0
 11
0.0
 21
0.0
 31
0.0
  0
LINE
  5
14EA
  8
0
  6
BYBLOCK
 62
     0
 10
0.0
 20
0.0
 30
0.0
 11
-1.0
 21
-0.26794919
 31
0.0
  0
LINE
  5
14EB
  8
0
  6
BYBLOCK
 62
     0
 10
0.0
 20
0.0
 30
0.0
 11
-1.0
 21
0.0
 31
0.0
  0
ENDBLK
  5
14EC
  8
0
  0
BLOCK
  8
0
  2
A$C705360E2
 70
     0
 10
0.0
 20
0.0
 30
0.0
  3
A$C705360E2
  1

  0
ARC
  5
15F7
  8
250
  6
CONTINUOUS
 10
0.0
 20
26.099999999999909
 30
0.0
 40
13.09958324238548
 50
270.00000000116779
 51
281.99999999881641
1001
GRPNAME
1000
DM700009
1001
ITEMNAME
1000
DI10001R
  0
POLYLINE
  5
15F8
  8
250
  6
CONTINUOUS
 66
     1
 10
0.0
 20
0.0
 30
0.0
1001
GRPNAME
1000
DM700009
1001
ITEMNAME
1000
DI21001G
  0
VERTEX
  5
15F9
  8
250
  6
CONTINUOUS
 10
0.7460599077298014
 20
12.92364036750528
 30
0.0
  0
VERTEX
  5
15FA
  8
250
  6
CONTINUOUS
 10
0.0
 20
13.00041675761444
 30
0.0
  0
VERTEX
  5
15FB
  8
250
  6
CONTINUOUS
 10
0.7405097248095274
 20
13.119350972466661
 30
0.0
  0
SEQEND
  5
15FC
  8
2
  6
CONTINUOUS
  0
LINE
  5
15FD
  8
245
  6
CENTER2
 10
7.1859867059196949
 20
8.5668608749931092
 30
0.0
 11
-2.4588314923257002
 21
11.607860371857861
 31
0.0
  0
ARC
  5
15FE
  8
242
  6
HIDDEN2
 10
1.947109449110151
 20
12.49999999999998
 30
0.0
 40
3.5
 50
90.0
 51
180.0
  0
LINE
  5
15FF
  8
242
  6
HIDDEN2
 10
5.400000000000027
 20
10.178509445464369
 30
0.0
 11
-0.8795257110006531
 21
12.158436296877319
 31
0.0
  0
LINE
  5
1600
  8
242
  6
HIDDEN2
 10
5.4847865064462047
 20
8.0547181123869791
 30
0.0
 11
-1.48093731000921
 21
10.25100239538086
 31
0.0
  0
LINE
  5
1601
  8
241
  6
CONTINUOUS
 10
0.0336854249492475
 20
8.2564953866419302
 30
0.0
 11
5.4869104777541571
 21
8.2564953866419302
 31
0.0
  0
LINE
  5
1602
  8
241
  6
CONTINUOUS
 10
5.400000000000027
 20
10.484000000000011
 30
0.0
 11
-0.9898935266467674
 21
12.498725690017389
 31
0.0
  0
LINE
  5
1603
  8
241
  6
CONTINUOUS
 10
5.4141787369522163
 20
9.9867165688596913
 30
0.0
 11
-1.00759832098516
 21
12.011495097678189
 31
0.0
  0
LINE
  5
1604
  8
241
  6
CONTINUOUS
 10
5.4869104777541571
 20
8.2564953866419302
 30
0.0
 11
-1.0689343782106271
 21
10.323545329806141
 31
0.0
  0
ARC
  5
1605
  8
241
  6
CONTINUOUS
 10
2.5124627545353699
 20
12.5
 30
0.0
 40
3.5
 50
89.999999999999801
 51
177.9189240596489
  0
LINE
  5
1606
  8
241
  6
CONTINUOUS
 10
7.5552532936350678
 20
19.099999999999991
 30
0.0
 11
-7.8044141790457342
 21
19.100000000000009
 31
0.0
1001
GRPNAME
1000
PASTMD04
  0
LINE
  5
1607
  8
241
  6
CONTINUOUS
 10
6.9490175004089201
 20
18.099999999999991
 30
0.0
 11
-7.2563096314952551
 21
18.100000000000009
 31
0.0
1001
GRPNAME
1000
PASTMD04
  0
LINE
  5
1608
  8
240
  6
CONTINUOUS
 10
5.0041883662648203
 20
-0.0000000000000142
 30
0.0
 11
-5.0041883662647839
 21
0.0000000000000142
 31
0.0
1001
GRPNAME
1000
PASTMD04
  0
LINE
  5
1609
  8
2
  6
PHANTOM2
 10
6.3809325127279797
 20
-0.9000000000000198
 30
0.0
 11
-6.5245521185646487
 21
-0.8999999999999914
 31
0.0
1001
GRPNAME
1000
PASTMD04
  0
LINE
  5
160A
  8
2
  6
CENTER2
 10
4.0000000000000071
 20
-1.5
 30
0.0
 11
-3.999999999999992
 21
-1.5
 31
0.0
1001
GRPNAME
1000
PASTMD04
  0
LINE
  5
160B
  8
245
  6
CENTER2
 10
0.0
 20
-9.0736438307653202
 30
0.0
 11
0.0
 21
28.328300926510948
 31
0.0
1001
GRPNAME
1000
PASTMD04
  0
ARC
  5
160C
  8
240
  6
CONTINUOUS
 10
-15.1082901414918
 20
11.702271381365129
 30
0.0
 40
10.0
 50
22.017019952398758
 51
39.538758079240161
1001
GRPNAME
1000
PASTMD04
  0
LINE
  5
160D
  8
242
  6
HIDDEN2
 10
-1.5528905508898481
 20
-0.0000000000000142
 30
0.0
 11
-1.5528905508898481
 21
12.49999999999998
 31
0.0
  0
LINE
  5
160E
  8
241
  6
CONTINUOUS
 10
-0.9999999999999928
 20
-0.0000000000000142
 30
0.0
 11
-0.9999999999999928
 21
10.3018104038442
 31
0.0
  0
LINE
  5
160F
  8
241
  6
CONTINUOUS
 10
-0.5319999999999894
 20
-0.0000000000000142
 30
0.0
 11
-0.5319999999999894
 21
10.154250570648831
 31
0.0
  0
LINE
  5
1610
  8
241
  6
CONTINUOUS
 10
0.0336854249492475
 20
-0.0000000000000142
 30
0.0
 11
0.0336854249492475
 21
9.9758906412758535
 31
0.0
  0
LINE
  5
1611
  8
241
  6
CONTINUOUS
 10
-1.444067323023865
 20
-0.0000000000000142
 30
0.0
 11
-0.9852287932218004
 21
12.62709774485808
 31
0.0
  0
LINE
  5
1612
  8
240
  6
CONTINUOUS
 10
-5.4041662074414063
 20
0.3957897069349911
 30
0.0
 11
-5.4995116354597542
 21
9.4536053686788506
 31
0.0
1001
GRPNAME
1000
PASTMD04
  0
ARC
  5
1613
  8
240
  6
CONTINUOUS
 10
-5.0041883662647839
 20
0.4000000000000199
 30
0.0
 40
0.4000000000000077
 50
180.60309119248251
 51
269.99999999809882
1001
GRPNAME
1000
PASTMD04
  0
LINE
  5
1614
  8
2
  6
CENTER2
 10
-3.749999999999992
 20
-1.5
 30
0.0
 11
-3.7499999999999849
 21
0.0
 31
0.0
1001
GRPNAME
1000
PASTMD04
  0
POLYLINE
  5
1615
  8
250
  6
CONTINUOUS
 66
     1
 10
0.0
 20
0.0
 30
0.0
1001
GRPNAME
1000
DM400003
1001
ITEMNAME
1000
DI21001A
  0
VERTEX
  5
1616
  8
250
  6
CONTINUOUS
 10
-0.4180430496819412
 20
-1.4189672777164899
 30
0.0
  0
VERTEX
  5
1617
  8
250
  6
CONTINUOUS
 10
-0.9883852741236012
 20
-1.9060091106414909
 30
0.0
  0
VERTEX
  5
1618
  8
250
  6
CONTINUOUS
 10
-0.3114212875896172
 20
-1.583178255647709
 30
0.0
  0
SEQEND
  5
1619
  8
2
  6
CONTINUOUS
  0
ARC
  5
161A
  8
240
  6
CONTINUOUS
 10
-11.39999999999997
 20
13.201799382609041
 30
0.0
 40
6.0
 50
359.99999999228282
 51
22.017019917580441
1001
GRPNAME
1000
PASTMD04
  0
LINE
  5
161B
  8
240
  6
CONTINUOUS
 10
-5.3999999999999773
 20
10.110872513724759
 30
0.0
 11
-5.3999999999999702
 21
13.201799382609019
 31
0.0
1001
GRPNAME
1000
PASTMD04
  0
ARC
  5
161C
  8
240
  6
CONTINUOUS
 10
-4.9995393339889773
 20
9.4588682350101152
 30
0.0
 40
0.4999999999999935
 50
169.99999999809981
 51
180.6030911924793
1001
GRPNAME
1000
PASTMD04
  0
LINE
  5
161D
  8
240
  6
CONTINUOUS
 10
-5.4075961234938736
 20
10.024048424891291
 30
0.0
 11
-5.4919432104950801
 21
9.545692323843582
 31
0.0
1001
GRPNAME
1000
PASTMD04
  0
ARC
  5
161E
  8
240
  6
CONTINUOUS
 10
-5.8999999999999773
 20
10.110872513724759
 30
0.0
 40
0.5000000000000132
 50
349.99999998114089
 51
359.999999981141
1001
GRPNAME
1000
PASTMD04
  0
LINE
  5
161F
  8
242
  6
HIDDEN2
 10
-1.730860248750119
 20
11.37833192041977
 30
0.0
 11
-0.8795257110006531
 21
12.158436296877341
 31
0.0
  0
LINE
  5
1620
  8
242
  6
HIDDEN2
 10
-1.730860248750119
 20
11.37833192041977
 30
0.0
 11
-1.4809373100092029
 21
10.25100239538086
 31
0.0
  0
LINE
  5
1621
  8
242
  6
HIDDEN2
 10
-0.8795257110006531
 20
12.158436296877319
 30
0.0
 11
-1.48093731000921
 21
10.25100239538086
 31
0.0
  0
LINE
  5
1622
  8
241
  6
CONTINUOUS
 10
-0.6004137287193032
 20
14.099999999999991
 30
0.0
 11
-5.1317889524089031
 21
14.099999999999991
 31
0.0
1001
GRPNAME
1000
PASTMD04
  0
ARC
  5
1623
  8
240
  6
CONTINUOUS
 10
-7.4999999999999547
 20
19.23397459621561
 30
0.0
 40
0.5
 50
179.99999999742701
 51
209.99999999742769
1001
GRPNAME
1000
PASTMD04
  0
LINE
  5
1624
  8
240
  6
CONTINUOUS
 10
-7.4437644974096902
 20
18.1365718485401
 30
0.0
 11
-7.9330127018921646
 21
18.983974596215621
 31
0.0
1001
GRPNAME
1000
PASTMD04
  0
ARC
  5
1625
  8
240
  6
CONTINUOUS
 10
-7.0107517955174643
 20
18.3865718485401
 30
0.0
 40
0.5000000000000114
 50
210.0000000308502
 51
219.5387580829902
1001
GRPNAME
1000
PASTMD04
  0
ARC
  5
1626
  8
240
  6
CONTINUOUS
 10
15.10829014149186
 20
11.70227138136508
 30
0.0
 40
10.0
 50
140.46124145174011
 51
157.98297905660019
1001
GRPNAME
1000
PASTMD04
  0
LINE
  5
1627
  8
240
  6
CONTINUOUS
 10
5.4041662074414338
 20
0.3957897069349627
 30
0.0
 11
5.499511635459811
 21
9.4536053686788222
 31
0.0
1001
GRPNAME
1000
PASTMD04
  0
ARC
  5
1628
  8
240
  6
CONTINUOUS
 10
5.0041883662648203
 20
0.3999999999999915
 30
0.0
 40
0.4000000000000057
 50
269.9999999948551
 51
359.39690880047402
1001
GRPNAME
1000
PASTMD04
  0
LINE
  5
1629
  8
2
  6
CENTER2
 10
3.7500000000000071
 20
-1.5
 30
0.0
 11
3.7500000000000142
 21
0.0
 31
0.0
1001
GRPNAME
1000
PASTMD04
  0
POLYLINE
  5
162A
  8
250
  6
CONTINUOUS
 66
     1
 10
0.0
 20
0.0
 30
0.0
1001
GRPNAME
1000
DM100015
1001
ITEMNAME
1000
DI21001E
  0
VERTEX
  5
162B
  8
250
  6
CONTINUOUS
 10
9.4602521126386847
 20
8.1186477619648372
 30
0.0
  0
VERTEX
  5
162C
  8
250
  6
CONTINUOUS
 10
9.5904882458889489
 20
8.8572535767239771
 30
0.0
  0
VERTEX
  5
162D
  8
250
  6
CONTINUOUS
 10
9.2735245495833638
 20
8.1775227364465195
 30
0.0
  0
SEQEND
  5
162E
  8
2
  6
CONTINUOUS
  0
LINE
  5
162F
  8
250
  6
CONTINUOUS
 10
9.9083938961383566
 20
8.7570183102225485
 30
0.0
 11
5.5589528251247344
 21
10.12839181221366
 31
0.0
1001
GRPNAME
1000
DM100015
1001
ITEMNAME
1000
DI310013
  0
LINE
  5
1630
  8
250
  6
CONTINUOUS
 10
9.3069822971298137
 20
6.8495844087260869
 30
0.0
 11
5.643739331570913
 21
8.0046004791362702
 31
0.0
1001
GRPNAME
1000
DM100015
1001
ITEMNAME
1000
DI320011
  0
LINE
  5
1631
  8
245
  6
CENTER2
 10
2.4680000000000102
 20
2.5659252082150199
 30
0.0
 11
2.4680000000000102
 21
6.9329393144953988
 31
0.0
  0
CIRCLE
  5
1632
  8
242
  6
CONTINUOUS
 10
2.4680000000000102
 20
5.0759999999999934
 30
0.0
 40
1.25
  0
CIRCLE
  5
1633
  8
241
  6
CONTINUOUS
 10
2.4680000000000102
 20
5.0759999999999934
 30
0.0
 40
1.024999999999999
  0
POLYLINE
  5
1634
  8
250
  6
CONTINUOUS
 66
     1
 10
0.0
 20
0.0
 30
0.0
1001
GRPNAME
1000
DM400003
1001
ITEMNAME
1000
DI22001K
  0
VERTEX
  5
1635
  8
250
  6
CONTINUOUS
 10
4.3122619479085449
 20
1.418967277716461
 30
0.0
  0
VERTEX
  5
1636
  8
250
  6
CONTINUOUS
 10
4.8826041723501978
 20
1.9060091106414629
 30
0.0
  0
VERTEX
  5
1637
  8
250
  6
CONTINUOUS
 10
4.2056401858162138
 20
1.5831782556476801
 30
0.0
  0
SEQEND
  5
1638
  8
2
  6
CONTINUOUS
  0
LINE
  5
1639
  8
245
  6
CENTER2
 10
5.0041883662648337
 20
5.0759999999999934
 30
0.0
 11
0.3548956020175495
 21
5.0759999999999934
 31
0.0
  0
POLYLINE
  5
163A
  8
250
  6
CONTINUOUS
 66
     1
 10
0.0
 20
0.0
 30
0.0
1001
GRPNAME
1000
DM100015
1001
ITEMNAME
1000
DI22001O
  0
VERTEX
  5
163B
  8
250
  6
CONTINUOUS
 10
9.1193127801306701
 20
7.6884254899866562
 30
0.0
  0
VERTEX
  5
163C
  8
250
  6
CONTINUOUS
 10
8.9890766468804042
 20
6.9498196752275163
 30
0.0
  0
VERTEX
  5
163D
  8
250
  6
CONTINUOUS
 10
9.306040343185991
 20
7.629550515504973
 30
0.0
  0
SEQEND
  5
163E
  8
2
  6
CONTINUOUS
  0
LINE
  5
163F
  8
241
  6
CONTINUOUS
 10
6.0789198023947497
 20
15.99999999999998
 30
0.0
 11
2.5124627545353841
 21
16.0
 31
0.0
  0
LINE
  5
1640
  8
240
  6
CONTINUOUS
 10
5.400000000000027
 20
10.11087251372474
 30
0.0
 11
5.4000000000000341
 21
13.201799382609011
 31
0.0
1001
GRPNAME
1000
PASTMD04
  0
ARC
  5
1641
  8
240
  6
CONTINUOUS
 10
4.9995393339890342
 20
9.4588682350100992
 30
0.0
 40
0.4999999999999952
 50
359.39690879723003
 51
9.9999999916100002
1001
GRPNAME
1000
PASTMD04
  0
LINE
  5
1642
  8
240
  6
CONTINUOUS
 10
5.4075961234939243
 20
10.024048424891269
 30
0.0
 11
5.491943210495136
 21
9.5456923238435678
 31
0.0
1001
GRPNAME
1000
PASTMD04
  0
ARC
  5
1643
  8
240
  6
CONTINUOUS
 10
5.900000000000027
 20
10.11087251372474
 30
0.0
 40
0.5
 50
180.0000000085688
 51
190.000000008569
1001
GRPNAME
1000
PASTMD04
  0
TEXT
  5
1644
  8
251
  6
CONTINUOUS
 10
0.1741609400276829
 20
13.28173506955086
 30
0.0
 40
0.9333333333333334
  1
１２゜
 50
6.0000000163570562
 41
1.05
  7
YOKO
 11
0.1741609400276829
 21
13.28173506955086
 31
0.0
 73
     1
1001
GRPNAME
1000
DM700009
1001
ITEMNAME
1000
DI01001P
  0
POLYLINE
  5
1645
  8
250
  6
CONTINUOUS
 66
     1
 10
0.0
 20
0.0
 30
0.0
1001
GRPNAME
1000
DM700009
1001
ITEMNAME
1000
DI22001Q
  0
VERTEX
  5
1646
  8
250
  6
CONTINUOUS
 10
1.9745008764203431
 20
13.24904866956871
 30
0.0
  0
VERTEX
  5
1647
  8
250
  6
CONTINUOUS
 10
2.7235565007689071
 20
13.28667408161672
 30
0.0
  0
VERTEX
  5
1648
  8
250
  6
CONTINUOUS
 10
2.009762501101398
 20
13.056460862972211
 30
0.0
  0
SEQEND
  5
1649
  8
2
  6
CONTINUOUS
  0
LINE
  5
164A
  8
242
  6
HIDDEN2
 10
1.947109449110151
 20
16.0
 30
0.0
 11
2.5124627545353699
 21
16.0
 31
0.0
  0
ARC
  5
164B
  8
240
  6
CONTINUOUS
 10
11.400000000000031
 20
13.201799382608989
 30
0.0
 40
6.0000000000000062
 50
157.9829795830901
 51
179.99999999742781
1001
GRPNAME
1000
PASTMD04
  0
TEXT
  5
164C
  8
251
  6
CONTINUOUS
 10
9.4605380394597844
 20
12.26944012938365
 30
0.0
 40
0.5600000000000001
  1
＋０．２
 50
72.500000000004917
 41
1.05
  7
YOKO
 11
9.4605380394597844
 21
12.26944012938365
 31
0.0
 73
     1
1001
GRPNAME
1000
DM100015
1001
ITEMNAME
1000
DI021008
  0
TEXT
  5
164D
  8
251
  6
CONTINUOUS
 10
10.23940688257083
 20
12.02386372645516
 30
0.0
 40
0.5600000000000001
  1
　０
 50
72.500000000004917
 41
1.05
  7
YOKO
 11
10.23940688257083
 21
12.02386372645516
 31
0.0
 73
     1
1001
GRPNAME
1000
DM100015
1001
ITEMNAME
1000
DI022008
  0
TEXT
  5
164E
  8
251
  6
CONTINUOUS
 10
9.3708595506798318
 20
9.8511476896225219
 30
0.0
 40
0.9333333333333334
  1
φ２
 50
72.500000000004917
 41
1.05
  7
YOKO
 11
9.3708595506798318
 21
9.8511476896225219
 31
0.0
 73
     1
1001
GRPNAME
1000
DM100015
1001
ITEMNAME
1000
DI01001N
  0
ARC
  5
164F
  8
240
  6
CONTINUOUS
 10
7.5000000000000417
 20
19.233974596215571
 30
0.0
 40
0.5000000000000044
 50
329.99999999228118
 51
359.99999999228118
1001
GRPNAME
1000
PASTMD04
  0
LINE
  5
1650
  8
240
  6
CONTINUOUS
 10
7.9330127018922587
 20
18.98397459621556
 30
0.0
 11
7.4437644974098438
 21
18.136571848540171
 31
0.0
1001
GRPNAME
1000
PASTMD04
  0
ARC
  5
1651
  8
240
  6
CONTINUOUS
 10
7.0107517955176197
 20
18.386571848540139
 30
0.0
 40
0.4999999999999962
 50
320.46124190672191
 51
329.99999995886128
1001
GRPNAME
1000
PASTMD04
  0
ENDBLK
  5
1653
  8
0
  0
BLOCK
  8
0
  2
A$C16197F73
 70
     0
 10
0.0
 20
0.0
 30
0.0
  3
A$C16197F73
  1

  0
LINE
  5
16F9
  8
245
 10
-8.489219421327121
 20
-3.4814999999999672
 30
0.0
 11
-2.4132028980949651
 21
-3.4814999999999672
 31
0.0
  0
LINE
  5
16FA
  8
245
 10
-5.6059999999988426
 20
-5.7243512217278996
 30
0.0
 11
-5.6059999999997379
 21
-0.944057265831419
 31
0.0
  0
LINE
  5
16FB
  8
240
 10
-10.86294727579677
 20
0.0000000000000142
 30
0.0
 11
-0.0000000000000995
 21
0.0
 31
0.0
  0
LINE
  5
16FC
  8
241
 10
-10.86294727579677
 20
-0.5874999999999533
 30
0.0
 11
-10.862947275796801
 21
-4.757015161927634
 31
0.0
  0
LINE
  5
16FD
  8
241
 10
-4.6586577594108496
 20
-6.499999999999984
 30
0.0
 11
-0.800000000000054
 21
-6.4999999999999769
 31
0.0
  0
LINE
  5
16FE
  8
240
 10
-0.3490527242018828
 20
-6.499999999999992
 30
0.0
 11
-0.3490527242018402
 21
-2.2059848380722951
 31
0.0
  0
LINE
  5
16FF
  8
240
 10
-0.3490527242018402
 20
-2.2059848380722951
 30
0.0
 11
-0.0000000000000284
 21
-1.789999999999992
 31
0.0
  0
LINE
  5
1700
  8
240
 10
-0.0000000000000284
 20
-1.789999999999992
 30
0.0
 11
0.0
 21
0.0000000000000142
 31
0.0
  0
LINE
  5
1701
  8
240
 10
-0.800000000000054
 20
-6.4999999999999769
 30
0.0
 11
-0.3490527242018828
 21
-6.499999999999992
 31
0.0
  0
LINE
  5
1702
  8
240
 10
-10.86294727579677
 20
-0.5999999999999996
 30
0.0
 11
-10.86294727579677
 21
-0.000000000000143
 31
0.0
  0
LINE
  5
1703
  8
241
 10
-0.3490527242018402
 20
-2.736758061419664
 30
0.0
 11
-4.5292248769986401
 21
-1.79610528822267
 31
0.0
  0
LINE
  5
1704
  8
241
 10
-5.8570196334880498
 20
-1.497315244589527
 30
0.0
 11
-10.86294727579677
 21
-0.3708449589074787
 31
0.0
  0
CIRCLE
  5
1705
  8
241
 10
-5.6059999999993053
 20
-3.4814999999999672
 30
0.0
 40
2.0
  0
LINE
  5
1706
  8
241
 10
-0.3490527242018828
 20
-6.499999999999992
 30
0.0
 11
-5.1302683554662494
 21
-5.4240960471466311
 31
0.0
  0
LINE
  5
1707
  8
241
 10
-6.8680112868257552
 20
-5.0330564804165521
 30
0.0
 11
-10.862947275796801
 21
-4.1340868974878084
 31
0.0
  0
LINE
  5
1708
  8
241
 10
-10.862947275796801
 20
-4.757015161927634
 30
0.0
 11
-11.16770659105334
 21
-5.1202131707611684
 31
0.0
  0
ENDBLK
  5
170A
  8
0
  0
BLOCK
  8
0
  2
*U15
 70
     1
 10
0.0
 20
0.0
 30
0.0
  3
*U15
  1

  0
TEXT
  5
1842
  8
250
 62
    40
 10
100.5
 20
-3.799999999999998
 30
0.0
 40
2.7999999999999989
  1
\U+2205
 50
90.0
  0
TEXT
  5
1843
  8
250
 62
    40
 10
100.5
 20
-1.2666666666666659
 30
0.0
 40
2.799999999999998
  1
12
 50
90.0
  0
ENDBLK
  5
1845
  8
0
  0
BLOCK
  8
0
  2
*U16
 70
     1
 10
0.0
 20
0.0
 30
0.0
  3
*U16
  1

  0
TEXT
  5
1847
  8
250
 62
    40
 10
42.333333333333329
 20
32.5
 30
0.0
 40
2.799999999999998
  1
90
  0
ENDBLK
  5
1849
  8
0
  0
BLOCK
  8
0
  2
*U17
 70
     1
 10
0.0
 20
0.0
 30
0.0
  3
*U17
  1

  0
TEXT
  5
184B
  8
250
 62
    40
 10
79.63333333333334
 20
25.499999999999989
 30
0.0
 40
2.799999999999998
  1
15
  0
ENDBLK
  5
184D
  8
0
  0
BLOCK
  8
0
  2
*U18
 70
     1
 10
0.0
 20
0.0
 30
0.0
  3
*U18
  1

  0
TEXT
  5
184F
  8
250
 62
    40
 10
84.233333333333334
 20
18.5
 30
0.0
 40
2.799999999999998
  1
9
  0
ENDBLK
  5
1851
  8
0
  0
BLOCK
  8
0
  2
*U19
 70
     1
 10
0.0
 20
0.0
 30
0.0
  3
*U19
  1

  0
TEXT
  5
1853
  8
250
 62
    40
 10
-11.5
 20
-3.799999999999998
 30
0.0
 40
2.7999999999999989
  1
\U+2205
 50
90.0
  0
TEXT
  5
1854
  8
250
 62
    40
 10
-11.5
 20
-1.2666666666666651
 30
0.0
 40
2.799999999999998
  1
16
 50
90.0
  0
ENDBLK
  5
1856
  8
0
  0
ENDSEC
  0
SECTION
  2
ENTITIES
  0
INSERT
  5
6E6
  8
245
  2
矢印なし
 10
175.62382697000001
 20
90.551235719999994
 30
0.0
  0
LINE
  5
BAF
  8
250
 10
7.5787339400000002
 20
-18.017036690000001
 30
0.0
 11
-7.3545993999999997
 21
-18.017036690000001
 31
0.0
1001
ITEMNAME
1000
LNSP2
  0
TEXT
  5
C76
  8
241
 10
0.0
 20
45.499999999999993
 30
0.0
 40
5.0
  1
ST16-FCM12091-90
  7
YOKO
 11
0.0
 21
45.499999999999993
 31
0.0
 73
     1
  0
LINE
  5
14FF
  8
240
  6
CONTINUOUS
 10
69.999999990000006
 20
8.0
 30
0.0
 11
2.0000000099999991
 21
8.0
 31
0.0
  0
LINE
  5
1500
  8
240
  6
CONTINUOUS
 10
70.0
 20
-8.0
 30
0.0
 11
2.0000000099999991
 21
-8.0
 31
0.0
  0
LINE
  5
1501
  8
245
  6
CENTER2
 10
-0.7785403500000001
 20
0.0
 30
0.0
 11
91.0
 21
0.0
 31
0.0
  0
LINE
  5
1502
  8
240
  6
CONTINUOUS
 10
0.0
 20
6.8452994599999979
 30
0.0
 11
0.0
 21
0.0
 31
0.0
  0
LINE
  5
1503
  8
241
  6
CONTINUOUS
 10
2.0
 20
0.0
 30
0.0
 11
2.0
 21
8.0
 31
0.0
  0
LINE
  5
1504
  8
240
  6
CONTINUOUS
 10
0.0
 20
-6.8452994599999979
 30
0.0
 11
0.0
 21
0.0
 31
0.0
  0
LINE
  5
1505
  8
241
  6
CONTINUOUS
 10
2.0
 20
0.0
 30
0.0
 11
2.0
 21
-8.0
 31
0.0
  0
LINE
  5
1506
  8
240
  6
CONTINUOUS
 10
0.0
 20
-6.8452994599999979
 30
0.0
 11
2.0000000099999991
 21
-8.0
 31
0.0
  0
LINE
  5
1507
  8
240
  6
CONTINUOUS
 10
0.0
 20
6.8452994599999979
 30
0.0
 11
2.0000000099999991
 21
8.0
 31
0.0
  0
LINE
  5
150E
  8
241
  6
CONTINUOUS
 10
70.0
 20
8.0
 30
0.0
 11
70.0
 21
0.0
 31
0.0
  0
LINE
  5
150F
  8
241
  6
CONTINUOUS
 10
71.0
 20
7.4204792399999979
 30
0.0
 11
71.0
 21
0.0
 31
0.0
  0
ARC
  5
1511
  8
240
  6
CONTINUOUS
 10
77.397728619999981
 20
-15.108290139999999
 30
0.0
 40
10.0
 50
112.01701993
 51
129.7748845399999
  0
LINE
  5
1513
  8
241
  6
CONTINUOUS
 10
71.0
 20
-7.4204792399999979
 30
0.0
 11
71.0
 21
0.0
 31
0.0
  0
LINE
  5
1514
  8
241
  6
CONTINUOUS
 10
70.0
 20
-8.0
 30
0.0
 11
70.0
 21
0.0
 31
0.0
  0
LINE
  5
1515
  8
240
  6
CONTINUOUS
 10
70.99999999000002
 20
-7.422649739999998
 30
0.0
 11
69.999999990000006
 21
-8.0
 31
0.0
  0
ARC
  5
151B
  8
240
  6
CONTINUOUS
 10
77.397728619999981
 20
15.108290139999999
 30
0.0
 40
10.0
 50
230.22509786000001
 51
247.98298007
  0
LINE
  5
151C
  8
240
  6
CONTINUOUS
 10
70.99999999000002
 20
7.422649739999998
 30
0.0
 11
69.999999990000006
 21
8.0
 31
0.0
  0
ARC
  5
16D3
  8
241
  6
CONTINUOUS
 10
76.599999999999994
 20
2.5124627545353531
 30
0.0
 40
3.5
 50
180.0
 51
267.91892405964808
  0
LINE
  5
16D4
  8
240
  6
CONTINUOUS
 10
89.09999999999998
 20
-0.4999999999999743
 30
0.0
 11
89.099999999999966
 21
-5.0041883662647706
 31
0.0
1001
GRPNAME
1000
PASTMD04
  0
LINE
  5
16D5
  8
241
  6
CONTINUOUS
 10
89.099999999999994
 20
-1.444067323023859
 30
0.0
 11
76.472902255141889
 21
-0.9852287932218085
 31
0.0
  0
LINE
  5
16D6
  8
240
  6
CONTINUOUS
 10
88.704210293064975
 20
-5.4041662074413921
 30
0.0
 11
79.599999999999909
 21
-5.4999999999999778
 31
0.0
1001
GRPNAME
1000
PASTMD04
  0
ARC
  5
16D7
  8
240
  6
CONTINUOUS
 10
88.699999999999946
 20
-5.0041883662647821
 30
0.0
 40
0.4000000000000077
 50
270.60309119248251
 51
359.99999999809802
1001
GRPNAME
1000
PASTMD04
  0
ARC
  5
16D8
  8
240
  6
CONTINUOUS
 10
75.898200617390927
 20
-11.39999999999999
 30
0.0
 40
6.0
 50
89.99999999228281
 51
112.0170199175796
1001
GRPNAME
1000
PASTMD04
  0
LINE
  5
16D9
  8
240
  6
CONTINUOUS
 10
79.032871818038174
 20
-5.3999999999999782
 30
0.0
 11
75.898200617390955
 21
-5.3999999999999782
 31
0.0
1001
GRPNAME
1000
PASTMD04
  0
LINE
  5
16DB
  8
240
  6
CONTINUOUS
 10
79.032871818038174
 20
-5.3999999999999782
 30
0.0
 11
79.599999999999909
 21
-5.4999999999999778
 31
0.0
1001
GRPNAME
1000
PASTMD04
  0
LINE
  5
16DD
  8
241
  6
CONTINUOUS
 10
74.999999999999972
 20
-0.6004137287193041
 30
0.0
 11
74.999999999999972
 21
-5.1317889524088969
 31
0.0
1001
GRPNAME
1000
PASTMD04
  0
LINE
  5
16E0
  8
241
  6
CONTINUOUS
 10
73.099999999999994
 20
6.0789198023947488
 30
0.0
 11
73.099999999999966
 21
2.5124627545353899
 31
0.0
  0
LINE
  5
16E1
  8
240
  6
CONTINUOUS
 10
79.032871818038174
 20
5.4000000000000332
 30
0.0
 11
75.898200617390955
 21
5.4000000000000332
 31
0.0
1001
GRPNAME
1000
PASTMD04
  0
LINE
  5
16E3
  8
240
  6
CONTINUOUS
 10
79.032871818038174
 20
5.4000000000000332
 30
0.0
 11
79.137052724203215
 21
5.4183699046315876
 31
0.0
1001
GRPNAME
1000
PASTMD04
  0
ARC
  5
16E5
  8
240
  6
CONTINUOUS
 10
75.898200617390984
 20
11.40000000000002
 30
0.0
 40
6.0000000000000062
 50
247.98297958309109
 51
269.99999999742698
1001
GRPNAME
1000
PASTMD04
  0
LINE
  5
172E
  8
245
 10
81.510780578672865
 20
2.5185000000000319
 30
0.0
 11
87.586797101905034
 21
2.5185000000000319
 31
0.0
  0
LINE
  5
172F
  8
245
 10
84.394000000001157
 20
0.2756487782720995
 30
0.0
 11
84.394000000000247
 21
5.0559427341685801
 31
0.0
  0
LINE
  5
1730
  8
240
 10
79.137052724203215
 20
6.0000000000000142
 30
0.0
 11
89.999999999999915
 21
6.0
 31
0.0
  0
LINE
  5
1731
  8
241
 10
79.137052724203215
 20
5.4183699046315876
 30
0.0
 11
79.137052724203201
 21
1.2429848380723649
 31
0.0
  0
LINE
  5
1732
  8
241
 10
78.788000000001503
 20
-0.4999999999999968
 30
0.0
 11
89.09999999999998
 21
-0.4999999999999743
 31
0.0
  0
LINE
  5
1733
  8
240
 10
89.650947275798117
 20
-0.499999999999992
 30
0.0
 11
89.650947275798146
 21
3.794015161927704
 31
0.0
  0
LINE
  5
1734
  8
240
 10
89.650947275798146
 20
3.794015161927704
 30
0.0
 11
89.999999999999986
 21
4.2100000000000071
 31
0.0
  0
LINE
  5
1735
  8
240
 10
89.999999999999986
 20
4.2100000000000071
 30
0.0
 11
90.0
 21
6.0000000000000142
 31
0.0
  0
LINE
  5
1736
  8
240
 10
89.09999999999998
 20
-0.4999999999999743
 30
0.0
 11
89.650947275798117
 21
-0.499999999999992
 31
0.0
  0
LINE
  5
1737
  8
240
 10
79.137052724203215
 20
5.4183699046315876
 30
0.0
 11
79.137052724203215
 21
5.999999999999857
 31
0.0
  0
LINE
  5
1738
  8
241
 10
89.650947275798146
 20
3.2632419385803351
 30
0.0
 11
85.47077512300136
 21
4.2038947117773287
 31
0.0
  0
LINE
  5
1739
  8
241
 10
84.142980366511935
 20
4.5026847554104723
 30
0.0
 11
79.137052724203215
 21
5.6291550410925213
 31
0.0
  0
CIRCLE
  5
173A
  8
241
 10
84.394000000000673
 20
2.5185000000000319
 30
0.0
 40
2.0
  0
LINE
  5
173B
  8
241
 10
89.650947275798117
 20
-0.499999999999992
 30
0.0
 11
84.869731644533744
 21
0.575903952853369
 31
0.0
  0
LINE
  5
173C
  8
241
 10
83.131988713174252
 20
0.9669435195834479
 30
0.0
 11
79.137052724203201
 21
1.8659131025121909
 31
0.0
  0
LINE
  5
173D
  8
241
 10
79.137052724203201
 20
1.2429848380723649
 30
0.0
 11
78.788000000001503
 21
0.8270000000002017
 31
0.0
  0
LINE
  5
17CC
  8
241
 10
78.788000000001503
 20
0.8270000000002017
 30
0.0
 11
78.788000000001503
 21
-0.4999999999999968
 31
0.0
  0
LINE
  5
17D7
  8
250
 10
75.0
 20
5.967611299999998
 30
0.0
 11
75.0
 21
25.5
 31
0.0
  0
LINE
  5
17D8
  8
250
 10
90.0
 20
6.5
 30
0.0
 11
90.0
 21
25.5
 31
0.0
  0
LINE
  5
17D9
  8
250
 10
77.230000000000004
 20
24.5
 30
0.0
 11
87.769999999999996
 21
24.5
 31
0.0
  0
LINE
  5
17DD
  8
250
 10
81.0
 20
6.5
 30
0.0
 11
81.0
 21
18.5
 31
0.0
  0
LINE
  5
17DE
  8
250
 10
90.0
 20
6.5
 30
0.0
 11
90.0
 21
18.5
 31
0.0
  0
LINE
  5
17DF
  8
250
 10
83.230000000000004
 20
17.5
 30
0.0
 11
87.769999999999996
 21
17.5
 31
0.0
  0
LINE
  5
17E4
  8
250
 10
90.5
 20
6.0
 30
0.0
 11
102.4999999999999
 21
6.0
 31
0.0
  0
LINE
  5
17E5
  8
250
 10
101.5
 20
-3.77
 30
0.0
 11
101.5
 21
3.77
 31
0.0
  0
LINE
  5
17E9
  8
250
 10
0.0
 20
7.3452994599999979
 30
0.0
 11
0.0
 21
32.5
 31
0.0
  0
LINE
  5
17EA
  8
250
 10
90.0
 20
6.5
 30
0.0
 11
90.0
 21
32.5
 31
0.0
  0
LINE
  5
17EB
  8
250
 10
2.2299999999999991
 20
31.5
 30
0.0
 11
87.769999999999996
 21
31.5
 31
0.0
  0
TEXT
  5
17EF
  8
250
 10
-4.9545994000000002
 20
-17.017036690000001
 30
0.0
 40
2.799999999999998
  1
ST16
  7
YOKO
1001
ITEMNAME
1000
LNSP3
1001
ACAD
1000
MTEXTBEGIN
1070
    73
1070
     1
1070
    44
1040
1.0
1070
    74
1070
     0
1000
MTEXTEND
1000
MTEXTBEGIN
1070
    73
1070
     1
1070
    44
1040
1.0
1070
    74
1070
     0
1000
MTEXTEND
1000
MTEXTBEGIN
1070
    73
1070
     1
1070
    44
1040
1.0
1070
    74
1070
     0
1000
MTEXTEND
1000
MTEXTBEGIN
1070
    73
1070
     1
1070
    44
1040
1.0
1070
    74
1070
     0
1000
MTEXTEND
1000
MTEXTBEGIN
1070
    73
1070
     1
1070
    44
1040
1.0
1070
    74
1070
     0
1000
MTEXTEND
  0
LINE
  5
17F2
  8
250
 10
1.5
 20
-8.0
 30
0.0
 11
-11.5
 21
-8.0
 31
0.0
  0
LINE
  5
17F3
  8
250
 10
1.5
 20
8.0
 30
0.0
 11
-11.5
 21
8.0
 31
0.0
  0
LINE
  5
17F4
  8
250
 10
-10.5
 20
-5.7699999999999978
 30
0.0
 11
-10.5
 21
5.7699999999999978
 31
0.0
  0
TEXT
  5
17F8
  8
250
 10
79.63333333333334
 20
25.499999999999989
 30
0.0
 40
2.799999999999998
  1
15
1001
ACAD
1000
MTEXTBEGIN
1070
    73
1070
     1
1070
    44
1040
1.0
1070
    74
1070
     0
1000
MTEXTEND
1000
MTEXTBEGIN
1070
    73
1070
     1
1070
    44
1040
1.0
1070
    74
1070
     0
1000
MTEXTEND
  0
LINE
  5
17F9
  8
250
 10
87.769999999999996
 20
24.87166666666667
 30
0.0
 11
90.0
 21
24.5
 31
0.0
  0
LINE
  5
17FA
  8
250
 10
87.769999999999996
 20
24.12833333333333
 30
0.0
 11
90.0
 21
24.5
 31
0.0
  0
LINE
  5
17FB
  8
250
 10
90.0
 20
24.5
 30
0.0
 11
87.769999999999996
 21
24.5
 31
0.0
  0
LINE
  5
17FC
  8
250
 10
77.230000000000004
 20
24.12833333333333
 30
0.0
 11
75.0
 21
24.5
 31
0.0
  0
LINE
  5
17FD
  8
250
 10
77.230000000000004
 20
24.87166666666667
 30
0.0
 11
75.0
 21
24.5
 31
0.0
  0
LINE
  5
17FE
  8
250
 10
75.0
 20
24.5
 30
0.0
 11
77.230000000000004
 21
24.5
 31
0.0
  0
TEXT
  5
17FF
  8
250
 10
84.233333333333334
 20
18.5
 30
0.0
 40
2.799999999999998
  1
9
1001
ACAD
1000
MTEXTBEGIN
1070
    73
1070
     1
1070
    44
1040
1.0
1070
    74
1070
     0
1000
MTEXTEND
1000
MTEXTBEGIN
1070
    73
1070
     1
1070
    44
1040
1.0
1070
    74
1070
     0
1000
MTEXTEND
  0
LINE
  5
1800
  8
250
 10
87.769999999999996
 20
17.871666666666659
 30
0.0
 11
90.0
 21
17.5
 31
0.0
  0
LINE
  5
1801
  8
250
 10
87.769999999999996
 20
17.12833333333333
 30
0.0
 11
90.0
 21
17.5
 31
0.0
  0
LINE
  5
1802
  8
250
 10
90.0
 20
17.5
 30
0.0
 11
87.769999999999996
 21
17.5
 31
0.0
  0
LINE
  5
1803
  8
250
 10
83.230000000000004
 20
17.12833333333333
 30
0.0
 11
81.0
 21
17.5
 31
0.0
  0
LINE
  5
1804
  8
250
 10
83.230000000000004
 20
17.871666666666659
 30
0.0
 11
81.0
 21
17.5
 31
0.0
  0
LINE
  5
1805
  8
250
 10
81.0
 20
17.5
 30
0.0
 11
83.230000000000004
 21
17.5
 31
0.0
  0
TEXT
  5
1806
  8
250
 10
100.5
 20
-3.799999999999998
 30
0.0
 40
2.7999999999999989
  1
\U+2205
 50
90.0
1001
ACAD
1000
MTEXTBEGIN
1070
    73
1070
     1
1070
    44
1040
1.0
1070
    74
1070
     0
1000
MTEXTEND
1000
MTEXTBEGIN
1070
    73
1070
     1
1070
    44
1040
1.0
1070
    74
1070
     0
1000
MTEXTEND
  0
TEXT
  5
1807
  8
250
 10
100.5
 20
-1.2666666666666659
 30
0.0
 40
2.799999999999998
  1
12
 50
90.0
1001
ACAD
1000
MTEXTBEGIN
1070
    73
1070
     1
1070
    44
1040
1.0
1070
    74
1070
     0
1000
MTEXTEND
1000
MTEXTBEGIN
1070
    73
1070
     1
1070
    44
1040
1.0
1070
    74
1070
     0
1000
MTEXTEND
  0
LINE
  5
1808
  8
250
 10
101.1283333333333
 20
3.77
 30
0.0
 11
101.5
 21
6.0
 31
0.0
  0
LINE
  5
1809
  8
250
 10
101.8716666666666
 20
3.77
 30
0.0
 11
101.5
 21
6.0
 31
0.0
  0
LINE
  5
180A
  8
250
 10
101.5
 20
6.0
 30
0.0
 11
101.5
 21
3.77
 31
0.0
  0
TEXT
  5
180E
  8
250
 10
42.333333333333329
 20
32.5
 30
0.0
 40
2.799999999999998
  1
90
1001
ACAD
1000
MTEXTBEGIN
1070
    73
1070
     1
1070
    44
1040
1.0
1070
    74
1070
     0
1000
MTEXTEND
1000
MTEXTBEGIN
1070
    73
1070
     1
1070
    44
1040
1.0
1070
    74
1070
     0
1000
MTEXTEND
  0
LINE
  5
180F
  8
250
 10
87.769999999999996
 20
31.87166666666667
 30
0.0
 11
90.0
 21
31.5
 31
0.0
  0
LINE
  5
1810
  8
250
 10
87.769999999999996
 20
31.128333333333341
 30
0.0
 11
90.0
 21
31.5
 31
0.0
  0
LINE
  5
1811
  8
250
 10
90.0
 20
31.5
 30
0.0
 11
87.769999999999996
 21
31.5
 31
0.0
  0
LINE
  5
1812
  8
250
 10
2.2299999999999991
 20
31.128333333333341
 30
0.0
 11
0.0
 21
31.5
 31
0.0
  0
LINE
  5
1813
  8
250
 10
2.2299999999999991
 20
31.87166666666667
 30
0.0
 11
0.0
 21
31.5
 31
0.0
  0
LINE
  5
1814
  8
250
 10
0.0
 20
31.5
 30
0.0
 11
2.2299999999999991
 21
31.5
 31
0.0
  0
LINE
  5
1815
  8
250
 10
12.24707276992102
 20
-9.9312366503937053
 30
0.0
 11
7.5787339400000002
 21
-18.017036690000001
 31
0.0
1001
ACAD
1000
DSTYLE
1002
{
1070
     6
1000
OPEN
1070
   343
1005
594
1002
}
  0
LINE
  5
1816
  8
250
 10
11.925199994855401
 20
-9.7454033170472094
 30
0.0
 11
13.36207276999999
 21
-8.0
 31
0.0
  0
LINE
  5
1817
  8
250
 10
12.56894554498664
 20
-10.117069983740199
 30
0.0
 11
13.36207276999999
 21
-8.0
 31
0.0
  0
LINE
  5
1818
  8
250
 10
13.36207276999999
 20
-8.0
 30
0.0
 11
12.24707276992102
 21
-9.9312366503937053
 31
0.0
  0
TEXT
  5
1819
  8
250
 10
-11.5
 20
-3.799999999999998
 30
0.0
 40
2.7999999999999989
  1
\U+2205
 50
90.0
1001
ACAD
1000
MTEXTBEGIN
1070
    73
1070
     1
1070
    44
1040
1.0
1070
    74
1070
     0
1000
MTEXTEND
1000
MTEXTBEGIN
1070
    73
1070
     1
1070
    44
1040
1.0
1070
    74
1070
     0
1000
MTEXTEND
  0
TEXT
  5
181A
  8
250
 10
-11.5
 20
-1.2666666666666651
 30
0.0
 40
2.799999999999998
  1
16
 50
90.0
1001
ACAD
1000
MTEXTBEGIN
1070
    73
1070
     1
1070
    44
1040
1.0
1070
    74
1070
     0
1000
MTEXTEND
1000
MTEXTBEGIN
1070
    73
1070
     1
1070
    44
1040
1.0
1070
    74
1070
     0
1000
MTEXTEND
  0
LINE
  5
181B
  8
250
 10
-10.871666666666661
 20
5.7700000000000014
 30
0.0
 11
-10.5
 21
8.0
 31
0.0
  0
LINE
  5
181C
  8
250
 10
-10.12833333333333
 20
5.7700000000000014
 30
0.0
 11
-10.5
 21
8.0
 31
0.0
  0
LINE
  5
181D
  8
250
 10
-10.5
 20
8.0
 30
0.0
 11
-10.5
 21
5.7700000000000014
 31
0.0
  0
LINE
  5
181E
  8
250
 10
-10.12833333333333
 20
-5.7700000000000014
 30
0.0
 11
-10.5
 21
-8.0
 31
0.0
  0
LINE
  5
181F
  8
250
 10
-10.871666666666661
 20
-5.7700000000000014
 30
0.0
 11
-10.5
 21
-8.0
 31
0.0
  0
LINE
  5
1820
  8
250
 10
-10.5
 20
-8.0
 30
0.0
 11
-10.5
 21
-5.7700000000000014
 31
0.0
  0
VIEWPORT
  5
22
 67
     1
  8
0
 10
261.51769911999992
 20
148.5
 30
0.0
 40
523.03539823000006
 41
297.0
 68
     1
 69
     1
1001
ACAD
1000
MVIEW
1002
{
1070
    16
1010
0.0
1020
0.0
1030
0.0
1010
0.0
1020
0.0
1030
1.0
1040
0.0
1040
297.0
1040
261.51769911999992
1040
148.5
1040
50.0
1040
0.0
1040
0.0
1070
     0
1070
   100
1070
     1
1070
     1
1070
     0
1070
     0
1070
     0
1070
     0
1040
0.0
1040
0.0
1040
0.0
1040
1.0
1040
1.0
1040
10.0
1040
10.0
1070
     0
1002
{
1002
}
1002
}
1001
GENIUS_GENOBJ-N-SDF_13
1002
{
1000
OWNER
1000
GEN
1002
}
1001
GENIUS_GENODEF_13
1002
{
1000
HIER
1070
     0
1002
}
1002
{
1000
MANEDIT
1070
     0
1002
}
1002
{
1000
NOSEL
1070
     0
1002
}
1002
{
1000
BEHIND
1070
     0
1002
}
1002
{
1000
OTHER
1070
     0
1002
}
1002
{
1000
REACTOR
1002
}
1001
GENIUS_GENSCREG_15
1000
PF
1040
1.0
1000
DF
1040
1.0
1000
MIN
1011
0.0000000049999471
1021
0.0
1031
-4.4339155564918143E+124
1021
0.0
1031
0.0
1000
MAX
1011
523.035398235
1021
0.0
1031
-4.4339155564918143E+124
1021
297.0
1031
0.0
1000
FLAGS
1070
     2
  0
ENDSEC
  0
EOF
