  0
SECTION
  2
HEADER
  9
$ACADVER
  1
AC1009
  9
$INSBASE
 10
0.0
 20
0.0
 30
0.0
  9
$EXTMIN
 10
-150.37496811780389
 20
-30.849082673880819
 30
0.0
  9
$EXTMAX
 10
17.306537442062051
 20
24.08872807784239
 30
0.0
  9
$LIMMIN
 10
0.0
 20
0.0
  9
$LIMMAX
 10
297.0
 20
210.0
  9
$ORTHOMODE
 70
     0
  9
$REGENMODE
 70
     1
  9
$FILLMODE
 70
     1
  9
$QTEXTMODE
 70
     0
  9
$MIRRTEXT
 70
     1
  9
$DRAGMODE
 70
     2
  9
$LTSCALE
 40
10.0
  9
$OSMODE
 70
  2597
  9
$ATTMODE
 70
     1
  9
$TEXTSIZE
 40
3.0
  9
$TRACEWID
 40
1.0
  9
$TEXTSTYLE
  7
YOKO
  9
$CLAYER
  8
240
  9
$CELTYPE
  6
BYLAYER
  9
$CECOLOR
 62
   256
  9
$DIMSCALE
 40
1.0
  9
$DIMASZ
 40
2.2299999999999991
  9
$DIMEXO
 40
0.5
  9
$DIMDLI
 40
7.0
  9
$DIMRND
 40
0.0
  9
$DIMDLE
 40
0.0
  9
$DIMEXE
 40
1.0
  9
$DIMTP
 40
0.0
  9
$DIMTM
 40
0.01
  9
$DIMTXT
 40
2.799999999999998
  9
$DIMCEN
 40
0.0
  9
$DIMTSZ
 40
0.0
  9
$DIMTOL
 70
     0
  9
$DIMLIM
 70
     0
  9
$DIMTIH
 70
     0
  9
$DIMTOH
 70
     0
  9
$DIMSE1
 70
     0
  9
$DIMSE2
 70
     0
  9
$DIMTAD
 70
     3
  9
$DIMZIN
 70
     9
  9
$DIMBLK
  1
OPEN
  9
$DIMASO
 70
     1
  9
$DIMSHO
 70
     1
  9
$DIMPOST
  1

  9
$DIMAPOST
  1

  9
$DIMALT
 70
     0
  9
$DIMALTD
 70
     2
  9
$DIMALTF
 40
25.399999999999999
  9
$DIMLFAC
 40
1.0
  9
$DIMTOFL
 70
     1
  9
$DIMTVP
 40
0.0
  9
$DIMTIX
 70
     1
  9
$DIMSOXD
 70
     0
  9
$DIMSAH
 70
     0
  9
$DIMBLK1
  1

  9
$DIMBLK2
  1

  9
$DIMSTYLE
  2
BIGT
  9
$DIMCLRD
 70
   256
  9
$DIMCLRE
 70
   256
  9
$DIMCLRT
 70
    40
  9
$DIMTFAC
 40
1.0
  9
$DIMGAP
 40
1.0
  9
$LUNITS
 70
     2
  9
$LUPREC
 70
     3
  9
$SKETCHINC
 40
1.0
  9
$FILLETRAD
 40
0.2
  9
$AUNITS
 70
     0
  9
$AUPREC
 70
     3
  9
$MENU
  1
.
  9
$ELEVATION
 40
0.0
  9
$PELEVATION
 40
0.0
  9
$THICKNESS
 40
0.0
  9
$LIMCHECK
 70
     0
  9
$BLIPMODE
 70
     0
  9
$CHAMFERA
 40
0.25
  9
$CHAMFERB
 40
0.25
  9
$SKPOLY
 70
     0
  9
$TDCREATE
 40
2454678.710507269
  9
$TDUPDATE
 40
2454678.730689202
  9
$TDINDWG
 40
0.0070270949
  9
$TDUSRTIMER
 40
0.0070270949
  9
$USRTIMER
 70
     1
  9
$ANGBASE
 50
0.0
  9
$ANGDIR
 70
     0
  9
$PDMODE
 70
     1
  9
$PDSIZE
 40
0.0
  9
$PLINEWID
 40
0.0
  9
$COORDS
 70
     2
  9
$SPLFRAME
 70
     0
  9
$SPLINETYPE
 70
     6
  9
$SPLINESEGS
 70
     4
  9
$ATTDIA
 70
     1
  9
$ATTREQ
 70
     1
  9
$HANDLING
 70
     1
  9
$HANDSEED
  5
1AF4
  9
$SURFTAB1
 70
     6
  9
$SURFTAB2
 70
     6
  9
$SURFTYPE
 70
     6
  9
$SURFU
 70
     6
  9
$SURFV
 70
     6
  9
$UCSNAME
  2

  9
$UCSORG
 10
0.0
 20
0.0
 30
0.0
  9
$UCSXDIR
 10
1.0
 20
0.0
 30
0.0
  9
$UCSYDIR
 10
0.0
 20
1.0
 30
0.0
  9
$PUCSNAME
  2

  9
$PUCSORG
 10
0.0
 20
0.0
 30
0.0
  9
$PUCSXDIR
 10
1.0
 20
0.0
 30
0.0
  9
$PUCSYDIR
 10
0.0
 20
1.0
 30
0.0
  9
$USERI1
 70
     1
  9
$USERI2
 70
     0
  9
$USERI3
 70
     0
  9
$USERI4
 70
     0
  9
$USERI5
 70
     0
  9
$USERR1
 40
0.0
  9
$USERR2
 40
0.0
  9
$USERR3
 40
0.0
  9
$USERR4
 40
0.0
  9
$USERR5
 40
0.0
  9
$WORLDVIEW
 70
     1
  9
$SHADEDGE
 70
     3
  9
$SHADEDIF
 70
    70
  9
$TILEMODE
 70
     1
  9
$MAXACTVP
 70
    16
  9
$PLIMCHECK
 70
     0
  9
$PEXTMIN
 10
1.0000000000000000E+020
 20
1.0000000000000000E+020
 30
1.0000000000000000E+020
  9
$PEXTMAX
 10
-1.0000000000000000E+020
 20
-1.0000000000000000E+020
 30
-1.0000000000000000E+020
  9
$PLIMMIN
 10
0.0
 20
0.0
  9
$PLIMMAX
 10
420.0
 20
297.0
  9
$UNITMODE
 70
     0
  9
$VISRETAIN
 70
     1
  9
$PLINEGEN
 70
     0
  9
$PSLTSCALE
 70
     1
  0
ENDSEC
  0
SECTION
  2
TABLES
  0
TABLE
  2
VPORT
 70
     5
  0
VPORT
  2
*ACTIVE
 70
     0
 10
0.0
 20
0.0
 11
1.0
 21
1.0
 12
-66.52544358957725
 22
-3.386993045437833
 13
0.0
 23
0.0
 14
7.0
 24
7.0
 15
7.0
 25
7.0
 16
0.0
 26
0.0
 36
1.0
 17
0.0
 27
0.0
 37
0.0
 40
113.3800317944432
 41
1.4864532019704431
 42
50.0
 43
0.0
 44
0.0
 50
0.0
 51
0.0
 71
     0
 72
  2000
 73
     1
 74
     0
 75
     0
 76
     0
 77
     0
 78
     0
  0
ENDTAB
  0
TABLE
  2
LTYPE
 70
    21
  0
LTYPE
  2
CONTINUOUS
 70
     0
  3
Solid line
 72
    65
 73
     0
 40
0.0
  0
LTYPE
  2
CENTER2
 70
     0
  3
___ _ ___ _ ___ _ ___ _ ___ _ ___ _ ___ _ ___ _
 72
    65
 73
     4
 40
1.125
 49
0.75
 49
-0.125
 49
0.125
 49
-0.125
  0
LTYPE
  2
HIDDEN2
 70
     0
  3
_ _ _ _ _ _ _ _ _ _ _ _ _ _ _ _ _ _ _ _ _ _ _ _
 72
    65
 73
     2
 40
0.1875
 49
0.125
 49
-0.0625
  0
LTYPE
  2
PHANTOM2
 70
     0
  3
___ _ _ ___ _ _ ___ _ _ ___ _ _ ___ _ _ ___ _ _
 72
    65
 73
     6
 40
1.25
 49
0.625
 49
-0.125
 49
0.125
 49
-0.125
 49
0.125
 49
-0.125
  0
LTYPE
  2
CENTER
 70
     0
  3
____ _ ____ _ ____ _ ____ _ ____ _ ____ _ ____ 
 72
    65
 73
     4
 40
2.0
 49
1.25
 49
-0.25
 49
0.25
 49
-0.25
  0
LTYPE
  2
AMCONSTR
 70
     0
  3
_______________________
 72
    65
 73
     2
 40
9999.0
 49
9999.0
 49
0.0
  0
LTYPE
  2
HIDDEN
 70
     0
  3
Hidden __ __ __ __ __ __ __ __ __ __ __ __ __ _
 72
    65
 73
     2
 40
9.5249999999999986
 49
6.3499999999999979
 49
-3.174999999999998
  0
LTYPE
  2
AMZIGZAG2
 70
     0
  3
/\/-/\/-/\/-/\/-/\/-/\/
 72
    65
 73
     2
 40
0.4401
 49
0.0001
 49
-0.4400000000000001
  0
LTYPE
  2
ACANSTGB
 70
     0
  3
__ . . __ . .
 72
    65
 73
     6
 40
0.35433070866
 49
0.15748031496
 49
-0.03937007874
 49
0.03937007874
 49
-0.03937007874
 49
0.03937007874
 49
-0.03937007874
  0
LTYPE
  2
ACANSTGL
 70
     0
  3
_ _ _ _ _
 72
    65
 73
     2
 40
0.11811023622
 49
0.07874015748
 49
-0.03937007874
  0
ENDTAB
  0
TABLE
  2
LAYER
 70
     8
  0
LAYER
  2
0
 70
     0
 62
     7
  6
CONTINUOUS
  0
LAYER
  2
240
 70
     0
 62
     4
  6
CONTINUOUS
  0
LAYER
  2
DEFPOINTS
 70
     0
 62
     7
  6
CONTINUOUS
  0
LAYER
  2
245
 70
     0
 62
     2
  6
CENTER2
  0
LAYER
  2
241
 70
     0
 62
   211
  6
CONTINUOUS
  0
LAYER
  2
246
 70
     0
 62
     3
  6
PHANTOM2
  0
LAYER
  2
247
 70
     0
 62
    60
  6
CONTINUOUS
  0
LAYER
  2
250
 70
     0
 62
     3
  6
CONTINUOUS
  0
ENDTAB
  0
TABLE
  2
STYLE
 70
     9
  0
STYLE
  2
STANDARD
 70
     0
 40
0.0
 41
1.0
 50
0.0
 71
     0
 42
3.0
  3
romans.shx
  4
extfont.shx
  0
STYLE
  2
YOKO
 70
     0
 40
0.0
 41
1.0
 50
0.0
 71
     0
 42
3.0
  3
romans.shx
  4
extfont.shx
  0
STYLE
  2

 70
     1
 40
0.0
 41
1.0
 50
0.0
 71
     0
 42
3.0
  3
ltypeshp.shx
  4

  0
STYLE
  2
ACANSTS
 70
     0
 40
1.0
 41
1.0
 50
0.0
 71
     0
 42
3.0
  3
romans.shx
  4
extfont.shx
  0
STYLE
  2
ACANSGDT
 70
     0
 40
0.0
 41
1.0
 50
0.0
 71
     0
 42
3.0
  3
amgdtans.shx
  4

  0
ENDTAB
  0
TABLE
  2
VIEW
 70
     0
  0
ENDTAB
  0
TABLE
  2
UCS
 70
     0
  0
ENDTAB
  0
TABLE
  2
APPID
 70
    31
  0
APPID
  2
ACAD
 70
     0
  0
APPID
  2
GLOBAL
 70
     0
  0
APPID
  2
DETAIL
 70
     0
  0
APPID
  2
GRPNAME
 70
     0
  0
APPID
  2
GPARA
 70
     0
  0
APPID
  2
MCAD_NO_VIS
 70
     0
  0
APPID
  2
ACAD_TEMP_GRAPHIC
 70
     0
  0
APPID
  2
ACATTRIBSERVICES
 70
     0
  0
APPID
  2
GENIUS_GENSCREG_15
 70
     0
  0
APPID
  2
GENIUS_GENODEF_13
 70
     0
  0
APPID
  2
GENIUS_GENOBJ-N-SDF_13
 70
     0
  0
APPID
  2
GENIUS_GENREC_14
 70
     0
  0
APPID
  2
GENIUS_GENOBJ-N-REC_13
 70
     0
  0
APPID
  2
GENIUS_GENDIMSH_14
 70
     0
  0
APPID
  2
GENIUS_GENOBJ-N-DIM_13
 70
     0
  0
APPID
  2
GENIUS_GENDIM_13
 70
     0
  0
APPID
  2
GENIUS_GENDTOL_13
 70
     0
  0
APPID
  2
GENIUS_GENOLIS_13
 70
     0
  0
APPID
  2
GENIUS_GENOENT_13
 70
     0
  0
APPID
  2
GENIUS_GENOBJ-F-FEM_13
 70
     0
  0
APPID
  2
GENIUS_GENOREF_13
 70
     0
  0
APPID
  2
GENIUS_GEFFEM_13
 70
     0
  0
APPID
  2
GENIUS_GEFFEMP_13
 70
     0
  0
APPID
  2
AD_DRAW
 70
     0
  0
APPID
  2
DESIGNERASSEMBLIES
 70
     0
  0
APPID
  2
ACADM_DIM_EDIT
 70
     0
  0
APPID
  2
AMDT_DM_ADJ
 70
     0
  0
APPID
  2
GENIUS_GENOBJ-N-FIL_13
 70
     0
  0
APPID
  2
HATCH_TYPE
 70
     0
  0
APPID
  2
HATCH_DISPLAY
 70
     0
  0
APPID
  2
HATCH_DISTANCE
 70
     0
  0
ENDTAB
  0
TABLE
  2
DIMSTYLE
 70
    29
  0
DIMSTYLE
  2
BIGT
 70
     0
  3

  4

  5

  6

  7

 40
1.0
 41
2.2299999999999991
 42
0.5
 43
7.0
 44
1.0
 45
0.0
 46
0.0
 47
0.0
 48
0.01
140
2.799999999999998
141
0.0
142
0.0
143
25.399999999999999
144
1.0
145
0.0
146
1.0
147
1.0
 71
     0
 72
     0
 73
     0
 74
     0
 75
     0
 76
     0
 77
     3
 78
     9
170
     0
171
     2
172
     1
173
     0
174
     1
175
     0
176
   256
177
   256
178
    40
  0
DIMSTYLE
  2
AM_ANSI
 70
     0
  3

  4
mm
  5

  6

  7

 40
1.0
 41
0.1
 42
0.05
 43
0.5
 44
0.1
 45
0.0
 46
0.0
 47
0.1
 48
0.1
140
0.12
141
0.0
142
0.0
143
25.399999999999999
144
1.0
145
0.0
146
0.71
147
0.06
 71
     0
 72
     0
 73
     1
 74
     1
 75
     0
 76
     0
 77
     0
 78
     7
170
     0
171
     2
172
     0
173
     0
174
     0
175
     0
176
   256
177
   256
178
     2
  0
DIMSTYLE
  2
AM_ANSI$3
 70
     0
  3

  4
mm
  5

  6

  7

 40
1.0
 41
0.1
 42
0.05
 43
0.5
 44
0.1
 45
0.0
 46
0.0
 47
0.1
 48
0.1
140
0.12
141
0.0
142
0.0
143
25.399999999999999
144
1.0
145
0.0
146
0.71
147
0.06
 71
     0
 72
     0
 73
     1
 74
     1
 75
     0
 76
     0
 77
     0
 78
     7
170
     0
171
     2
172
     0
173
     0
174
     0
175
     0
176
   256
177
   256
178
     2
  0
DIMSTYLE
  2
AM_ANSI$4
 70
     0
  3

  4
mm
  5

  6

  7

 40
1.0
 41
0.1
 42
0.05
 43
0.5
 44
0.1
 45
0.0
 46
0.0
 47
0.1
 48
0.1
140
0.12
141
0.0
142
0.0
143
25.399999999999999
144
1.0
145
0.0
146
0.71
147
0.06
 71
     0
 72
     0
 73
     1
 74
     1
 75
     0
 76
     0
 77
     0
 78
     7
170
     0
171
     2
172
     0
173
     0
174
     0
175
     0
176
   256
177
   256
178
     2
  0
DIMSTYLE
  2
AM_ANSI$7
 70
     0
  3

  4
mm
  5

  6

  7

 40
1.0
 41
0.1
 42
0.05
 43
0.5
 44
0.1
 45
0.0
 46
0.0
 47
0.1
 48
0.1
140
0.24
141
0.0
142
0.0
143
25.399999999999999
144
1.0
145
0.0
146
0.71
147
0.06
 71
     0
 72
     0
 73
     1
 74
     1
 75
     0
 76
     0
 77
     0
 78
     7
170
     0
171
     2
172
     0
173
     0
174
     0
175
     0
176
   256
177
   256
178
     2
  0
DIMSTYLE
  2
AM_ANSI$SF
 70
     0
  3

  4
mm
  5

  6

  7

 40
1.0
 41
0.1
 42
0.05
 43
0.5
 44
0.1
 45
0.0
 46
0.0
 47
0.1
 48
0.1
140
0.12
141
0.0
142
0.0
143
25.399999999999999
144
1.0
145
0.0
146
0.71
147
0.06
 71
     0
 72
     0
 73
     1
 74
     1
 75
     1
 76
     1
 77
     0
 78
     7
170
     0
171
     2
172
     0
173
     0
174
     0
175
     0
176
   256
177
   256
178
     2
  0
DIMSTYLE
  2
AM_ANSI$SH
 70
     0
  3

  4
mm
  5

  6
GENAXEH
  7

 40
1.0
 41
0.1
 42
0.05
 43
0.5
 44
0.1
 45
0.0
 46
0.0
 47
0.1
 48
0.1
140
0.12
141
0.0
142
0.0
143
25.399999999999999
144
1.0
145
0.0
146
0.71
147
0.06
 71
     0
 72
     0
 73
     1
 74
     1
 75
     1
 76
     1
 77
     0
 78
     7
170
     0
171
     2
172
     0
173
     1
174
     0
175
     0
176
   256
177
   256
178
     2
  0
ENDTAB
  0
ENDSEC
  0
SECTION
  2
BLOCKS
  0
BLOCK
  8
0
  2
$MODEL_SPACE
 70
     0
 10
0.0
 20
0.0
 30
0.0
  3
$MODEL_SPACE
  1

  0
ENDBLK
  5
185A
  8
0
  0
BLOCK
 67
     1
  8
0
  2
$PAPER_SPACE
 70
     0
 10
0.0
 20
0.0
 30
0.0
  3
$PAPER_SPACE
  1

  0
ENDBLK
  5
1856
 67
     1
  8
0
  0
BLOCK
  8
0
  2
_OPEN
 70
     0
 10
0.0
 20
0.0
 30
0.0
  3
_OPEN
  1

  0
LINE
  5
595
  8
0
  6
BYBLOCK
 62
     0
 10
-1.0
 20
0.1666666666666666
 30
0.0
 11
0.0
 21
0.0
 31
0.0
  0
LINE
  5
596
  8
0
  6
BYBLOCK
 62
     0
 10
-1.0
 20
-0.1666666666666666
 30
0.0
 11
0.0
 21
0.0
 31
0.0
  0
LINE
  5
597
  8
0
  6
BYBLOCK
 62
     0
 10
0.0
 20
0.0
 30
0.0
 11
-1.0
 21
0.0
 31
0.0
  0
ENDBLK
  5
599
  8
0
  0
BLOCK
  8
0
  2
GENAXEH
 70
     0
 10
0.0
 20
0.0
 30
0.0
  3
GENAXEH
  1

  0
LINE
  5
6E8
  8
0
 10
-1.0
 20
0.0
 30
0.0
 11
1.0
 21
0.0
 31
0.0
  0
ENDBLK
  5
6EA
  8
0
  0
BLOCK
  8
0
  2
*X28
 70
     1
 10
0.0
 20
0.0
 30
0.0
  3
*X28
  1

  0
LINE
  5
19FF
  8
0
 62
     0
 10
4.2731626460786929
 20
-5.8571670211471281
 30
0.0
 11
3.510115154589633
 21
-5.094119529658065
 31
0.0
  0
LINE
  5
1A00
  8
0
 62
     0
 10
3.4940719416106631
 20
-5.3367076929658772
 30
0.0
 11
3.188391765925398
 21
-5.03102751728062
 31
0.0
  0
LINE
  5
1A01
  8
0
 62
     0
 10
4.336254658456145
 20
-6.1788904098113671
 30
0.0
 11
4.030574482770878
 21
-5.8732102341260974
 31
0.0
  0
LINE
  5
1A02
  8
0
 62
     0
 10
3.161466872339401
 20
-5.2627339999814282
 30
0.0
 11
2.940339387738502
 21
-5.0416065153805283
 31
0.0
  0
LINE
  5
1A03
  8
0
 62
     0
 10
4.3383903626899851
 20
-6.4396574903320083
 30
0.0
 11
4.1045481757553324
 21
-6.2058153033973564
 31
0.0
  0
LINE
  5
1A04
  8
0
 62
     0
 10
2.9211994892945912
 20
-5.281097993223403
 30
0.0
 11
2.7312050109658839
 21
-5.091103514894697
 31
0.0
  0
LINE
  5
1A05
  8
0
 62
     0
 10
4.338390362689978
 20
-6.6982888666187872
 30
0.0
 11
4.105585681181485
 21
-6.4654841851102951
 31
0.0
  0
LINE
  5
1A06
  8
0
 62
     0
 10
2.7241461983551192
 20
-5.342676078570725
 30
0.0
 11
2.549611000613679
 21
-5.1681408808292844
 31
0.0
  0
LINE
  5
1A07
  8
0
 62
     0
 10
4.338390362689978
 20
-6.9569202429055821
 30
0.0
 11
4.105585681181485
 21
-6.7241155613970891
 31
0.0
  0
LINE
  5
1A08
  8
0
 62
     0
 10
2.5574155323842751
 20
-5.4345767888866652
 30
0.0
 11
2.3904879894348241
 21
-5.2676492459372142
 31
0.0
  0
LINE
  5
1A09
  8
0
 62
     0
 10
4.3383903626899851
 20
-7.2155516191923716
 30
0.0
 11
4.105585681181485
 21
-6.9827469376838751
 31
0.0
  0
LINE
  5
1A0A
  8
0
 62
     0
 10
2.4161255819181502
 20
-5.5519182147073352
 30
0.0
 11
2.251507783582793
 21
-5.3873004163719713
 31
0.0
  0
LINE
  5
1A0B
  8
0
 62
     0
 10
4.3383903626899851
 20
-7.4741829954791603
 30
0.0
 11
4.105585681181493
 21
-7.2413783139706691
 31
0.0
  0
LINE
  5
1A0C
  8
0
 62
     0
 10
2.2989457159389901
 20
-5.6933697250149731
 30
0.0
 11
2.1319866093836382
 21
-5.526410618459618
 31
0.0
  0
LINE
  5
1A0D
  8
0
 62
     0
 10
4.3383903626899851
 20
-7.7328143717659659
 30
0.0
 11
4.105585681181477
 21
-7.5000096902574622
 31
0.0
  0
LINE
  5
1A0E
  8
0
 62
     0
 10
2.207225207815394
 20
-5.8602805931781683
 30
0.0
 11
2.03261766024983
 21
-5.6856730456126012
 31
0.0
  0
LINE
  5
1A0F
  8
0
 62
     0
 10
4.338390362689978
 20
-7.9914457480527474
 30
0.0
 11
4.105585681181485
 21
-7.758641066544258
 31
0.0
  0
LINE
  5
1A10
  8
0
 62
     0
 10
2.1458777492053511
 20
-6.0575645108549052
 30
0.0
 11
1.955742399326019
 21
-5.8674291609755747
 31
0.0
  0
LINE
  5
1A11
  8
0
 62
     0
 10
4.338390362689978
 20
-8.2500771243395317
 30
0.0
 11
4.105585681181485
 21
-8.0172724428310431
 31
0.0
  0
LINE
  5
1A12
  8
0
 62
     0
 10
2.127884606905837
 20
-6.298202744842186
 30
0.0
 11
1.9064556573934901
 21
-6.0767737953298466
 31
0.0
  0
LINE
  5
1A13
  8
0
 62
     0
 10
4.3383903626899851
 20
-8.5087085006263337
 30
0.0
 11
4.105585681181485
 21
-8.2759038191178362
 31
0.0
  0
LINE
  5
1A14
  8
0
 62
     0
 10
2.0859571237484991
 20
-6.514906637971646
 30
0.0
 11
1.896203437136684
 21
-6.325152951359831
 31
0.0
  0
LINE
  5
1A15
  8
0
 62
     0
 10
4.338390362689978
 20
-8.7673398769131232
 30
0.0
 11
4.105585681181485
 21
-8.5345351954046365
 31
0.0
  0
LINE
  5
1A16
  8
0
 62
     0
 10
4.338390362689978
 20
-9.0259712531999217
 30
0.0
 11
4.105585681181485
 21
-8.7931665716914225
 31
0.0
  0
LINE
  5
1A17
  8
0
 62
     0
 10
4.338390362689978
 20
-9.2846026294867023
 30
0.0
 11
4.105585681181485
 21
-9.0517979479782156
 31
0.0
  0
LINE
  5
1A18
  8
0
 62
     0
 10
4.338390362689978
 20
-9.5432340057735008
 30
0.0
 11
4.105585681181485
 21
-9.3104293242650016
 31
0.0
  0
LINE
  5
1A19
  8
0
 62
     0
 10
4.3383903626899851
 20
-9.8018653820602886
 30
0.0
 11
4.105585681181485
 21
-9.5690607005517911
 31
0.0
  0
LINE
  5
1A1A
  8
0
 62
     0
 10
4.3383903626899851
 20
-10.06049675834708
 30
0.0
 11
4.105585681181493
 21
-9.8276920768385896
 31
0.0
  0
LINE
  5
1A1B
  8
0
 62
     0
 10
4.338390362689978
 20
-10.31912813463388
 30
0.0
 11
4.105585681181485
 21
-10.086323453125379
 31
0.0
  0
LINE
  5
1A1C
  8
0
 62
     0
 10
4.338390362689978
 20
-10.577759510920661
 30
0.0
 11
4.105585681181485
 21
-10.34495482941217
 31
0.0
  0
LINE
  5
1A1D
  8
0
 62
     0
 10
4.338390362689978
 20
-10.836390887207459
 30
0.0
 11
4.105585681181485
 21
-10.60358620569896
 31
0.0
  0
LINE
  5
1A1E
  8
0
 62
     0
 10
4.3331743680063184
 20
-11.08980626881058
 30
0.0
 11
4.105585681181485
 21
-10.862217581985741
 31
0.0
  0
LINE
  5
1A1F
  8
0
 62
     0
 10
4.2927234683474307
 20
-11.30798674543848
 30
0.0
 11
4.0963826280125373
 21
-11.11164590510359
 31
0.0
  0
LINE
  5
1A20
  8
0
 62
     0
 10
4.2225300722551111
 20
-11.496424725632959
 30
0.0
 11
4.0447379717610339
 21
-11.31863262513888
 31
0.0
  0
LINE
  5
1A21
  8
0
 62
     0
 10
4.1288343457024572
 20
-11.661360375367099
 30
0.0
 11
3.960418835935497
 21
-11.492944865600141
 31
0.0
  0
LINE
  5
1A22
  8
0
 62
     0
 10
4.0145495478446014
 20
-11.80570695379603
 30
0.0
 11
3.849766277175481
 21
-11.640923683126911
 31
0.0
  0
LINE
  5
1A23
  8
0
 62
     0
 10
3.880757097170298
 20
-11.93054587940852
 30
0.0
 11
3.7149104705198961
 21
-11.76469925275811
 31
0.0
  0
LINE
  5
1A24
  8
0
 62
     0
 10
3.7271431977453031
 20
-12.03556335627032
 30
0.0
 11
3.555244829520197
 21
-11.86366498804521
 31
0.0
  0
LINE
  5
1A25
  8
0
 62
     0
 10
2.1267631408982761
 20
-10.69381467571009
 30
0.0
 11
1.9433546960822801
 21
-10.51040623089408
 31
0.0
  0
LINE
  5
1A26
  8
0
 62
     0
 10
3.551878254361716
 20
-12.11892978917353
 30
0.0
 11
3.367040741413724
 21
-11.93409227622552
 31
0.0
  0
LINE
  5
1A27
  8
0
 62
     0
 10
2.1267631408982761
 20
-10.95244605199688
 30
0.0
 11
1.8939584533982801
 21
-10.719641364496891
 31
0.0
  0
LINE
  5
1A28
  8
0
 62
     0
 10
3.3508120748548631
 20
-12.17649498595347
 30
0.0
 11
3.140443698089034
 21
-11.96612660918764
 31
0.0
  0
LINE
  5
1A29
  8
0
 62
     0
 10
2.1649602340683489
 20
-11.24927452145374
 30
0.0
 11
1.893959103096269
 21
-10.978273390481659
 31
0.0
  0
LINE
  5
1A2A
  8
0
 62
     0
 10
3.1149140586925621
 20
-12.19922834607795
 30
0.0
 11
2.8439129277204782
 21
-11.928227215105871
 31
0.0
  0
LINE
  5
1A2B
  8
0
 62
     0
 10
2.8198068968923562
 20
-12.162752560564529
 30
0.0
 11
1.930434888609696
 21
-11.27338055228187
 31
0.0
  0
ENDBLK
  5
1A2C
  8
0
  0
BLOCK
  8
0
  2
*X29
 70
     1
 10
0.0
 20
0.0
 30
0.0
  3
*X29
  1

  0
LINE
  5
1A2F
  8
0
 62
     0
 10
3.9891833374314549
 20
-8.6767642279413888
 30
0.0
 11
3.9699999022341181
 21
-8.6575807927440565
 31
0.0
  0
LINE
  5
1A30
  8
0
 62
     0
 10
3.9891833374314549
 20
-8.9353956042281784
 30
0.0
 11
3.6073930521298831
 21
-8.5536053189266141
 31
0.0
  0
LINE
  5
1A31
  8
0
 62
     0
 10
3.9748178468112911
 20
-9.179661489894805
 30
0.0
 11
3.2447862020256362
 21
-8.4496298451091505
 31
0.0
  0
LINE
  5
1A32
  8
0
 62
     0
 10
3.6122095777595682
 20
-9.0756845971298823
 30
0.0
 11
2.8821793519213919
 21
-8.3456543712917011
 31
0.0
  0
LINE
  5
1A33
  8
0
 62
     0
 10
3.249601308707851
 20
-8.9717077043649454
 30
0.0
 11
2.5195725018171511
 21
-8.2416788974742428
 31
0.0
  0
LINE
  5
1A34
  8
0
 62
     0
 10
2.8869930396561161
 20
-8.8677308116000084
 30
0.0
 11
2.1569656517128979
 21
-8.1377034236567951
 31
0.0
  0
LINE
  5
1A35
  8
0
 62
     0
 10
2.52438477060439
 20
-8.763753918835075
 30
0.0
 11
1.8939584533982801
 21
-8.1333276016289702
 31
0.0
  0
LINE
  5
1A36
  8
0
 62
     0
 10
2.1617765015526582
 20
-8.659777026070131
 30
0.0
 11
1.8939584533982901
 21
-8.3919589779157633
 31
0.0
  0
LINE
  5
1A37
  8
0
 62
     0
 10
1.918015068738405
 20
-8.674646969542664
 30
0.0
 11
1.8939584533982801
 21
-8.6505903542025422
 31
0.0
  0
ENDBLK
  5
1A38
  8
0
  0
BLOCK
  8
0
  2
*X30
 70
     1
 10
0.0
 20
0.0
 30
0.0
  3
*X30
  1

  0
LINE
  5
1A3B
  8
0
 62
     0
 10
3.868211204180473
 20
-7.0040038369696571
 30
0.0
 11
3.649960323505288
 21
-6.7857529562944654
 31
0.0
  0
LINE
  5
1A3C
  8
0
 62
     0
 10
3.9856529491582982
 20
-7.380076958234282
 30
0.0
 11
3.2873524678243831
 21
-6.6817764769003682
 31
0.0
  0
LINE
  5
1A3D
  8
0
 62
     0
 10
3.617185728354428
 20
-7.2702411137172014
 30
0.0
 11
2.924744612143483
 21
-6.5777999975062524
 31
0.0
  0
LINE
  5
1A3E
  8
0
 62
     0
 10
3.9698966386926511
 20
-7.6229520240554223
 30
0.0
 11
3.6965801245195551
 21
-7.3496355098823214
 31
0.0
  0
LINE
  5
1A3F
  8
0
 62
     0
 10
3.2412377906756031
 20
-7.1529245523251603
 30
0.0
 11
2.8018861877732841
 21
-6.7135729494228391
 31
0.0
  0
LINE
  5
1A40
  8
0
 62
     0
 10
3.899258026677503
 20
-7.8109447883270624
 30
0.0
 11
3.6959786603753511
 21
-7.6076654220249154
 31
0.0
  0
LINE
  5
1A41
  8
0
 62
     0
 10
3.034690875273276
 20
-7.2050090132096241
 30
0.0
 11
2.8018861877732761
 21
-6.9722043257096251
 31
0.0
  0
LINE
  5
1A42
  8
0
 62
     0
 10
3.792131315773708
 20
-7.9624494537100619
 30
0.0
 11
3.5455738235496872
 21
-7.7158919614860322
 31
0.0
  0
LINE
  5
1A43
  8
0
 62
     0
 10
2.202988506504409
 20
-6.6319380207275582
 30
0.0
 11
2.1787499076577741
 21
-6.6076994218809206
 31
0.0
  0
LINE
  5
1A44
  8
0
 62
     0
 10
3.6531656331833751
 20
-8.082115147406526
 30
0.0
 11
3.2290805876554312
 21
-7.658030101878575
 31
0.0
  0
LINE
  5
1A45
  8
0
 62
     0
 10
2.2677871082174681
 20
-6.9553679987274011
 30
0.0
 11
1.982121972154764
 21
-6.669702862664697
 31
0.0
  0
LINE
  5
1A46
  8
0
 62
     0
 10
3.4804499382598562
 20
-8.168030828769794
 30
0.0
 11
2.8664723785437469
 21
-7.5540532690536812
 31
0.0
  0
LINE
  5
1A47
  8
0
 62
     0
 10
2.1576583608831101
 20
-7.1038706276798393
 30
0.0
 11
1.983335797400418
 21
-6.929548064197145
 31
0.0
  0
LINE
  5
1A48
  8
0
 62
     0
 10
3.262962952369413
 20
-8.2091752191661413
 30
0.0
 11
2.503864169432068
 21
-7.4500764362287972
 31
0.0
  0
LINE
  5
1A49
  8
0
 62
     0
 10
2.9676848492862362
 20
-8.1725284923697501
 30
0.0
 11
1.9129553288231691
 21
-7.1177989719066872
 31
0.0
  0
LINE
  5
1A4A
  8
0
 62
     0
 10
2.623189712588176
 20
-8.0866647319584857
 30
0.0
 11
1.8976699797883021
 21
-7.3611449991586113
 31
0.0
  0
ENDBLK
  5
1A4B
  8
0
  0
BLOCK
  8
0
  2
A$C6CE17CB5
 70
     0
 10
0.0
 20
0.0
 30
0.0
  3
A$C6CE17CB5
  1

  0
LINE
  5
1A4D
  8
240
 10
-0.0590232693841983
 20
4.3767915687220276
 30
0.0
 11
-3.3117144603082509
 21
7.6294827622925867
 31
0.0
  0
LINE
  5
1A4E
  8
240
 10
-3.5945571727828831
 20
7.6294827622925867
 30
0.0
 11
-5.474039936604667
 21
5.7500000000000231
 31
0.0
  0
LINE
  5
1A4F
  8
241
 10
-3.3117144629025561
 20
0.8412576629004993
 30
0.0
 11
-0.2531358191362187
 21
3.8998363066115109
 31
0.0
  0
LINE
  5
1A50
  8
241
 10
-6.8472483688313721
 20
4.0939488564159801
 30
0.0
 11
-3.5945571753771901
 21
0.8412576629029508
 31
0.0
  0
LINE
  5
1A51
  8
240
 10
-0.2531358191362187
 20
3.899836306611526
 30
0.0
 11
-0.2531358191362187
 21
-3.7499999999999711
 31
0.0
  0
ARC
  5
1A52
  8
240
 10
-61.610495132016922
 20
8.7500000000001137
 30
0.0
 40
3.000000000000028
 50
225.0
 51
270.0
  0
LINE
  5
1A53
  8
240
 10
-63.731815475576582
 20
6.6286796564404229
 30
0.0
 11
-65.103135819136241
 21
8.0000000000000853
 31
0.0
  0
LINE
  5
1A54
  8
241
 10
-65.103135819136241
 20
0.0000000000000275
 30
0.0
 11
-65.103135819136241
 21
8.0000000000000853
 31
0.0
  0
LINE
  5
1A55
  8
241
 10
-62.853135819136241
 20
6.0194608366268483
 30
0.0
 11
-62.853135819136241
 21
0.5974239027603571
 31
0.0
  0
ARC
  5
1A56
  8
240
 10
-61.731815475576582
 20
-5.7499999999999432
 30
0.0
 40
2.0
 50
90.0
 51
180.0
  0
LINE
  5
1A57
  8
240
 10
-65.103135819136241
 20
-7.9999999999999707
 30
0.0
 11
-63.731815475576582
 21
-6.6286796564403678
 31
0.0
  0
LINE
  5
1A58
  8
240
 10
-63.731815475576582
 20
-6.6286796564403678
 30
0.0
 11
-63.731815475576582
 21
-5.7499999999999432
 31
0.0
  0
LINE
  5
1A59
  8
241
 10
-65.103135819136241
 20
-7.9999999999999707
 30
0.0
 11
-65.103135819136241
 21
0.0000000000000275
 31
0.0
  0
LINE
  5
1A5A
  8
245
 10
-66.390986081216852
 20
1.9999999999999409
 30
0.0
 11
2.2552808867460481
 21
2.0000000000000551
 31
0.0
  0
LINE
  5
1A5B
  8
241
 10
-61.610495132016922
 20
1.0000000000000271
 30
0.0
 11
-3.753299512471385
 21
1.0000000000000271
 31
0.0
  0
LINE
  5
1A5C
  8
240
 10
-5.4740399366046404
 20
5.7500000000000258
 30
0.0
 11
-61.610495132016922
 21
5.7500000000000258
 31
0.0
  0
LINE
  5
1A5D
  8
240
 10
-61.731815475576582
 20
-3.7499999999999711
 30
0.0
 11
-0.2531358191362187
 21
-3.7499999999999711
 31
0.0
  0
ARC
  5
1A5E
  8
240
 10
-134.1531358191362
 20
7.0000000000000551
 30
0.0
 40
1.0000000000000271
 50
90.0
 51
180.0
  0
LINE
  5
1A5F
  8
240
 10
-135.15313581913611
 20
0.0000000000000275
 30
0.0
 11
-135.15313581913611
 21
7.0000000000000258
 31
0.0
  0
ARC
  5
1A60
  8
240
 10
-134.1531358191362
 20
-6.9999999999999432
 30
0.0
 40
1.0
 50
180.0
 51
270.0
  0
LINE
  5
1A61
  8
240
 10
-135.15313581913611
 20
-6.9999999999999707
 30
0.0
 11
-135.15313581913611
 21
0.0000000000000275
 31
0.0
  0
LINE
  5
1A62
  8
245
 10
-139.57733114767319
 20
0.000000000000056
 30
0.0
 11
2.2552808867460481
 21
-0.0000000000000009
 31
0.0
  0
LINE
  5
1A63
  8
240
 10
-65.103135819136241
 20
8.0000000000000853
 30
0.0
 11
-134.1531358191362
 21
8.0000000000000853
 31
0.0
  0
LINE
  5
1A64
  8
240
 10
-134.1531358191362
 20
-7.9999999999999707
 30
0.0
 11
-65.103135819136241
 21
-7.9999999999999707
 31
0.0
  0
ARC
  5
1A65
  8
240
 10
-3.4531358165455681
 20
7.4880614060552784
 30
0.0
 40
0.2
 50
45.0
 51
135.0
1001
GENIUS_GENODEF_13
1002
{
1000
HIER
1070
     0
1002
}
1002
{
1000
MANEDIT
1070
     0
1002
}
1002
{
1000
NOSEL
1070
     0
1002
}
1002
{
1000
BEHIND
1070
     0
1002
}
1002
{
1000
OTHER
1070
     0
1002
}
1002
{
1000
REACTOR
1002
}
1001
GENIUS_GENOBJ-N-FIL_13
1002
{
1000
OWNER
1000
GEN
1002
}
  0
ARC
  5
1A66
  8
241
 10
-6.7058270125940549
 20
4.2353702126532884
 30
0.0
 40
0.2
 50
134.9999999771868
 51
224.99999999999949
1001
GENIUS_GENODEF_13
1002
{
1000
HIER
1070
     0
1002
}
1002
{
1000
MANEDIT
1070
     0
1002
}
1002
{
1000
NOSEL
1070
     0
1002
}
1002
{
1000
BEHIND
1070
     0
1002
}
1002
{
1000
OTHER
1070
     0
1002
}
1002
{
1000
REACTOR
1002
}
1001
GENIUS_GENOBJ-N-FIL_13
1002
{
1000
OWNER
1000
GEN
1002
}
  0
ARC
  5
1A67
  8
240
 10
-0.2004446256778181
 20
4.2353702125410271
 30
0.0
 40
0.2
 50
314.99999999999949
 51
44.999999977186782
1001
GENIUS_GENODEF_13
1002
{
1000
HIER
1070
     0
1002
}
1002
{
1000
MANEDIT
1070
     0
1002
}
1002
{
1000
NOSEL
1070
     0
1002
}
1002
{
1000
BEHIND
1070
     0
1002
}
1002
{
1000
OTHER
1070
     0
1002
}
1002
{
1000
REACTOR
1002
}
1001
GENIUS_GENOBJ-N-FIL_13
1002
{
1000
OWNER
1000
GEN
1002
}
  0
ARC
  5
1A68
  8
241
 10
-3.4531358191386512
 20
0.9826790191390347
 30
0.0
 40
0.2
 50
224.99999999950339
 51
314.99999999950319
1001
GENIUS_GENOBJ-N-FIL_13
1002
{
1000
OWNER
1000
GEN
1002
}
1001
GENIUS_GENODEF_13
1002
{
1000
HIER
1070
     0
1002
}
1002
{
1000
MANEDIT
1070
     0
1002
}
1002
{
1000
NOSEL
1070
     0
1002
}
1002
{
1000
BEHIND
1070
     0
1002
}
1002
{
1000
OTHER
1070
     0
1002
}
1002
{
1000
REACTOR
1002
}
  0
ARC
  5
1A69
  8
241
 10
109.80545953618331
 20
45.264079393512972
 30
0.0
 40
120.02695941318829
 50
201.12801982243221
 51
203.5159610810941
  0
ARC
  5
1A6A
  8
241
 10
-61.680350262403351
 20
-0.9035081161277508
 30
0.0
 40
1.9047894601253861
 50
87.898296929528243
 51
151.68394580181831
  0
ARC
  5
1A6B
  8
241
 10
-54.63085253347738
 20
-2.6170889619929349
 30
0.0
 40
9.1103602483714727
 50
163.3057050947308
 51
182.6026087398478
  0
CIRCLE
  5
1A6C
  8
246
 10
-3.4531358178688261
 20
4.2353702132173652
 30
0.0
 40
2.499999999561453
  0
LINE
  5
1A6D
  8
241
 10
-5.474039936604667
 20
5.7500000000000231
 30
0.0
 11
-6.8472483687750678
 21
4.3767915689469046
 31
0.0
  0
LINE
  5
1A6E
  8
240
 10
-0.2531358191362187
 20
3.8998363066115109
 30
0.0
 11
-0.0590232694405017
 21
4.0939488563037161
 31
0.0
  0
LINE
  5
1A6F
  8
241
 10
-63.731815475576582
 20
-5.7499999999999432
 30
0.0
 11
-63.731815475576582
 21
-3.0307765030725311
 31
0.0
  0
ARC
  5
1A70
  8
247
 10
-127.1941070716319
 20
-3.962009631417784
 30
0.0
 40
0.7566075439453125
 50
53.444012197057482
 51
164.00018438768521
  0
LINE
  5
1A71
  8
247
 10
-127.62096547006939
 20
-4.7327225220428071
 30
0.0
 11
-127.3072135169444
 21
-3.638545764230301
 31
0.0
  0
ARC
  5
1A72
  8
247
 10
-127.3859898841319
 20
-4.8000994751678121
 30
0.0
 40
0.2444446334838867
 50
164.000273057182
 51
344.00027305718248
  0
ARC
  5
1A73
  8
247
 10
-126.1239683997569
 20
-4.5838006470427901
 30
0.0
 40
1.9799648437499999
 50
155.2051773698409
 51
172.79482596205219
  0
ARC
  5
1A74
  8
247
 10
-126.1589312903819
 20
-4.4276190064177987
 30
0.0
 40
0.9894138793945311
 50
110.8721834020736
 51
132.5419489373877
  0
ARC
  5
1A75
  8
247
 10
-127.0722379310069
 20
-3.705931506417798
 30
0.0
 40
0.2444448051452637
 50
1.7101213820627339
 51
163.99839835444709
  0
ARC
  5
1A76
  8
247
 10
-126.1589312903819
 20
-4.4276190064177987
 30
0.0
 40
1.222216369628905
 50
110.22964506332001
 51
118.57168892371671
  0
LINE
  5
1A77
  8
247
 10
-126.5114430091318
 20
-3.5031326782928001
 30
0.0
 11
-126.5815533606944
 21
-3.2807957642302621
 31
0.0
  0
POLYLINE
  5
1A78
  8
247
 66
     1
 10
0.0
 20
0.0
 30
0.0
 70
     1
  0
VERTEX
  5
1A79
  8
247
 10
-126.40042836069441
 20
-3.468125842355291
 30
0.0
  0
VERTEX
  5
1A7A
  8
247
 10
-126.4705387122569
 20
-3.245788928292809
 30
0.0
  0
VERTEX
  5
1A7B
  8
247
 10
-126.4705387122569
 20
-3.245788928292809
 30
0.0
  0
VERTEX
  5
1A7C
  8
247
 10
-126.40042836069441
 20
-3.468125842355291
 30
0.0
  0
SEQEND
  5
1A7D
  8
247
  0
POLYLINE
  5
1A7E
  8
247
 66
     1
 10
0.0
 20
0.0
 30
0.0
 70
     1
1001
HATCH_DISTANCE
1040
1.0
1001
HATCH_DISPLAY
1070
     0
1001
HATCH_TYPE
1070
     7
  0
VERTEX
  5
1A7F
  8
247
 10
-126.40042836069441
 20
-3.468125842355291
 30
0.0
  0
VERTEX
  5
1A80
  8
247
 10
-126.4705387122569
 20
-3.245788928292809
 30
0.0
  0
VERTEX
  5
1A81
  8
247
 10
-126.4705387122569
 20
-3.245788928292809
 30
0.0
  0
VERTEX
  5
1A82
  8
247
 10
-126.40042836069441
 20
-3.468125842355291
 30
0.0
  0
SEQEND
  5
1A83
  8
247
  0
LINE
  5
1A84
  8
247
 10
-126.40042836069441
 20
-3.468125842355291
 30
0.0
 11
-126.4705387122569
 21
-3.245788928292809
 31
0.0
  0
POLYLINE
  5
1A85
  8
247
 66
     1
 10
0.0
 20
0.0
 30
0.0
 70
     1
  0
VERTEX
  5
1A86
  8
247
 10
-126.40042836069441
 20
-3.468125842355291
 30
0.0
  0
VERTEX
  5
1A87
  8
247
 10
-126.4705387122569
 20
-3.245788928292809
 30
0.0
  0
VERTEX
  5
1A88
  8
247
 10
-126.4705387122569
 20
-3.245788928292809
 30
0.0
  0
VERTEX
  5
1A89
  8
247
 10
-126.40042836069441
 20
-3.468125842355291
 30
0.0
  0
SEQEND
  5
1A8A
  8
247
  0
POLYLINE
  5
1A8B
  8
247
 66
     1
 10
0.0
 20
0.0
 30
0.0
 70
     1
1001
HATCH_DISTANCE
1040
1.0
1001
HATCH_DISPLAY
1070
     0
1001
HATCH_TYPE
1070
     7
  0
VERTEX
  5
1A8C
  8
247
 10
-126.40042836069441
 20
-3.468125842355291
 30
0.0
  0
VERTEX
  5
1A8D
  8
247
 10
-126.4705387122569
 20
-3.245788928292809
 30
0.0
  0
VERTEX
  5
1A8E
  8
247
 10
-126.4705387122569
 20
-3.245788928292809
 30
0.0
  0
VERTEX
  5
1A8F
  8
247
 10
-126.40042836069441
 20
-3.468125842355291
 30
0.0
  0
SEQEND
  5
1A90
  8
247
  0
LINE
  5
1A91
  8
247
 10
-126.7908473060069
 20
-5.3006280701384707
 30
0.0
 11
-126.4503941810069
 21
-4.113330920480295
 31
0.0
  0
LINE
  5
1A92
  8
247
 10
-127.1285142981944
 20
-4.113330920480295
 30
0.0
 11
-126.4503941810069
 21
-4.113330920480295
 31
0.0
  0
LINE
  5
1A93
  8
247
 10
-127.1952672278819
 20
-4.346135607980286
 30
0.0
 11
-127.1285142981944
 21
-4.113330920480295
 31
0.0
  0
LINE
  5
1A94
  8
247
 10
-126.9274117591319
 20
-5.1640724060760164
 30
0.0
 11
-126.7908473060069
 21
-5.3006280701384707
 31
0.0
  0
LINE
  5
1A95
  8
247
 10
-127.1952672278819
 20
-4.346135607980286
 30
0.0
 11
-127.00152113413191
 21
-4.346135607980286
 31
0.0
  0
LINE
  5
1A96
  8
247
 10
-127.1510142981943
 20
-4.8674764282927887
 30
0.0
 11
-127.00152113413191
 21
-4.346135607980286
 31
0.0
  0
ARC
  5
1A97
  8
247
 10
-126.1589312903819
 20
-4.4276190064177987
 30
0.0
 40
0.9894111328124999
 50
270.0
 51
104.1274364964101
  0
ARC
  5
1A98
  8
247
 10
-126.1589312903819
 20
-4.4276190064177987
 30
0.0
 40
1.2222158203124971
 50
270.0
 51
104.7707939660941
  0
LINE
  5
1A99
  8
247
 10
-130.76267738413179
 20
-5.3006280701384707
 30
0.0
 11
-130.2286363685071
 21
-3.4382078736060322
 31
0.0
  0
LINE
  5
1A9A
  8
247
 10
-130.49458516702001
 20
-4.3656804817066028
 30
0.0
 11
-129.6796720901155
 21
-3.55076740480213
 31
0.0
  0
ARC
  5
1A9B
  8
247
 10
-129.78928871225691
 20
-3.7641326782928242
 30
0.0
 40
0.349197280883789
 50
261.6626016879294
 51
66.338155095189776
  0
LINE
  5
1A9C
  8
247
 10
-129.64914167182059
 20
-3.4442927995510071
 30
0.0
 11
-129.83992249602409
 21
-4.1096394957625488
 31
0.0
  0
LINE
  5
1A9D
  8
247
 10
-129.0916041419444
 20
-5.3006280701384707
 30
0.0
 11
-128.5642340247569
 21
-3.4614813111052869
 31
0.0
  0
LINE
  5
1A9E
  8
247
 10
-129.80543642324179
 20
-4.452425866788742
 30
0.0
 11
-128.97234979980519
 21
-3.6193392433521141
 31
0.0
  0
LINE
  5
1A9F
  8
247
 10
-130.39060900957219
 20
-4.0030729479719138
 30
0.0
 11
-129.5929392477056
 21
-3.205403186105384
 31
0.0
  0
ARC
  5
1AA0
  8
247
 10
-129.5295631263194
 20
-3.7874061157927912
 30
0.0
 40
0.5820078735351563
 50
287.66957754739968
 51
90.236159842671569
  0
LINE
  5
1AA1
  8
247
 10
-129.4475468754261
 20
-3.8359049426861831
 30
0.0
 11
-129.0579707057754
 21
-3.4463287730354599
 31
0.0
  0
LINE
  5
1AA2
  8
247
 10
-130.28663285212431
 20
-3.640465414237168
 30
0.0
 11
-129.8515706239925
 21
-3.205403186105356
 31
0.0
  0
LINE
  5
1AA3
  8
247
 10
-130.88483656381931
 20
-3.4382078736052919
 30
0.0
 11
-130.47081898569431
 21
-3.4382078736052919
 31
0.0
  0
LINE
  5
1AA4
  8
247
 10
-130.3497320716321
 20
-3.4382078736052919
 30
0.0
 11
-130.2286363685071
 21
-3.4382078736060322
 31
0.0
  0
LINE
  5
1AA5
  8
247
 10
-129.47738582657519
 20
-3.6071125175486269
 30
0.0
 11
-129.18709558641419
 21
-3.316822277387486
 31
0.0
  0
LINE
  5
1AA6
  8
247
 10
-130.88483656381931
 20
-3.2054031861053001
 30
0.0
 11
-130.4040660560068
 21
-3.2054031861053001
 31
0.0
  0
LINE
  5
1AA7
  8
247
 10
-130.2829791419442
 20
-3.2054031861053001
 30
0.0
 11
-129.53196202026641
 21
-3.205403186105384
 31
0.0
  0
LINE
  5
1AA8
  8
247
 10
-130.2829791419442
 20
-3.2054031861053001
 30
0.0
 11
-130.3497320716321
 21
-3.4382078736052919
 31
0.0
  0
LINE
  5
1AA9
  8
247
 10
-130.4040660560068
 20
-3.2054031861053001
 30
0.0
 11
-130.47081898569431
 21
-3.4382078736052919
 31
0.0
  0
LINE
  5
1AAA
  8
247
 10
-130.34300668777919
 20
-3.4382078736053501
 30
0.0
 11
-130.1102020002792
 21
-3.205403186105356
 31
0.0
  0
LINE
  5
1AAB
  8
247
 10
-129.5997537903371
 20
-3.4708491050236741
 30
0.0
 11
-129.35965588597799
 21
-3.2307512006644989
 31
0.0
  0
LINE
  5
1AAC
  8
247
 10
-128.64900453256939
 20
-3.4614813111052869
 30
0.0
 11
-128.5642340247569
 21
-3.4614813111052869
 31
0.0
  0
LINE
  5
1AAD
  8
247
 10
-128.64900453256939
 20
-3.4614813111052869
 30
0.0
 11
-128.5755719153818
 21
-3.2054031861053001
 31
0.0
  0
LINE
  5
1AAE
  8
247
 10
-129.7151558345812
 20
-4.62077665441491
 30
0.0
 11
-128.95177944346591
 21
-3.8574002632995672
 31
0.0
  0
ARC
  5
1AAF
  8
247
 10
-129.79658363413191
 20
-4.718624865792818
 30
0.0
 40
0.5820029296875
 50
270.0
 51
40.329840654167079
  0
LINE
  5
1AB0
  8
247
 10
-130.59856132446799
 20
-4.7282880154413478
 30
0.0
 11
-129.7836448155964
 21
-3.9133715065697312
 31
0.0
  0
LINE
  5
1AB1
  8
247
 10
-130.7025374819159
 20
-5.0908955491760386
 30
0.0
 11
-129.71751644786349
 21
-4.1058745151236007
 31
0.0
  0
LINE
  5
1AB2
  8
247
 10
-130.76267738413179
 20
-5.3006280701384707
 30
0.0
 11
-129.79658363413191
 21
-5.3006280701384707
 31
0.0
  0
LINE
  5
1AB3
  8
247
 10
-130.13637587401811
 20
-5.3006280701384707
 30
0.0
 11
-129.2821625442073
 21
-4.4464147403278229
 31
0.0
  0
ARC
  5
1AB4
  8
247
 10
-130.05630922006941
 20
-4.6953426392302751
 30
0.0
 40
0.3492072715759277
 50
261.66285421114719
 51
66.338192159113646
  0
LINE
  5
1AB5
  8
247
 10
-129.91615940106661
 20
-4.3754930702842652
 30
0.0
 11
-130.10694336385569
 21
-5.0408595013434621
 31
0.0
  0
LINE
  5
1AB6
  8
247
 10
-129.8777444977313
 20
-5.3006280701385
 30
0.0
 11
-129.21958484279961
 21
-4.6424684152067774
 31
0.0
  0
LINE
  5
1AB7
  8
247
 10
-130.3950072503049
 20
-5.3006280701384707
 30
0.0
 11
-130.09556853821141
 21
-5.0011893580450657
 31
0.0
  0
LINE
  5
1AB8
  8
247
 10
-130.6536386265916
 20
-5.3006280701384707
 30
0.0
 11
-129.99159773825841
 21
-4.6385871818055051
 31
0.0
  0
LINE
  5
1AB9
  8
247
 10
-129.57547723727509
 20
-5.2569921859691391
 30
0.0
 11
-129.2582163139555
 21
-4.9397312626495742
 31
0.0
  0
LINE
  5
1ABA
  8
247
 10
-129.0916041419444
 20
-5.3006280701384707
 30
0.0
 11
-128.57090492319441
 21
-5.3006280701384707
 31
0.0
  0
ARC
  5
1ABB
  8
247
 10
-130.88483656381931
 20
-4.4276190064177987
 30
0.0
 40
1.2222158203124971
 50
90.0
 51
270.0
  0
ARC
  5
1ABC
  8
247
 10
-130.88483656381931
 20
-4.4276190064177987
 30
0.0
 40
0.9894111328124999
 50
90.0
 51
270.0
  0
ARC
  5
1ABD
  8
247
 10
-127.3609937903819
 20
-4.5440213501677951
 30
0.0
 40
0.756615234375
 50
163.99975070172931
 51
304.96387329163002
  0
LINE
  5
1ABE
  8
247
 10
-130.88483656381931
 20
-5.4170304138884964
 30
0.0
 11
-126.1589312903819
 21
-5.4170304138884964
 31
0.0
  0
LINE
  5
1ABF
  8
247
 10
-130.88483656381931
 20
-5.6498350953969938
 30
0.0
 11
-126.1589312903819
 21
-5.6498350953969938
 31
0.0
  0
LINE
  5
1AC0
  8
247
 10
-128.57090492319441
 20
-5.3006280701384707
 30
0.0
 11
-127.9701109778819
 21
-3.2054031861053001
 31
0.0
  0
POLYLINE
  5
1AC1
  8
247
 66
     1
 10
0.0
 20
0.0
 30
0.0
 70
     1
  0
VERTEX
  5
1AC2
  8
247
 10
-128.5755719153818
 20
-3.2054031861053001
 30
0.0
  0
VERTEX
  5
1AC3
  8
247
 10
-128.64900453256939
 20
-3.4614813111052869
 30
0.0
  0
VERTEX
  5
1AC4
  8
247
 10
-128.5642340247569
 20
-3.4614813111052869
 30
0.0
  0
VERTEX
  5
1AC5
  8
247
 10
-129.0916041419444
 20
-5.3006280701384707
 30
0.0
  0
VERTEX
  5
1AC6
  8
247
 10
-128.57090492319441
 20
-5.3006280701384707
 30
0.0
  0
VERTEX
  5
1AC7
  8
247
 10
-127.9701109778819
 20
-3.2054031861053001
 30
0.0
  0
SEQEND
  5
1AC8
  8
247
  0
POLYLINE
  5
1AC9
  8
247
 66
     1
 10
0.0
 20
0.0
 30
0.0
 70
     1
1001
HATCH_DISTANCE
1040
1.0
1001
HATCH_DISPLAY
1070
     0
1001
HATCH_TYPE
1070
     7
  0
VERTEX
  5
1ACA
  8
247
 10
-128.5755719153818
 20
-3.2054031861053001
 30
0.0
  0
VERTEX
  5
1ACB
  8
247
 10
-128.64900453256939
 20
-3.4614813111052869
 30
0.0
  0
VERTEX
  5
1ACC
  8
247
 10
-128.5642340247569
 20
-3.4614813111052869
 30
0.0
  0
VERTEX
  5
1ACD
  8
247
 10
-129.0916041419444
 20
-5.3006280701384707
 30
0.0
  0
VERTEX
  5
1ACE
  8
247
 10
-128.57090492319441
 20
-5.3006280701384707
 30
0.0
  0
VERTEX
  5
1ACF
  8
247
 10
-127.9701109778819
 20
-3.2054031861053001
 30
0.0
  0
SEQEND
  5
1AD0
  8
247
  0
LINE
  5
1AD1
  8
247
 10
-128.5755719153818
 20
-3.2054031861053001
 30
0.0
 11
-127.9701109778819
 21
-3.2054031861053001
 31
0.0
  0
INSERT
  5
1AD2
  8
247
  6
CONTINUOUS
  2
*X30
 10
-119.90782338835579
 20
-1.311444732707016
 30
0.0
 50
270.0
1001
ACAD
1000
HATCH
1002
{
1070
    19
1000
ANSI31
1040
0.0576
1040
6.2831853071795827
1002
}
  0
INSERT
  5
1AD3
  8
247
  6
CONTINUOUS
  2
*X29
 10
-119.90782338835579
 20
-1.311444732707016
 30
0.0
 50
270.0
1001
ACAD
1000
HATCH
1002
{
1070
    19
1000
ANSI31
1040
0.0576
1040
6.2831853071795827
1002
}
  0
INSERT
  5
1AD4
  8
247
  6
CONTINUOUS
  2
*X28
 10
-119.90782338835579
 20
-1.311444732707016
 30
0.0
 50
270.0
1001
ACAD
1000
HATCH
1002
{
1070
    19
1000
ANSI31
1040
0.0576
1040
6.2831853071795827
1002
}
  0
TEXT
  5
1AD5
  8
247
 10
-123.90782338835611
 20
-5.3530463714727556
 30
0.0
 40
2.0
  1
ST16-CM14-45B-61
 41
0.7
  7
YOKO
 11
-123.90782338835611
 21
-5.3530463714727556
 31
0.0
 73
     1
  0
ENDBLK
  5
1AD7
  8
0
  0
ENDSEC
  0
SECTION
  2
ENTITIES
  0
TEXT
  5
1403
  8
241
 10
-135.734991336203
 20
21.088728077842369
 30
0.0
 40
3.0
  1
ST16-CM14-45B-61
  7
YOKO
 11
-135.734991336203
 21
21.088728077842369
 31
0.0
 73
     1
  0
LINE
  5
16A1
  8
250
 10
-0.0000000000000568
 20
4.8177682993937099
 30
0.0
 11
-0.0000000000000853
 21
16.481891700828761
 31
0.0
  0
LINE
  5
16A2
  8
250
 10
-3.6658060044489371
 20
7.9835743038426221
 30
0.0
 11
-8.6013341443447331
 21
12.919102443738391
 31
0.0
  0
ARC
  5
16A3
  8
250
 10
-0.0000000000000284
 20
4.317768299393717
 30
0.0
 40
11.16412340143504
 50
101.4637713778941
 51
123.53622862210629
  0
LINE
  5
16A7
  8
250
 10
-135.15313581913611
 20
-7.4999999999999707
 30
0.0
 11
-135.15313581913611
 21
-30.849082673880819
 31
0.0
  0
LINE
  5
16A8
  8
250
 10
0.0
 20
3.735370212597187
 30
0.0
 11
0.0
 21
-30.849082673880819
 31
0.0
  0
LINE
  5
16A9
  8
250
 10
-132.92313581913609
 20
-29.849082673880819
 30
0.0
 11
-2.229999999999988
 21
-29.849082673880819
 31
0.0
  0
LINE
  5
16AD
  8
250
 10
-62.853135819136241
 20
0.2742605090194834
 30
0.0
 11
-62.853135819136241
 21
-23.849082673880819
 31
0.0
  0
LINE
  5
16AE
  8
250
 10
0.0
 20
3.735370212597187
 30
0.0
 11
0.0
 21
-23.849082673880819
 31
0.0
  0
LINE
  5
16AF
  8
250
 10
-60.623135819136238
 20
-22.849082673880819
 30
0.0
 11
-2.229999999999988
 21
-22.849082673880819
 31
0.0
  0
LINE
  5
16B3
  8
250
 10
-134.6531358191362
 20
-7.9999999999999432
 30
0.0
 11
-147.47496811780391
 21
-7.9999999999999387
 31
0.0
  0
LINE
  5
16B4
  8
250
 10
-134.6531358191362
 20
8.0000000000000853
 30
0.0
 11
-147.47496811780391
 21
8.0000000000000888
 31
0.0
  0
LINE
  5
16B5
  8
250
 10
-146.47496811780391
 20
-5.7699999999999401
 30
0.0
 11
-146.47496811780391
 21
5.7700000000000848
 31
0.0
  0
LINE
  5
16B9
  8
250
 10
2.7552808867460481
 20
-0.000000000000001
 30
0.0
 11
10.30653280463463
 21
-0.0000000000000035
 31
0.0
  0
LINE
  5
16BA
  8
250
 10
2.7552808867460481
 20
2.0000000000000551
 30
0.0
 11
10.30653280463463
 21
2.000000000000052
 31
0.0
  0
LINE
  5
16BB
  8
250
 10
9.3065328046346281
 20
4.2300000000000528
 30
0.0
 11
9.3065328046346281
 21
6.4600000000000541
 31
0.0
  0
LINE
  5
16BC
  8
250
 10
9.3065328046346281
 20
-2.2300000000000031
 30
0.0
 11
9.3065328046346281
 21
-8.393333333333306
 31
0.0
  0
LINE
  5
16BD
  8
250
 10
9.3065328046346281
 20
2.000000000000052
 30
0.0
 11
9.3065328046346281
 21
-0.0000000000000032
 31
0.0
  0
LINE
  5
16C1
  8
250
 10
-2.9531358191362642
 20
7.7499999999999423
 30
0.0
 11
17.306537442062051
 21
7.7499999999999361
 31
0.0
  0
LINE
  5
16C2
  8
250
 10
16.306537442062051
 20
5.5199999999999347
 30
0.0
 11
16.306537442062051
 21
-6.6095248311493968
 31
0.0
  0
TEXT
  5
16C5
  8
250
 10
15.30653744206205
 20
-5.8952391168636602
 30
0.0
 40
3.0
  1
\U+2205
 50
90.0
  0
TEXT
  5
16C6
  8
250
 10
15.206537442062061
 20
-3.1809534025779449
 30
0.0
 40
2.799999999999998
  1
15.5
 50
90.0
  0
LINE
  5
16C7
  8
250
 10
15.93487077539538
 20
5.5199999999999347
 30
0.0
 11
16.306537442062051
 21
7.7499999999999361
 31
0.0
  0
LINE
  5
16C8
  8
250
 10
16.678204108728721
 20
5.5199999999999347
 30
0.0
 11
16.306537442062051
 21
7.7499999999999361
 31
0.0
  0
LINE
  5
16C9
  8
250
 10
16.306537442062051
 20
7.7499999999999361
 30
0.0
 11
16.306537442062051
 21
5.5199999999999347
 31
0.0
  0
TEXT
  5
16CA
  8
250
 10
8.3065328046346281
 20
-7.793333333333285
 30
0.0
 40
2.799999999999998
  1
2
 50
90.0
  0
LINE
  5
16CB
  8
250
 10
8.9348661379679584
 20
-2.2300000000000031
 30
0.0
 11
9.3065328046346281
 21
-0.0000000000000032
 31
0.0
  0
LINE
  5
16CC
  8
250
 10
9.6781994713012942
 20
-2.2300000000000031
 30
0.0
 11
9.3065328046346281
 21
-0.0000000000000032
 31
0.0
  0
LINE
  5
16CD
  8
250
 10
9.3065328046346281
 20
-0.0000000000000032
 30
0.0
 11
9.3065328046346281
 21
-2.2300000000000031
 31
0.0
  0
LINE
  5
16CE
  8
250
 10
9.6781994713012942
 20
4.2300000000000519
 30
0.0
 11
9.3065328046346281
 21
2.000000000000052
 31
0.0
  0
LINE
  5
16CF
  8
250
 10
8.9348661379679584
 20
4.2300000000000519
 30
0.0
 11
9.3065328046346281
 21
2.000000000000052
 31
0.0
  0
LINE
  5
16D0
  8
250
 10
9.3065328046346281
 20
2.000000000000052
 30
0.0
 11
9.3065328046346281
 21
4.2300000000000519
 31
0.0
  0
TEXT
  5
16D1
  8
250
 10
-7.9497827399284224
 20
14.58611920355812
 30
0.0
 40
2.799999999999998
  1
45üï
 50
17.252550394896531
  0
LINE
  5
16D2
  8
250
 10
-5.932531462788261
 20
13.33573286741024
 30
0.0
 11
-7.8942273631581781
 21
12.211995662551841
 31
0.0
  0
LINE
  5
16D3
  8
250
 10
-6.403024388708273
 20
13.91121601321354
 30
0.0
 11
-7.8942273631581781
 21
12.211995662551841
 31
0.0
  0
LINE
  5
16D4
  8
250
 10
-7.8942273631581781
 20
12.211995662551841
 30
0.0
 11
-6.1677779257482541
 21
13.62347444031189
 31
0.0
  0
LINE
  5
16D5
  8
250
 10
-2.2559699680422209
 20
15.62898219815272
 30
0.0
 11
-0.0000000000000853
 21
15.481891700828751
 31
0.0
  0
LINE
  5
16D6
  8
250
 10
-2.1817306716044982
 20
14.889365424878299
 30
0.0
 11
-0.0000000000000853
 21
15.481891700828751
 31
0.0
  0
LINE
  5
16D7
  8
250
 10
-0.0000000000000853
 20
15.481891700828751
 30
0.0
 11
-2.21885031982336
 21
15.25917381151551
 31
0.0
  0
TEXT
  5
16D8
  8
250
 10
-36.093234576234778
 20
-21.849082673880812
 30
0.0
 40
2.799999999999998
  1
62.9
  0
LINE
  5
16D9
  8
250
 10
-2.229999999999988
 20
-22.477416007214149
 30
0.0
 11
0.0
 21
-22.849082673880819
 31
0.0
  0
LINE
  5
16DA
  8
250
 10
-2.229999999999988
 20
-23.220749340547481
 30
0.0
 11
0.0
 21
-22.849082673880819
 31
0.0
  0
LINE
  5
16DB
  8
250
 10
0.0
 20
-22.849082673880819
 30
0.0
 11
-2.229999999999988
 21
-22.849082673880819
 31
0.0
  0
LINE
  5
16DC
  8
250
 10
-60.623135819136238
 20
-23.220749340547481
 30
0.0
 11
-62.853135819136241
 21
-22.849082673880819
 31
0.0
  0
LINE
  5
16DD
  8
250
 10
-60.623135819136238
 20
-22.477416007214149
 30
0.0
 11
-62.853135819136241
 21
-22.849082673880819
 31
0.0
  0
LINE
  5
16DE
  8
250
 10
-62.853135819136241
 20
-22.849082673880819
 30
0.0
 11
-60.623135819136238
 21
-22.849082673880819
 31
0.0
  0
TEXT
  5
16DF
  8
250
 10
-73.77656790956803
 20
-28.849082673880819
 30
0.0
 40
2.799999999999998
  1
135.2
  0
LINE
  5
16E0
  8
250
 10
-2.229999999999988
 20
-29.477416007214149
 30
0.0
 11
0.0
 21
-29.849082673880819
 31
0.0
  0
LINE
  5
16E1
  8
250
 10
-2.229999999999988
 20
-30.220749340547481
 30
0.0
 11
0.0
 21
-29.849082673880819
 31
0.0
  0
LINE
  5
16E2
  8
250
 10
0.0
 20
-29.849082673880819
 30
0.0
 11
-2.229999999999988
 21
-29.849082673880819
 31
0.0
  0
LINE
  5
16E3
  8
250
 10
-132.92313581913609
 20
-30.220749340547481
 30
0.0
 11
-135.15313581913611
 21
-29.849082673880819
 31
0.0
  0
LINE
  5
16E4
  8
250
 10
-132.92313581913609
 20
-29.477416007214149
 30
0.0
 11
-135.15313581913611
 21
-29.849082673880819
 31
0.0
  0
LINE
  5
16E5
  8
250
 10
-135.15313581913611
 20
-29.849082673880819
 30
0.0
 11
-132.92313581913609
 21
-29.849082673880819
 31
0.0
  0
TEXT
  5
16E6
  8
250
 10
-147.47496811780391
 20
-3.8952380952380228
 30
0.0
 40
3.0
  1
\U+2205
 50
90.0
  0
TEXT
  5
16E7
  8
250
 10
-147.57496811780391
 20
-1.180952380952309
 30
0.0
 40
2.799999999999998
  1
16
 50
90.0
  0
LINE
  5
16E8
  8
250
 10
-146.8466347844705
 20
5.770000000000084
 30
0.0
 11
-146.47496811780391
 21
8.0000000000000853
 31
0.0
  0
LINE
  5
16E9
  8
250
 10
-146.10330145113721
 20
5.770000000000084
 30
0.0
 11
-146.47496811780391
 21
8.0000000000000853
 31
0.0
  0
LINE
  5
16EA
  8
250
 10
-146.47496811780391
 20
8.0000000000000853
 30
0.0
 11
-146.47496811780391
 21
5.770000000000084
 31
0.0
  0
LINE
  5
16EB
  8
250
 10
-146.10330145113721
 20
-5.7699999999999401
 30
0.0
 11
-146.47496811780391
 21
-7.9999999999999387
 31
0.0
  0
LINE
  5
16EC
  8
250
 10
-146.8466347844705
 20
-5.7699999999999401
 30
0.0
 11
-146.47496811780391
 21
-7.9999999999999387
 31
0.0
  0
LINE
  5
16ED
  8
250
 10
-146.47496811780391
 20
-7.9999999999999387
 30
0.0
 11
-146.47496811780391
 21
-5.7699999999999401
 31
0.0
  0
INSERT
  5
1AD9
  8
240
  2
A$C6CE17CB5
 10
0.0
 20
0.0
 30
0.0
  0
VIEWPORT
  5
22
 67
     1
  8
0
 10
261.51769911504419
 20
148.5
 30
0.0
 40
523.0353982300885
 41
297.0
 68
     1
 69
     1
1001
ACAD
1000
MVIEW
1002
{
1070
    16
1010
0.0
1020
0.0
1030
0.0
1010
0.0
1020
0.0
1030
1.0
1040
0.0
1040
297.0
1040
261.51769911504419
1040
148.5
1040
50.0
1040
0.0
1040
0.0
1070
     0
1070
   100
1070
     1
1070
     1
1070
     0
1070
     0
1070
     0
1070
     0
1040
0.0
1040
0.0
1040
0.0
1040
1.0
1040
1.0
1040
10.0
1040
10.0
1070
     0
1002
{
1002
}
1002
}
1001
GENIUS_GENODEF_13
1002
{
1000
HIER
1070
     0
1002
}
1002
{
1000
MANEDIT
1070
     0
1002
}
1002
{
1000
NOSEL
1070
     0
1002
}
1002
{
1000
BEHIND
1070
     0
1002
}
1002
{
1000
OTHER
1070
     0
1002
}
1002
{
1000
REACTOR
1002
}
1001
GENIUS_GENOBJ-N-SDF_13
1002
{
1000
OWNER
1000
GEN
1002
}
1001
GENIUS_GENSCREG_15
1000
PF
1040
1.0
1000
DF
1040
1.0
1000
MIN
1011
0.0
1021
-0.0
1031
0.0
1021
0.0
1031
0.0
1000
MAX
1011
523.0353982300885
1021
-0.0
1031
0.0
1021
297.0
1031
0.0
1000
FLAGS
1070
     2
  0
ENDSEC
  0
EOF
