  0
SECTION
  2
HEADER
  9
$ACADVER
  1
AC1009
  9
$INSBASE
 10
0.0
 20
0.0
 30
0.0
  9
$EXTMIN
 10
-139.66890636035279
 20
-27.020118082214939
 30
0.0
  9
$EXTMAX
 10
12.33109363964723
 20
26.000000000000021
 30
0.0
  9
$LIMMIN
 10
0.0
 20
0.0
  9
$LIMMAX
 10
297.0
 20
210.0
  9
$ORTHOMODE
 70
     0
  9
$REGENMODE
 70
     1
  9
$FILLMODE
 70
     1
  9
$QTEXTMODE
 70
     0
  9
$MIRRTEXT
 70
     1
  9
$DRAGMODE
 70
     2
  9
$LTSCALE
 40
10.0
  9
$OSMODE
 70
  2799
  9
$ATTMODE
 70
     1
  9
$TEXTSIZE
 40
3.0
  9
$TRACEWID
 40
1.0
  9
$TEXTSTYLE
  7
YOKO
  9
$CLAYER
  8
240
  9
$CELTYPE
  6
BYLAYER
  9
$CECOLOR
 62
   256
  9
$DIMSCALE
 40
1.0
  9
$DIMASZ
 40
2.2299999999999991
  9
$DIMEXO
 40
0.5
  9
$DIMDLI
 40
7.0
  9
$DIMRND
 40
0.0
  9
$DIMDLE
 40
0.0
  9
$DIMEXE
 40
1.0
  9
$DIMTP
 40
0.0
  9
$DIMTM
 40
0.01
  9
$DIMTXT
 40
2.7999999999999989
  9
$DIMCEN
 40
0.0
  9
$DIMTSZ
 40
0.0
  9
$DIMTOL
 70
     0
  9
$DIMLIM
 70
     0
  9
$DIMTIH
 70
     0
  9
$DIMTOH
 70
     0
  9
$DIMSE1
 70
     0
  9
$DIMSE2
 70
     0
  9
$DIMTAD
 70
     3
  9
$DIMZIN
 70
     9
  9
$DIMBLK
  1
OPEN
  9
$DIMASO
 70
     1
  9
$DIMSHO
 70
     1
  9
$DIMPOST
  1

  9
$DIMAPOST
  1

  9
$DIMALT
 70
     0
  9
$DIMALTD
 70
     2
  9
$DIMALTF
 40
25.399999999999999
  9
$DIMLFAC
 40
1.0
  9
$DIMTOFL
 70
     1
  9
$DIMTVP
 40
0.0
  9
$DIMTIX
 70
     1
  9
$DIMSOXD
 70
     0
  9
$DIMSAH
 70
     0
  9
$DIMBLK1
  1

  9
$DIMBLK2
  1

  9
$DIMSTYLE
  2
BIGT
  9
$DIMCLRD
 70
   256
  9
$DIMCLRE
 70
   256
  9
$DIMCLRT
 70
    40
  9
$DIMTFAC
 40
1.0
  9
$DIMGAP
 40
1.0
  9
$LUNITS
 70
     2
  9
$LUPREC
 70
     3
  9
$SKETCHINC
 40
1.0
  9
$FILLETRAD
 40
0.2
  9
$AUNITS
 70
     0
  9
$AUPREC
 70
     3
  9
$MENU
  1
.
  9
$ELEVATION
 40
0.0
  9
$PELEVATION
 40
0.0
  9
$THICKNESS
 40
0.0
  9
$LIMCHECK
 70
     0
  9
$BLIPMODE
 70
     0
  9
$CHAMFERA
 40
0.25
  9
$CHAMFERB
 40
0.25
  9
$SKPOLY
 70
     0
  9
$TDCREATE
 40
2454809.3838487389
  9
$TDUPDATE
 40
2454809.433630452
  9
$TDINDWG
 40
0.0095024884
  9
$TDUSRTIMER
 40
0.0095024884
  9
$USRTIMER
 70
     1
  9
$ANGBASE
 50
0.0
  9
$ANGDIR
 70
     0
  9
$PDMODE
 70
     1
  9
$PDSIZE
 40
0.0
  9
$PLINEWID
 40
0.0
  9
$COORDS
 70
     0
  9
$SPLFRAME
 70
     0
  9
$SPLINETYPE
 70
     6
  9
$SPLINESEGS
 70
     4
  9
$ATTDIA
 70
     1
  9
$ATTREQ
 70
     1
  9
$HANDLING
 70
     1
  9
$HANDSEED
  5
1B86
  9
$SURFTAB1
 70
     6
  9
$SURFTAB2
 70
     6
  9
$SURFTYPE
 70
     6
  9
$SURFU
 70
     6
  9
$SURFV
 70
     6
  9
$UCSNAME
  2

  9
$UCSORG
 10
0.0
 20
0.0
 30
0.0
  9
$UCSXDIR
 10
1.0
 20
0.0
 30
0.0
  9
$UCSYDIR
 10
0.0
 20
1.0
 30
0.0
  9
$PUCSNAME
  2

  9
$PUCSORG
 10
0.0
 20
0.0
 30
0.0
  9
$PUCSXDIR
 10
1.0
 20
0.0
 30
0.0
  9
$PUCSYDIR
 10
0.0
 20
1.0
 30
0.0
  9
$USERI1
 70
     1
  9
$USERI2
 70
     0
  9
$USERI3
 70
     0
  9
$USERI4
 70
     0
  9
$USERI5
 70
     0
  9
$USERR1
 40
0.0
  9
$USERR2
 40
0.0
  9
$USERR3
 40
0.0
  9
$USERR4
 40
0.0
  9
$USERR5
 40
0.0
  9
$WORLDVIEW
 70
     1
  9
$SHADEDGE
 70
     3
  9
$SHADEDIF
 70
    70
  9
$TILEMODE
 70
     1
  9
$MAXACTVP
 70
    16
  9
$PLIMCHECK
 70
     0
  9
$PEXTMIN
 10
1.0000000000000000E+020
 20
1.0000000000000000E+020
 30
1.0000000000000000E+020
  9
$PEXTMAX
 10
-1.0000000000000000E+020
 20
-1.0000000000000000E+020
 30
-1.0000000000000000E+020
  9
$PLIMMIN
 10
0.0
 20
0.0
  9
$PLIMMAX
 10
420.0
 20
297.0
  9
$UNITMODE
 70
     0
  9
$VISRETAIN
 70
     1
  9
$PLINEGEN
 70
     0
  9
$PSLTSCALE
 70
     1
  0
ENDSEC
  0
SECTION
  2
TABLES
  0
TABLE
  2
VPORT
 70
     3
  0
VPORT
  2
*ACTIVE
 70
     0
 10
0.0
 20
0.0
 11
1.0
 21
1.0
 12
-63.670371564769169
 22
-0.5110927735351538
 13
0.0
 23
0.0
 14
7.0
 24
7.0
 15
7.0
 25
7.0
 16
0.0
 26
0.0
 36
1.0
 17
0.0
 27
0.0
 37
0.0
 40
98.548432343279941
 41
1.548780487804877
 42
50.0
 43
0.0
 44
0.0
 50
0.0
 51
0.0
 71
     0
 72
  2000
 73
     1
 74
     0
 75
     0
 76
     1
 77
     0
 78
     0
  0
ENDTAB
  0
TABLE
  2
LTYPE
 70
    13
  0
LTYPE
  2
CONTINUOUS
 70
     0
  3
Solid line
 72
    65
 73
     0
 40
0.0
  0
LTYPE
  2
CENTER2
 70
     0
  3
___ _ ___ _ ___ _ ___ _ ___ _ ___ _ ___ _ ___ _
 72
    65
 73
     4
 40
1.125
 49
0.75
 49
-0.125
 49
0.125
 49
-0.125
  0
LTYPE
  2
HIDDEN2
 70
     0
  3
_ _ _ _ _ _ _ _ _ _ _ _ _ _ _ _ _ _ _ _ _ _ _ _
 72
    65
 73
     2
 40
0.1875
 49
0.125
 49
-0.0625
  0
LTYPE
  2
PHANTOM2
 70
     0
  3
___ _ _ ___ _ _ ___ _ _ ___ _ _ ___ _ _ ___ _ _
 72
    65
 73
     6
 40
1.25
 49
0.625
 49
-0.125
 49
0.125
 49
-0.125
 49
0.125
 49
-0.125
  0
LTYPE
  2
CENTER
 70
     0
  3
____ _ ____ _ ____ _ ____ _ ____ _ ____ _ ____ 
 72
    65
 73
     4
 40
2.0
 49
1.25
 49
-0.25
 49
0.25
 49
-0.25
  0
LTYPE
  2
AM_ISO02W050
 70
     0
  3
__ __ __ __ __ __ __ __ __ __ __ __ __ __ __
 72
    65
 73
     2
 40
7.5
 49
6.0
 49
-1.5
  0
LTYPE
  2
AMCONSTR
 70
     0
  3
_______________________
 72
    65
 73
     2
 40
9999.0
 49
9999.0
 49
0.0
  0
LTYPE
  2
ACISOWELD
 70
     0
  3
_ _ _ _ _
 72
    65
 73
     2
 40
2.0
 49
2.0
 49
-1.0
  0
LTYPE
  2
ACISOTGB
 70
     0
  3
__ . . __ . .
 72
    65
 73
     6
 40
9.0
 49
4.0
 49
-1.0
 49
1.0
 49
-1.0
 49
1.0
 49
-1.0
  0
LTYPE
  2
ACISOTGL
 70
     0
  3
_ _ _ _ _
 72
    65
 73
     2
 40
3.0
 49
2.0
 49
-1.0
  0
LTYPE
  2
ACJISTGB
 70
     0
  3
__ . . __ . .
 72
    65
 73
     6
 40
9.0
 49
4.0
 49
-1.0
 49
1.0
 49
-1.0
 49
1.0
 49
-1.0
  0
LTYPE
  2
ACJISTGL
 70
     0
  3
_ _ _ _ _
 72
    65
 73
     2
 40
3.0
 49
2.0
 49
-1.0
  0
LTYPE
  2
HIDDEN
 70
     0
  3
Hidden __ __ __ __ __ __ __ __ __ __ __ __ __ _
 72
    65
 73
     2
 40
9.5249999999999986
 49
6.3499999999999988
 49
-3.1749999999999989
  0
ENDTAB
  0
TABLE
  2
LAYER
 70
     8
  0
LAYER
  2
0
 70
     0
 62
     7
  6
CONTINUOUS
  0
LAYER
  2
DEFPOINTS
 70
     0
 62
     7
  6
CONTINUOUS
  0
LAYER
  2
245
 70
     0
 62
     2
  6
CENTER2
  0
LAYER
  2
240
 70
     0
 62
     4
  6
CONTINUOUS
  0
LAYER
  2
241
 70
     0
 62
   211
  6
CONTINUOUS
  0
LAYER
  2
246
 70
     0
 62
     3
  6
PHANTOM2
  0
LAYER
  2
250
 70
     0
 62
     3
  6
CONTINUOUS
  0
LAYER
  2
247
 70
     0
 62
    60
  6
CONTINUOUS
  0
ENDTAB
  0
TABLE
  2
STYLE
 70
     6
  0
STYLE
  2
STANDARD
 70
     0
 40
0.0
 41
1.0
 50
0.0
 71
     0
 42
3.0
  3
romans.shx
  4
extfont.shx
  0
STYLE
  2
ACISOTS
 70
     0
 40
1.0
 41
1.0
 50
0.0
 71
     0
 42
3.0
  3
amgdt.shx
  4
extfont.shx
  0
STYLE
  2
ACISOGDT
 70
     0
 40
0.0
 41
1.0
 50
0.0
 71
     0
 42
3.0
  3
amgdt.shx
  4
extfont.shx
  0
STYLE
  2
ACJISTS
 70
     0
 40
1.0
 41
1.0
 50
0.0
 71
     0
 42
3.0
  3
amgdt.shx
  4
extfont.shx
  0
STYLE
  2
ACJISGDT
 70
     0
 40
0.0
 41
1.0
 50
0.0
 71
     0
 42
3.0
  3
amgdt.shx
  4
extfont.shx
  0
STYLE
  2
YOKO
 70
     0
 40
0.0
 41
1.0
 50
0.0
 71
     0
 42
3.0
  3
romans.shx
  4
extfont.shx
  0
ENDTAB
  0
TABLE
  2
VIEW
 70
     0
  0
ENDTAB
  0
TABLE
  2
UCS
 70
     0
  0
ENDTAB
  0
TABLE
  2
APPID
 70
    31
  0
APPID
  2
ACAD
 70
     0
  0
APPID
  2
GLOBAL
 70
     0
  0
APPID
  2
DETAIL
 70
     0
  0
APPID
  2
GRPNAME
 70
     0
  0
APPID
  2
GPARA
 70
     0
  0
APPID
  2
MCAD_NO_VIS
 70
     0
  0
APPID
  2
ACAD_TEMP_GRAPHIC
 70
     0
  0
APPID
  2
ACATTRIBSERVICES
 70
     0
  0
APPID
  2
GENIUS_GENSCREG_15
 70
     0
  0
APPID
  2
GENIUS_GENODEF_13
 70
     0
  0
APPID
  2
GENIUS_GENOBJ-N-SDF_13
 70
     0
  0
APPID
  2
GENIUS_GENREC_14
 70
     0
  0
APPID
  2
GENIUS_GENOBJ-N-REC_13
 70
     0
  0
APPID
  2
GENIUS_GENDIMSH_14
 70
     0
  0
APPID
  2
GENIUS_GENOBJ-N-DIM_13
 70
     0
  0
APPID
  2
GENIUS_GENDIM_13
 70
     0
  0
APPID
  2
GENIUS_GENDTOL_13
 70
     0
  0
APPID
  2
GENIUS_GENOLIS_13
 70
     0
  0
APPID
  2
GENIUS_GENOENT_13
 70
     0
  0
APPID
  2
GENIUS_GENOBJ-F-FEM_13
 70
     0
  0
APPID
  2
GENIUS_GENOREF_13
 70
     0
  0
APPID
  2
GENIUS_GEFFEM_13
 70
     0
  0
APPID
  2
GENIUS_GEFFEMP_13
 70
     0
  0
APPID
  2
AD_DRAW
 70
     0
  0
APPID
  2
DESIGNERASSEMBLIES
 70
     0
  0
APPID
  2
ACADM_DIM_EDIT
 70
     0
  0
APPID
  2
AMDT_DM_ADJ
 70
     0
  0
APPID
  2
GENIUS_GENOBJ-N-FIL_13
 70
     0
  0
APPID
  2
HATCH_TYPE
 70
     0
  0
APPID
  2
HATCH_DISPLAY
 70
     0
  0
APPID
  2
HATCH_DISTANCE
 70
     0
  0
ENDTAB
  0
TABLE
  2
DIMSTYLE
 70
    23
  0
DIMSTYLE
  2
BIGT
 70
     0
  3

  4

  5
OPEN
  6

  7

 40
1.0
 41
2.2299999999999991
 42
0.5
 43
7.0
 44
1.0
 45
0.0
 46
0.0
 47
0.0
 48
0.01
140
2.7999999999999989
141
0.0
142
0.0
143
25.399999999999999
144
1.0
145
0.0
146
1.0
147
1.0
 71
     0
 72
     0
 73
     0
 74
     0
 75
     0
 76
     0
 77
     3
 78
     9
170
     0
171
     2
172
     1
173
     0
174
     1
175
     0
176
   256
177
   256
178
    40
  0
DIMSTYLE
  2
AM_ISO
 70
     0
  3

  4
"
  5

  6

  7

 40
1.0
 41
2.5
 42
1.0
 43
10.0
 44
1.0
 45
0.0
 46
0.0
 47
0.1
 48
0.1
140
3.5
141
0.0
142
0.0
143
0.0393701
144
1.0
145
0.0
146
0.71
147
1.5
 71
     0
 72
     0
 73
     0
 74
     0
 75
     0
 76
     0
 77
     1
 78
     8
170
     0
171
     2
172
     1
173
     0
174
     0
175
     0
176
   256
177
   256
178
     2
  0
DIMSTYLE
  2
AM_ISO$3
 70
     0
  3

  4
"
  5

  6

  7

 40
1.0
 41
2.5
 42
1.0
 43
10.0
 44
1.0
 45
0.0
 46
0.0
 47
0.1
 48
0.1
140
3.5
141
0.0
142
0.0
143
0.0393701
144
1.0
145
0.0
146
0.71
147
1.5
 71
     0
 72
     0
 73
     0
 74
     1
 75
     0
 76
     0
 77
     1
 78
     8
170
     0
171
     2
172
     0
173
     0
174
     0
175
     0
176
   256
177
   256
178
     2
  0
DIMSTYLE
  2
AM_ISO$4
 70
     0
  3

  4
"
  5

  6

  7

 40
1.0
 41
2.5
 42
1.0
 43
10.0
 44
1.0
 45
0.0
 46
0.0
 47
0.1
 48
0.1
140
3.5
141
0.0
142
0.0
143
0.0393701
144
1.0
145
0.0
146
0.71
147
1.5
 71
     0
 72
     0
 73
     0
 74
     1
 75
     0
 76
     0
 77
     1
 78
     8
170
     0
171
     2
172
     0
173
     0
174
     0
175
     0
176
   256
177
   256
178
     2
  0
DIMSTYLE
  2
AM_ISO$6
 70
     0
  3

  4
"
  5

  6

  7

 40
1.0
 41
2.5
 42
1.0
 43
10.0
 44
1.0
 45
0.0
 46
0.0
 47
0.1
 48
0.1
140
3.5
141
0.0
142
0.0
143
0.0393701
144
1.0
145
0.0
146
0.71
147
1.5
 71
     0
 72
     0
 73
     0
 74
     0
 75
     0
 76
     0
 77
     0
 78
     8
170
     0
171
     2
172
     1
173
     0
174
     0
175
     0
176
   256
177
   256
178
     2
  0
DIMSTYLE
  2
AM_ISO$7
 70
     0
  3

  4
"
  5

  6

  7

 40
1.0
 41
2.5
 42
1.0
 43
10.0
 44
1.0
 45
0.0
 46
0.0
 47
0.1
 48
0.1
140
5.0
141
0.0
142
0.0
143
0.0393701
144
1.0
145
0.0
146
0.71
147
1.5
 71
     0
 72
     0
 73
     0
 74
     0
 75
     0
 76
     0
 77
     1
 78
     8
170
     0
171
     2
172
     1
173
     0
174
     0
175
     0
176
   256
177
   256
178
     2
  0
DIMSTYLE
  2
AM_ISO$SF
 70
     0
  3

  4
"
  5

  6

  7

 40
1.0
 41
2.5
 42
1.0
 43
10.0
 44
1.0
 45
0.0
 46
0.0
 47
0.1
 48
0.1
140
3.5
141
0.0
142
0.0
143
0.0393701
144
1.0
145
0.0
146
0.71
147
1.5
 71
     0
 72
     0
 73
     0
 74
     0
 75
     1
 76
     1
 77
     1
 78
     8
170
     0
171
     2
172
     1
173
     0
174
     0
175
     0
176
   256
177
   256
178
     2
  0
DIMSTYLE
  2
AM_ISO$SH
 70
     0
  3

  4
"
  5

  6
GENAXEH
  7

 40
1.0
 41
2.5
 42
1.0
 43
10.0
 44
1.0
 45
0.0
 46
0.0
 47
0.1
 48
0.1
140
3.5
141
0.0
142
0.0
143
0.0393701
144
2.0
145
0.0
146
0.71
147
1.5
 71
     0
 72
     0
 73
     0
 74
     0
 75
     1
 76
     1
 77
     1
 78
     8
170
     0
171
     2
172
     1
173
     1
174
     0
175
     0
176
   256
177
   256
178
     2
  0
DIMSTYLE
  2
BIGT$2
 70
     0
  3

  4

  5
OPEN
  6

  7

 40
1.0
 41
2.2299999999999991
 42
0.5
 43
7.0
 44
1.0
 45
0.0
 46
0.0
 47
0.0
 48
0.01
140
2.7999999999999989
141
0.0
142
0.0
143
25.399999999999999
144
1.0
145
0.0
146
1.0
147
1.0
 71
     0
 72
     0
 73
     0
 74
     0
 75
     0
 76
     0
 77
     3
 78
     9
170
     0
171
     2
172
     1
173
     0
174
     0
175
     0
176
   256
177
   256
178
    40
  0
DIMSTYLE
  2
BIGT$3
 70
     0
  3

  4

  5
OPEN
  6

  7

 40
1.0
 41
2.2299999999999991
 42
0.5
 43
2.5
 44
1.0
 45
0.0
 46
0.0
 47
0.0
 48
0.01
140
2.7999999999999989
141
0.0
142
0.0
143
25.399999999999999
144
1.0
145
0.0
146
1.0
147
1.0
 71
     0
 72
     0
 73
     0
 74
     0
 75
     0
 76
     0
 77
     3
 78
     9
170
     0
171
     2
172
     1
173
     0
174
     0
175
     0
176
   256
177
   256
178
    40
  0
DIMSTYLE
  2
BIGT$7
 70
     0
  3

  4

  5
OPEN
  6

  7

 40
0.0
 41
2.2299999999999991
 42
0.5
 43
7.0
 44
1.0
 45
0.0
 46
0.0
 47
0.0
 48
0.01
140
2.7999999999999989
141
0.0
142
0.0
143
25.399999999999999
144
1.0
145
0.0
146
1.0
147
1.0
 71
     0
 72
     0
 73
     0
 74
     0
 75
     0
 76
     0
 77
     3
 78
     9
170
     0
171
     2
172
     0
173
     0
174
     0
175
     0
176
   256
177
   256
178
    40
  0
DIMSTYLE
  2
BIGT$6
 70
     0
  3

  4

  5
OPEN
  6

  7

 40
1.0
 41
2.2299999999999991
 42
0.5
 43
2.5
 44
1.0
 45
0.0
 46
0.0
 47
0.0
 48
0.01
140
2.7999999999999989
141
0.0
142
0.0
143
25.399999999999999
144
1.0
145
0.0
146
1.0
147
1.0
 71
     0
 72
     0
 73
     0
 74
     0
 75
     0
 76
     0
 77
     3
 78
     9
170
     0
171
     2
172
     1
173
     0
174
     0
175
     0
176
   256
177
   256
178
    40
  0
DIMSTYLE
  2
BIGT$0
 70
     0
  3

  4

  5
OPEN
  6

  7

 40
1.0
 41
2.2299999999999991
 42
0.5
 43
7.0
 44
1.0
 45
0.0
 46
0.0
 47
0.0
 48
0.01
140
2.7999999999999989
141
0.0
142
0.0
143
25.399999999999999
144
1.0
145
0.0
146
1.0
147
1.0
 71
     0
 72
     0
 73
     0
 74
     0
 75
     0
 76
     0
 77
     3
 78
     9
170
     0
171
     2
172
     1
173
     0
174
     0
175
     0
176
   256
177
   256
178
    40
  0
DIMSTYLE
  2
BIGT$4
 70
     0
  3

  4

  5
OPEN
  6

  7

 40
1.0
 41
2.2299999999999991
 42
0.5
 43
2.5
 44
1.0
 45
0.0
 46
0.0
 47
0.0
 48
0.01
140
2.7999999999999989
141
0.0
142
0.0
143
25.399999999999999
144
1.0
145
0.0
146
1.0
147
1.0
 71
     0
 72
     0
 73
     0
 74
     0
 75
     0
 76
     0
 77
     3
 78
     9
170
     0
171
     2
172
     1
173
     0
174
     0
175
     0
176
   256
177
   256
178
    40
  0
DIMSTYLE
  2
BIGT$SH
 70
     0
  3

  4

  5
OPEN
  6

  7

 40
1.0
 41
2.2299999999999991
 42
0.5
 43
7.0
 44
1.0
 45
0.0
 46
0.0
 47
0.0
 48
0.0
140
2.7999999999999989
141
0.0
142
0.0
143
25.399999999999999
144
1.0
145
0.0
146
1.0
147
1.0
 71
     0
 72
     0
 73
     0
 74
     0
 75
     0
 76
     0
 77
     3
 78
     9
170
     0
171
     2
172
     1
173
     0
174
     0
175
     0
176
   256
177
   256
178
    40
  0
DIMSTYLE
  2
BIGT$SF
 70
     0
  3

  4

  5
OPEN
  6

  7

 40
1.0
 41
2.2299999999999991
 42
0.5
 43
7.0
 44
1.0
 45
0.0
 46
0.0
 47
0.0
 48
0.0
140
2.7999999999999989
141
0.0
142
0.0
143
25.399999999999999
144
1.0
145
0.0
146
1.0
147
1.0
 71
     0
 72
     0
 73
     0
 74
     0
 75
     0
 76
     0
 77
     3
 78
     9
170
     0
171
     2
172
     1
173
     0
174
     0
175
     0
176
   256
177
   256
178
    40
  0
DIMSTYLE
  2
TECHNICAL_OSAKA
 70
     0
  3

  4
"
  5
OPEN30
  6

  7

 40
1.0
 41
2.5
 42
1.0
 43
10.0
 44
1.0
 45
0.0
 46
0.0
 47
0.1
 48
0.1
140
2.7999999999999989
141
0.0
142
0.0
143
0.0393701
144
1.0
145
0.0
146
0.71
147
1.5
 71
     0
 72
     0
 73
     0
 74
     0
 75
     0
 76
     0
 77
     3
 78
     8
170
     0
171
     2
172
     1
173
     0
174
     0
175
     0
176
   256
177
   256
178
    40
  0
DIMSTYLE
  2
TECHNICAL_OSAKA$3
 70
     0
  3

  4
"
  5
OPEN30
  6

  7

 40
1.0
 41
2.5
 42
1.0
 43
10.0
 44
1.0
 45
0.0
 46
0.0
 47
0.1
 48
0.1
140
2.7999999999999989
141
0.0
142
0.0
143
0.0393701
144
1.0
145
0.0
146
0.71
147
1.5
 71
     0
 72
     0
 73
     0
 74
     1
 75
     0
 76
     0
 77
     3
 78
     8
170
     0
171
     2
172
     0
173
     0
174
     0
175
     0
176
   256
177
   256
178
    40
  0
DIMSTYLE
  2
TECHNICAL_OSAKA$4
 70
     0
  3

  4
"
  5
OPEN30
  6

  7

 40
1.0
 41
2.5
 42
1.0
 43
10.0
 44
1.0
 45
0.0
 46
0.0
 47
0.1
 48
0.1
140
2.7999999999999989
141
0.0
142
0.0
143
0.0393701
144
1.0
145
0.0
146
0.71
147
1.5
 71
     0
 72
     0
 73
     0
 74
     1
 75
     0
 76
     0
 77
     3
 78
     8
170
     0
171
     2
172
     0
173
     0
174
     0
175
     0
176
   256
177
   256
178
    40
  0
DIMSTYLE
  2
TECHNICAL_OSAKA$6
 70
     0
  3

  4
"
  5
OPEN30
  6

  7

 40
1.0
 41
2.5
 42
1.0
 43
10.0
 44
1.0
 45
0.0
 46
0.0
 47
0.1
 48
0.1
140
2.7999999999999989
141
0.0
142
0.0
143
0.0393701
144
1.0
145
0.0
146
0.71
147
1.5
 71
     0
 72
     0
 73
     0
 74
     0
 75
     0
 76
     0
 77
     0
 78
     8
170
     0
171
     2
172
     1
173
     0
174
     0
175
     0
176
   256
177
   256
178
    40
  0
DIMSTYLE
  2
TECHNICAL_OSAKA$7
 70
     0
  3

  4
"
  5
OPEN30
  6

  7

 40
1.0
 41
2.5
 42
1.0
 43
10.0
 44
1.0
 45
0.0
 46
0.0
 47
0.1
 48
0.1
140
2.7999999999999989
141
0.0
142
0.0
143
0.0393701
144
1.0
145
0.0
146
0.71
147
1.5
 71
     0
 72
     0
 73
     0
 74
     0
 75
     0
 76
     0
 77
     3
 78
     8
170
     0
171
     2
172
     1
173
     0
174
     0
175
     0
176
   256
177
   256
178
    40
  0
DIMSTYLE
  2
TECHNICAL_OSAKA$SF
 70
     0
  3

  4
"
  5
OPEN30
  6
OPEN30
  7
OPEN30
 40
1.0
 41
2.5
 42
1.0
 43
10.0
 44
1.0
 45
0.0
 46
0.0
 47
0.1
 48
0.1
140
3.5
141
0.0
142
0.0
143
0.0393701
144
1.0
145
0.0
146
0.71
147
1.5
 71
     0
 72
     0
 73
     0
 74
     0
 75
     1
 76
     1
 77
     3
 78
     8
170
     0
171
     2
172
     1
173
     0
174
     0
175
     0
176
   256
177
   256
178
    40
  0
DIMSTYLE
  2
TECHNICAL_OSAKA$SH
 70
     0
  3

  4
"
  5
OPEN30
  6
GENAXEH
  7
OPEN30
 40
1.0
 41
2.5
 42
1.0
 43
10.0
 44
1.0
 45
0.0
 46
0.0
 47
0.1
 48
0.1
140
3.5
141
0.0
142
0.0
143
0.0393701
144
2.0
145
0.0
146
0.71
147
1.5
 71
     0
 72
     0
 73
     0
 74
     0
 75
     1
 76
     1
 77
     3
 78
     8
170
     0
171
     2
172
     1
173
     1
174
     0
175
     0
176
   256
177
   256
178
    40
  0
ENDTAB
  0
ENDSEC
  0
SECTION
  2
BLOCKS
  0
BLOCK
  8
0
  2
$MODEL_SPACE
 70
     0
 10
0.0
 20
0.0
 30
0.0
  3
$MODEL_SPACE
  1

  0
ENDBLK
  5
1C
  8
0
  0
BLOCK
 67
     1
  8
0
  2
$PAPER_SPACE
 70
     0
 10
0.0
 20
0.0
 30
0.0
  3
$PAPER_SPACE
  1

  0
ENDBLK
  5
19
 67
     1
  8
0
  0
BLOCK
  8
0
  2
_OPEN
 70
     0
 10
0.0
 20
0.0
 30
0.0
  3
_OPEN
  1

  0
LINE
  5
1998
  8
0
  6
BYBLOCK
 62
     0
 10
-1.0
 20
0.1666666666666666
 30
0.0
 11
0.0
 21
0.0
 31
0.0
  0
LINE
  5
1999
  8
0
  6
BYBLOCK
 62
     0
 10
-1.0
 20
-0.1666666666666666
 30
0.0
 11
0.0
 21
0.0
 31
0.0
  0
LINE
  5
199A
  8
0
  6
BYBLOCK
 62
     0
 10
0.0
 20
0.0
 30
0.0
 11
-1.0
 21
0.0
 31
0.0
  0
ENDBLK
  5
199B
  8
0
  0
BLOCK
  8
0
  2
GENAXEH
 70
     0
 10
0.0
 20
0.0
 30
0.0
  3
GENAXEH
  1

  0
LINE
  5
19C3
  8
0
 10
-1.0
 20
0.0
 30
0.0
 11
1.0
 21
0.0
 31
0.0
  0
ENDBLK
  5
19C4
  8
0
  0
BLOCK
  8
0
  2
_OPEN30
 70
     0
 10
0.0
 20
0.0
 30
0.0
  3
_OPEN30
  1

  0
LINE
  5
19E8
  8
0
  6
BYBLOCK
 62
     0
 10
-1.0
 20
0.26794919
 30
0.0
 11
0.0
 21
0.0
 31
0.0
  0
LINE
  5
19E9
  8
0
  6
BYBLOCK
 62
     0
 10
0.0
 20
0.0
 30
0.0
 11
-1.0
 21
-0.26794919
 31
0.0
  0
LINE
  5
19EA
  8
0
  6
BYBLOCK
 62
     0
 10
0.0
 20
0.0
 30
0.0
 11
-1.0
 21
0.0
 31
0.0
  0
ENDBLK
  5
19EB
  8
0
  0
BLOCK
  8
0
  2
A$C75D02D40
 70
     0
 10
0.0
 20
0.0
 30
0.0
  3
A$C75D02D40
  1

  0
LINE
  5
174D
  8
247
 10
-115.30160803048381
 20
-4.4760304304671621
 30
0.0
 11
-114.4122360222011
 21
-3.5866584221844979
 31
0.0
  0
LINE
  5
174E
  8
247
 10
-115.33808381599719
 20
-4.7711375922673653
 30
0.0
 11
-115.0670826850251
 21
-4.5001364612952841
 31
0.0
  0
LINE
  5
174F
  8
247
 10
-114.38812999137291
 20
-3.8211837676431539
 30
0.0
 11
-114.1171288604009
 21
-3.5501826366710709
 31
0.0
  0
LINE
  5
1750
  8
247
 10
-115.3153504558727
 20
-5.0070356084296659
 30
0.0
 11
-115.1049820791069
 21
-4.7966672316638377
 31
0.0
  0
LINE
  5
1751
  8
247
 10
-114.09130152191609
 20
-3.782986674473078
 30
0.0
 11
-113.8584968344161
 21
-3.550181986973084
 31
0.0
  0
LINE
  5
1752
  8
247
 10
-115.2577852590928
 20
-5.2081017879365197
 30
0.0
 11
-115.07294774614481
 21
-5.0232642749885263
 31
0.0
  0
LINE
  5
1753
  8
247
 10
-113.83267014562939
 20
-3.7829866744730789
 30
0.0
 11
-113.6492617008132
 21
-3.5995782296570829
 31
0.0
  0
LINE
  5
1754
  8
247
 10
-115.17441882618959
 20
-5.3833667313201081
 30
0.0
 11
-115.00252045796449
 21
-5.2114683630949994
 31
0.0
  0
LINE
  5
1755
  8
247
 10
-115.0694013493278
 20
-5.536980630745103
 30
0.0
 11
-114.9035547226774
 21
-5.3711340040946958
 31
0.0
  0
LINE
  5
1756
  8
247
 10
-114.9445624237152
 20
-5.6707730814194042
 30
0.0
 11
-114.77977915304621
 21
-5.5059898107502843
 31
0.0
  0
LINE
  5
1757
  8
247
 10
-114.8002158452864
 20
-5.78505787927726
 30
0.0
 11
-114.6318003355194
 21
-5.6166423695103003
 31
0.0
  0
LINE
  5
1758
  8
247
 10
-114.6352801955522
 20
-5.8787536058299139
 30
0.0
 11
-114.457488095058
 21
-5.7009615053358393
 31
0.0
  0
LINE
  5
1759
  8
247
 10
-114.44684221535771
 20
-5.9489470019222317
 30
0.0
 11
-114.25050137502279
 21
-5.7526061615873436
 31
0.0
  0
LINE
  5
175A
  8
247
 10
-114.2286617387298
 20
-5.9893979015811221
 30
0.0
 11
-114.001073051905
 21
-5.7618092147562896
 31
0.0
  0
LINE
  5
175B
  8
247
 10
-113.97524635712669
 20
-5.9946138962647808
 30
0.0
 11
-113.7424416756182
 21
-5.7618092147562896
 31
0.0
  0
LINE
  5
175C
  8
247
 10
-113.71661498083991
 20
-5.9946138962647808
 30
0.0
 11
-113.4838102993314
 21
-5.7618092147562896
 31
0.0
  0
LINE
  5
175D
  8
247
 10
-113.45798360455311
 20
-5.9946138962647808
 30
0.0
 11
-113.2251789230446
 21
-5.7618092147562896
 31
0.0
  0
LINE
  5
175E
  8
247
 10
-113.19935222826641
 20
-5.994613896264787
 30
0.0
 11
-112.96654754675779
 21
-5.7618092147562958
 31
0.0
  0
LINE
  5
175F
  8
247
 10
-112.94072085197961
 20
-5.994613896264787
 30
0.0
 11
-112.70791617047109
 21
-5.7618092147562896
 31
0.0
  0
LINE
  5
1760
  8
247
 10
-112.68208947569281
 20
-5.9946138962647808
 30
0.0
 11
-112.44928479418419
 21
-5.7618092147562896
 31
0.0
  0
LINE
  5
1761
  8
247
 10
-112.42345809940601
 20
-5.9946138962647808
 30
0.0
 11
-112.19065341789749
 21
-5.7618092147562896
 31
0.0
  0
LINE
  5
1762
  8
247
 10
-112.16482672311921
 20
-5.9946138962647808
 30
0.0
 11
-111.93202204161069
 21
-5.7618092147562896
 31
0.0
  0
LINE
  5
1763
  8
247
 10
-111.9061953468324
 20
-5.9946138962647808
 30
0.0
 11
-111.67339066532389
 21
-5.7618092147562896
 31
0.0
  0
LINE
  5
1764
  8
247
 10
-109.6537621078909
 20
-3.7421806573233019
 30
0.0
 11
-109.4640084212791
 21
-3.5524269707114868
 31
0.0
  0
LINE
  5
1765
  8
247
 10
-111.6475639705456
 20
-5.994613896264787
 30
0.0
 11
-111.41475928903709
 21
-5.7618092147562896
 31
0.0
  0
LINE
  5
1766
  8
247
 10
-109.43705821476139
 20
-3.784108140480642
 30
0.0
 11
-109.21562926524911
 21
-3.5626791909682951
 31
0.0
  0
LINE
  5
1767
  8
247
 10
-111.3889325942588
 20
-5.9946138962647808
 30
0.0
 11
-111.15612791275031
 21
-5.7618092147562896
 31
0.0
  0
LINE
  5
1768
  8
247
 10
-109.19641998077419
 20
-3.802101282780157
 30
0.0
 11
-109.0062846308948
 21
-3.611965932900822
 31
0.0
  0
LINE
  5
1769
  8
247
 10
-111.130301217972
 20
-5.9946138962647808
 30
0.0
 11
-110.89749653646351
 21
-5.7618092147562896
 31
0.0
  0
LINE
  5
176A
  8
247
 10
-108.9991360630974
 20
-3.8634487413901999
 30
0.0
 11
-108.8245285155318
 21
-3.688841193824635
 31
0.0
  0
LINE
  5
176B
  8
247
 10
-110.8716698416852
 20
-5.994613896264787
 30
0.0
 11
-110.63886516017671
 21
-5.7618092147562798
 31
0.0
  0
LINE
  5
176C
  8
247
 10
-108.8322251949342
 20
-3.9551692495137938
 30
0.0
 11
-108.6652660883789
 21
-3.7882101429584418
 31
0.0
  0
LINE
  5
176D
  8
247
 10
-110.6130384653984
 20
-5.994613896264787
 30
0.0
 11
-110.38023378388991
 21
-5.7618092147562958
 31
0.0
  0
LINE
  5
176E
  8
247
 10
-108.69077368462661
 20
-4.0723491154929548
 30
0.0
 11
-108.52615588629121
 21
-3.907731317157598
 31
0.0
  0
LINE
  5
176F
  8
247
 10
-110.3544070891116
 20
-5.994613896264787
 30
0.0
 11
-110.12160240760321
 21
-5.7618092147562896
 31
0.0
  0
LINE
  5
1770
  8
247
 10
-108.57343225880589
 20
-4.2136390659590779
 30
0.0
 11
-108.4065047158565
 21
-4.0467115230096269
 31
0.0
  0
LINE
  5
1771
  8
247
 10
-110.0957757128249
 20
-5.9946138962647808
 30
0.0
 11
-109.86297103131641
 21
-5.7618092147562896
 31
0.0
  0
LINE
  5
1772
  8
247
 10
-108.48153154849
 20
-4.380369731929922
 30
0.0
 11
-108.30699635074851
 21
-4.205834534188484
 31
0.0
  0
LINE
  5
1773
  8
247
 10
-109.8371443365381
 20
-5.9946138962647808
 30
0.0
 11
-109.60433965502951
 21
-5.7618092147562896
 31
0.0
  0
LINE
  5
1774
  8
247
 10
-108.4199534631426
 20
-4.5774230228693948
 30
0.0
 11
-108.229958984814
 21
-4.3874285445406898
 31
0.0
  0
LINE
  5
1775
  8
247
 10
-109.5785129602513
 20
-5.994613896264787
 30
0.0
 11
-109.34467077331659
 21
-5.760771709330136
 31
0.0
  0
LINE
  5
1776
  8
247
 10
-108.4015894699007
 20
-4.8176904059142061
 30
0.0
 11
-108.1804619852998
 21
-4.596562921313307
 31
0.0
  0
LINE
  5
1777
  8
247
 10
-109.31774587973059
 20
-5.9924781920309487
 30
0.0
 11
-109.0120657040454
 21
-5.6867980163456844
 31
0.0
  0
LINE
  5
1778
  8
247
 10
-108.47556316288519
 20
-5.1502954751854659
 30
0.0
 11
-108.1698829871999
 21
-4.8446152995002052
 31
0.0
  0
LINE
  5
1779
  8
247
 10
-108.9960224910664
 20
-5.9293861796535001
 30
0.0
 11
-108.23297499957719
 21
-5.166338688164438
 31
0.0
  0
LINE
  5
177A
  8
247
 10
-111.8135024394619
 20
-3.574238602313208
 30
0.0
 11
-111.7894458241218
 21
-3.550181986973084
 31
0.0
  0
LINE
  5
177B
  8
247
 10
-111.79863249598939
 20
-3.818000035127461
 30
0.0
 11
-111.530814447835
 21
-3.5501819869730928
 31
0.0
  0
LINE
  5
177C
  8
247
 10
-111.9026093887544
 20
-4.1806083041791942
 30
0.0
 11
-111.2721830715482
 21
-3.550181986973084
 31
0.0
  0
LINE
  5
177D
  8
247
 10
-112.0065862815193
 20
-4.5432165732309189
 30
0.0
 11
-111.27655889357609
 21
-3.813189185287702
 31
0.0
  0
LINE
  5
177E
  8
247
 10
-112.1105631742842
 20
-4.9058248422826551
 30
0.0
 11
-111.38053436739349
 21
-4.1757960353919561
 31
0.0
  0
LINE
  5
177F
  8
247
 10
-112.2145400670491
 20
-5.2684331113343728
 30
0.0
 11
-111.48450984121099
 21
-4.5384028854961977
 31
0.0
  0
LINE
  5
1780
  8
247
 10
-112.3185169598141
 20
-5.6310413803860948
 30
0.0
 11
-111.58848531502839
 21
-4.9010097356004403
 31
0.0
  0
LINE
  5
1781
  8
247
 10
-112.0742510741475
 20
-5.6454068710062604
 30
0.0
 11
-111.69246078884591
 21
-5.263616585704689
 31
0.0
  0
LINE
  5
1782
  8
247
 10
-111.8156196978607
 20
-5.6454068710062604
 30
0.0
 11
-111.79643626266331
 21
-5.6262234358089236
 31
0.0
  0
LINE
  5
1783
  8
247
 10
-111.2255202018777
 20
-4.2794132461629797
 30
0.0
 11
-110.5000004690779
 21
-3.553893513363108
 31
0.0
  0
LINE
  5
1784
  8
247
 10
-111.311383962289
 20
-4.6239083828610399
 30
0.0
 11
-110.256654441826
 21
-3.5691788623979752
 31
0.0
  0
LINE
  5
1785
  8
247
 10
-111.34803068908541
 20
-4.919186485944218
 30
0.0
 11
-110.5889319061481
 21
-4.160087703006873
 31
0.0
  0
LINE
  5
1786
  8
247
 10
-110.2427260975991
 20
-3.8138818944579129
 30
0.0
 11
-110.0684035341164
 21
-3.639559330975223
 31
0.0
  0
LINE
  5
1787
  8
247
 10
-111.30688629868899
 20
-5.1366734718346621
 30
0.0
 11
-110.6929087389729
 21
-4.522695912118551
 31
0.0
  0
LINE
  5
1788
  8
247
 10
-110.0942234686467
 20
-3.92401064179227
 30
0.0
 11
-109.808558332584
 21
-3.6383455057295668
 31
0.0
  0
LINE
  5
1789
  8
247
 10
-111.2209706173258
 20
-5.3093891667581801
 30
0.0
 11
-110.7968855717978
 21
-4.8853041212302353
 31
0.0
  0
LINE
  5
178A
  8
247
 10
-109.7707934906468
 20
-3.859212040079214
 30
0.0
 11
-109.7465548918002
 21
-3.8349734412325782
 31
0.0
  0
LINE
  5
178B
  8
247
 10
-111.1013049236293
 20
-5.4483548493485108
 30
0.0
 11
-110.8547474314053
 21
-5.2017973571244909
 31
0.0
  0
LINE
  5
178C
  8
247
 10
-110.3438644831289
 20
-4.6909144088480801
 30
0.0
 11
-110.1110597956289
 21
-4.4581097213480794
 31
0.0
  0
LINE
  5
178D
  8
247
 10
-110.9498002582463
 20
-5.5554815602523089
 30
0.0
 11
-110.7465208919442
 21
-5.3522021939501538
 31
0.0
  0
LINE
  5
178E
  8
247
 10
-110.2917800222444
 20
-4.8974613242504059
 30
0.0
 11
-109.8524284193421
 21
-4.4581097213480891
 31
0.0
  0
LINE
  5
178F
  8
247
 10
-110.7618074939747
 20
-5.6261201722674539
 30
0.0
 11
-110.4884909798016
 21
-5.3528036580943574
 31
0.0
  0
LINE
  5
1790
  8
247
 10
-110.4090965836365
 20
-5.2734092619292321
 30
0.0
 11
-109.7166554674255
 21
-4.5809681457182858
 31
0.0
  0
LINE
  5
1791
  8
247
 10
-110.51893242815351
 20
-5.641876482733104
 30
0.0
 11
-109.8206319468196
 21
-4.9435760013991858
 31
0.0
  0
LINE
  5
1792
  8
247
 10
-110.14285930688889
 20
-5.5244347377552767
 30
0.0
 11
-109.92460842621369
 21
-5.3061838570800921
 31
0.0
  0
LINE
  5
1793
  8
247
 10
-111.2011430594452
 20
-3.550181986973088
 30
0.0
 11
-111.8066039969452
 21
-3.550181986973088
 31
0.0
1001
HATCH_DISTANCE
1040
1.0
1001
HATCH_DISPLAY
1070
     0
1001
HATCH_TYPE
1070
     7
  0
LINE
  5
1794
  8
247
 10
-111.8019370047577
 20
-5.6454068710062622
 30
0.0
 11
-111.2011430594452
 21
-3.550181986973088
 31
0.0
1001
HATCH_DISTANCE
1040
1.0
1001
HATCH_DISPLAY
1070
     0
1001
HATCH_TYPE
1070
     7
  0
LINE
  5
1795
  8
247
 10
-112.3226362235078
 20
-5.6454068710062622
 30
0.0
 11
-111.8019370047577
 21
-5.6454068710062622
 31
0.0
1001
HATCH_DISTANCE
1040
1.0
1001
HATCH_DISPLAY
1070
     0
1001
HATCH_TYPE
1070
     7
  0
LINE
  5
1796
  8
247
 10
-111.7952661063202
 20
-3.806260111973077
 30
0.0
 11
-112.3226362235078
 21
-5.6454068710062622
 31
0.0
1001
HATCH_DISTANCE
1040
1.0
1001
HATCH_DISPLAY
1070
     0
1001
HATCH_TYPE
1070
     7
  0
LINE
  5
1797
  8
247
 10
-111.88003661413271
 20
-3.806260111973077
 30
0.0
 11
-111.7952661063202
 21
-3.806260111973077
 31
0.0
1001
HATCH_DISTANCE
1040
1.0
1001
HATCH_DISPLAY
1070
     0
1001
HATCH_TYPE
1070
     7
  0
LINE
  5
1798
  8
247
 10
-111.8066039969452
 20
-3.550181986973088
 30
0.0
 11
-111.88003661413271
 21
-3.806260111973077
 31
0.0
1001
HATCH_DISTANCE
1040
1.0
1001
HATCH_DISPLAY
1070
     0
1001
HATCH_TYPE
1070
     7
  0
LINE
  5
1799
  8
247
 10
-111.2011430594452
 20
-3.550181986973088
 30
0.0
 11
-111.8066039969452
 21
-3.550181986973088
 31
0.0
  0
LINE
  5
179A
  8
247
 10
-111.8019370047577
 20
-5.6454068710062622
 30
0.0
 11
-111.2011430594452
 21
-3.550181986973088
 31
0.0
  0
LINE
  5
179B
  8
247
 10
-112.3226362235078
 20
-5.6454068710062622
 30
0.0
 11
-111.8019370047577
 21
-5.6454068710062622
 31
0.0
  0
LINE
  5
179C
  8
247
 10
-111.7952661063202
 20
-3.806260111973077
 30
0.0
 11
-112.3226362235078
 21
-5.6454068710062622
 31
0.0
  0
LINE
  5
179D
  8
247
 10
-111.88003661413271
 20
-3.806260111973077
 30
0.0
 11
-111.7952661063202
 21
-3.806260111973077
 31
0.0
  0
LINE
  5
179E
  8
247
 10
-111.8066039969452
 20
-3.550181986973088
 30
0.0
 11
-111.88003661413271
 21
-3.806260111973077
 31
0.0
  0
LINE
  5
179F
  8
247
 10
-109.6314604422577
 20
-3.812904643223078
 30
0.0
 11
-109.6314604422577
 21
-3.812904643223078
 31
0.0
1001
HATCH_DISTANCE
1040
1.0
1001
HATCH_DISPLAY
1070
     0
1001
HATCH_TYPE
1070
     7
  0
LINE
  5
17A0
  8
247
 10
-109.7015707938202
 20
-3.5905677291605982
 30
0.0
 11
-109.6314604422577
 21
-3.812904643223078
 31
0.0
1001
HATCH_DISTANCE
1040
1.0
1001
HATCH_DISPLAY
1070
     0
1001
HATCH_TYPE
1070
     7
  0
LINE
  5
17A1
  8
247
 10
-109.7015707938202
 20
-3.5905677291605982
 30
0.0
 11
-109.7015707938202
 21
-3.5905677291605982
 31
0.0
1001
HATCH_DISTANCE
1040
1.0
1001
HATCH_DISPLAY
1070
     0
1001
HATCH_TYPE
1070
     7
  0
LINE
  5
17A2
  8
247
 10
-109.6314604422577
 20
-3.812904643223078
 30
0.0
 11
-109.7015707938202
 21
-3.5905677291605982
 31
0.0
1001
HATCH_DISTANCE
1040
1.0
1001
HATCH_DISPLAY
1070
     0
1001
HATCH_TYPE
1070
     7
  0
LINE
  5
17A3
  8
247
 10
-109.6314604422577
 20
-3.812904643223078
 30
0.0
 11
-109.6314604422577
 21
-3.812904643223078
 31
0.0
  0
LINE
  5
17A4
  8
247
 10
-109.7015707938202
 20
-3.5905677291605982
 30
0.0
 11
-109.6314604422577
 21
-3.812904643223078
 31
0.0
  0
LINE
  5
17A5
  8
247
 10
-109.7015707938202
 20
-3.5905677291605982
 30
0.0
 11
-109.7015707938202
 21
-3.5905677291605982
 31
0.0
  0
LINE
  5
17A6
  8
247
 10
-109.6314604422577
 20
-3.812904643223078
 30
0.0
 11
-109.7015707938202
 21
-3.5905677291605982
 31
0.0
  0
LINE
  5
17A7
  8
247
 10
-109.6314604422577
 20
-3.812904643223078
 30
0.0
 11
-109.6314604422577
 21
-3.812904643223078
 31
0.0
1001
HATCH_DISTANCE
1040
1.0
1001
HATCH_DISPLAY
1070
     0
1001
HATCH_TYPE
1070
     7
  0
LINE
  5
17A8
  8
247
 10
-109.7015707938202
 20
-3.5905677291605982
 30
0.0
 11
-109.6314604422577
 21
-3.812904643223078
 31
0.0
1001
HATCH_DISTANCE
1040
1.0
1001
HATCH_DISPLAY
1070
     0
1001
HATCH_TYPE
1070
     7
  0
LINE
  5
17A9
  8
247
 10
-109.7015707938202
 20
-3.5905677291605982
 30
0.0
 11
-109.7015707938202
 21
-3.5905677291605982
 31
0.0
1001
HATCH_DISTANCE
1040
1.0
1001
HATCH_DISPLAY
1070
     0
1001
HATCH_TYPE
1070
     7
  0
LINE
  5
17AA
  8
247
 10
-109.6314604422577
 20
-3.812904643223078
 30
0.0
 11
-109.7015707938202
 21
-3.5905677291605982
 31
0.0
1001
HATCH_DISTANCE
1040
1.0
1001
HATCH_DISPLAY
1070
     0
1001
HATCH_TYPE
1070
     7
  0
LINE
  5
17AB
  8
247
 10
-109.6314604422577
 20
-3.812904643223078
 30
0.0
 11
-109.6314604422577
 21
-3.812904643223078
 31
0.0
  0
LINE
  5
17AC
  8
247
 10
-109.7015707938202
 20
-3.5905677291605982
 30
0.0
 11
-109.6314604422577
 21
-3.812904643223078
 31
0.0
  0
LINE
  5
17AD
  8
247
 10
-109.7015707938202
 20
-3.5905677291605982
 30
0.0
 11
-109.7015707938202
 21
-3.5905677291605982
 31
0.0
  0
LINE
  5
17AE
  8
247
 10
-109.6314604422577
 20
-3.812904643223078
 30
0.0
 11
-109.7015707938202
 21
-3.5905677291605982
 31
0.0
  0
ARC
  5
17AF
  8
247
 10
-110.4251391531952
 20
-4.3067884322855727
 30
0.0
 40
0.7566075439453125
 50
53.444012197057539
 51
164.0001843876851
  0
LINE
  5
17B0
  8
247
 10
-110.85199755163271
 20
-5.077501322910595
 30
0.0
 11
-110.5382455985077
 21
-3.983324565098088
 31
0.0
  0
ARC
  5
17B1
  8
247
 10
-110.6170219656952
 20
-5.1448782760356009
 30
0.0
 40
0.2444446334838867
 50
164.0002730571824
 51
344.0002730571826
  0
ARC
  5
17B2
  8
247
 10
-109.3550004813202
 20
-4.9285794479105798
 30
0.0
 40
1.9799648437499999
 50
155.20517736984041
 51
172.79482596205219
  0
ARC
  5
17B3
  8
247
 10
-109.3899633719452
 20
-4.7723978072855893
 30
0.0
 40
0.9894138793945311
 50
110.8721834020737
 51
132.5419489373877
  0
ARC
  5
17B4
  8
247
 10
-110.3032700125702
 20
-4.0507103072855859
 30
0.0
 40
0.2444448051452637
 50
1.7101213820627561
 51
163.9983983544472
  0
ARC
  5
17B5
  8
247
 10
-109.3899633719452
 20
-4.7723978072855893
 30
0.0
 40
1.222216369628905
 50
110.22964506332001
 51
118.57168892371681
  0
LINE
  5
17B6
  8
247
 10
-109.74247509069519
 20
-3.8479114791605888
 30
0.0
 11
-109.8125854422577
 21
-3.62557456509805
 31
0.0
  0
LINE
  5
17B7
  8
247
 10
-109.6314604422577
 20
-3.812904643223078
 30
0.0
 11
-109.7015707938202
 21
-3.5905677291605982
 31
0.0
  0
LINE
  5
17B8
  8
247
 10
-110.02187938757019
 20
-5.6454068710062622
 30
0.0
 11
-109.6814262625702
 21
-4.4581097213480829
 31
0.0
  0
LINE
  5
17B9
  8
247
 10
-110.3595463797577
 20
-4.4581097213480829
 30
0.0
 11
-109.6814262625702
 21
-4.4581097213480829
 31
0.0
  0
LINE
  5
17BA
  8
247
 10
-110.4262993094452
 20
-4.6909144088480739
 30
0.0
 11
-110.3595463797577
 21
-4.4581097213480829
 31
0.0
  0
LINE
  5
17BB
  8
247
 10
-110.1584438406952
 20
-5.508851206943806
 30
0.0
 11
-110.02187938757019
 21
-5.6454068710062622
 31
0.0
  0
LINE
  5
17BC
  8
247
 10
-110.4262993094452
 20
-4.6909144088480739
 30
0.0
 11
-110.23255321569521
 21
-4.6909144088480739
 31
0.0
  0
LINE
  5
17BD
  8
247
 10
-110.3820463797577
 20
-5.2122552291605784
 30
0.0
 11
-110.23255321569521
 21
-4.6909144088480739
 31
0.0
  0
ARC
  5
17BE
  8
247
 10
-109.3899633719452
 20
-4.7723978072855893
 30
0.0
 40
0.9894111328124999
 50
270.0
 51
104.1274364964102
  0
ARC
  5
17BF
  8
247
 10
-109.3899633719452
 20
-4.7723978072855893
 30
0.0
 40
1.2222158203124971
 50
270.0
 51
104.7707939660925
  0
LINE
  5
17C0
  8
247
 10
-113.9937094656951
 20
-5.6454068710062622
 30
0.0
 11
-113.4596684500705
 21
-3.782986674473821
 31
0.0
  0
LINE
  5
17C1
  8
247
 10
-113.7256172485835
 20
-4.7104592825743916
 30
0.0
 11
-112.910704171679
 21
-3.8955462056699179
 31
0.0
  0
ARC
  5
17C2
  8
247
 10
-113.0203207938202
 20
-4.1089114791606089
 30
0.0
 40
0.349197280883789
 50
261.6626016879294
 51
66.338155095189762
  0
LINE
  5
17C3
  8
247
 10
-112.880173753384
 20
-3.7890716004187972
 30
0.0
 11
-113.0709545775874
 21
-4.4544182966303376
 31
0.0
  0
LINE
  5
17C4
  8
247
 10
-112.3226362235077
 20
-5.6454068710062622
 30
0.0
 11
-111.7952661063202
 21
-3.806260111973077
 31
0.0
  0
LINE
  5
17C5
  8
247
 10
-113.0364685048052
 20
-4.7972046676565308
 30
0.0
 11
-112.2033818813686
 21
-3.9641180442199051
 31
0.0
  0
LINE
  5
17C6
  8
247
 10
-113.6216410911355
 20
-4.3478517488397026
 30
0.0
 11
-112.823971329269
 21
-3.5501819869731741
 31
0.0
  0
ARC
  5
17C7
  8
247
 10
-112.7605952078826
 20
-4.1321849166605746
 30
0.0
 40
0.5820078735351563
 50
287.66957754739968
 51
90.236159842671626
  0
LINE
  5
17C8
  8
247
 10
-112.6785789569895
 20
-4.1806837435539741
 30
0.0
 11
-112.2890027873388
 21
-3.7911075739032469
 31
0.0
  0
LINE
  5
17C9
  8
247
 10
-113.5176649336876
 20
-3.9852442151049572
 30
0.0
 11
-113.0826027055558
 21
-3.5501819869731461
 31
0.0
  0
LINE
  5
17CA
  8
247
 10
-114.1158686453827
 20
-3.782986674473082
 30
0.0
 11
-113.70185106725771
 21
-3.782986674473082
 31
0.0
  0
LINE
  5
17CB
  8
247
 10
-113.5807641531955
 20
-3.782986674473082
 30
0.0
 11
-113.4596684500705
 21
-3.782986674473821
 31
0.0
  0
LINE
  5
17CC
  8
247
 10
-112.7084179081386
 20
-3.9518913184164148
 30
0.0
 11
-112.4181276679776
 21
-3.661601078255277
 31
0.0
  0
LINE
  5
17CD
  8
247
 10
-114.1158686453827
 20
-3.550181986973088
 30
0.0
 11
-113.6350981375702
 21
-3.550181986973088
 31
0.0
  0
LINE
  5
17CE
  8
247
 10
-113.51401122350759
 20
-3.550181986973088
 30
0.0
 11
-112.7629941018298
 21
-3.5501819869731741
 31
0.0
  0
LINE
  5
17CF
  8
247
 10
-113.51401122350759
 20
-3.550181986973088
 30
0.0
 11
-113.5807641531955
 21
-3.782986674473082
 31
0.0
  0
LINE
  5
17D0
  8
247
 10
-113.6350981375702
 20
-3.550181986973088
 30
0.0
 11
-113.70185106725771
 21
-3.782986674473082
 31
0.0
  0
LINE
  5
17D1
  8
247
 10
-113.57403876934249
 20
-3.782986674473138
 30
0.0
 11
-113.3412340818425
 21
-3.5501819869731461
 31
0.0
  0
LINE
  5
17D2
  8
247
 10
-112.8307858719005
 20
-3.8156279058914619
 30
0.0
 11
-112.5906879675414
 21
-3.5755300015322868
 31
0.0
  0
LINE
  5
17D3
  8
247
 10
-111.88003661413271
 20
-3.806260111973077
 30
0.0
 11
-111.7952661063202
 21
-3.806260111973077
 31
0.0
  0
LINE
  5
17D4
  8
247
 10
-111.88003661413271
 20
-3.806260111973077
 30
0.0
 11
-111.8066039969452
 21
-3.550181986973088
 31
0.0
  0
LINE
  5
17D5
  8
247
 10
-112.94618791614459
 20
-4.9655554552826979
 30
0.0
 11
-112.18281152502929
 21
-4.202179064167356
 31
0.0
  0
ARC
  5
17D6
  8
247
 10
-113.02761571569521
 20
-5.063403666660605
 30
0.0
 40
0.5820029296875
 50
270.0
 51
40.329840654167157
  0
LINE
  5
17D7
  8
247
 10
-113.82959340603129
 20
-5.0730668163091401
 30
0.0
 11
-113.0146768971598
 21
-4.2581503074375187
 31
0.0
  0
LINE
  5
17D8
  8
247
 10
-113.9335695634792
 20
-5.4356743500438256
 30
0.0
 11
-112.9485485294268
 21
-4.4506533159913904
 31
0.0
  0
LINE
  5
17D9
  8
247
 10
-113.9937094656951
 20
-5.6454068710062622
 30
0.0
 11
-113.02761571569521
 21
-5.6454068710062622
 31
0.0
  0
LINE
  5
17DA
  8
247
 10
-113.3674079555814
 20
-5.6454068710062622
 30
0.0
 11
-112.51319462577069
 21
-4.7911935411956117
 31
0.0
  0
ARC
  5
17DB
  8
247
 10
-113.28734130163269
 20
-5.0401214400980621
 30
0.0
 40
0.3492072715759277
 50
261.66285421114719
 51
66.338192159113618
  0
LINE
  5
17DC
  8
247
 10
-113.14719148262991
 20
-4.720271871152053
 30
0.0
 11
-113.33797544541891
 21
-5.3856383022112517
 31
0.0
  0
LINE
  5
17DD
  8
247
 10
-113.1087765792946
 20
-5.6454068710062879
 30
0.0
 11
-112.4506169243629
 21
-4.9872472160745671
 31
0.0
  0
LINE
  5
17DE
  8
247
 10
-113.6260393318682
 20
-5.6454068710062622
 30
0.0
 11
-113.32660061977469
 21
-5.3459681589128571
 31
0.0
  0
LINE
  5
17DF
  8
247
 10
-113.8846707081549
 20
-5.6454068710062622
 30
0.0
 11
-113.2226298198219
 21
-4.9833659826732939
 31
0.0
  0
LINE
  5
17E0
  8
247
 10
-112.80650931883849
 20
-5.6017709868369261
 30
0.0
 11
-112.4892483955189
 21
-5.2845100635173621
 31
0.0
  0
LINE
  5
17E1
  8
247
 10
-112.3226362235077
 20
-5.6454068710062622
 30
0.0
 11
-111.8019370047577
 21
-5.6454068710062622
 31
0.0
  0
ARC
  5
17E2
  8
247
 10
-114.1158686453827
 20
-4.7723978072855839
 30
0.0
 40
1.2222158203124971
 50
90.0
 51
270.0
  0
ARC
  5
17E3
  8
247
 10
-114.1158686453827
 20
-4.7723978072855839
 30
0.0
 40
0.9894111328124999
 50
90.0
 51
270.0
  0
ARC
  5
17E4
  8
247
 10
-110.5920258719452
 20
-4.8888001510355821
 30
0.0
 40
0.756615234375
 50
163.99975070172931
 51
304.9638732916307
  0
LINE
  5
17E5
  8
247
 10
-114.1158686453827
 20
-5.761809214756286
 30
0.0
 11
-109.3899633719452
 21
-5.761809214756286
 31
0.0
  0
LINE
  5
17E6
  8
247
 10
-114.1158686453827
 20
-5.9946138962647826
 30
0.0
 11
-109.3899633719452
 21
-5.9946138962647826
 31
0.0
  0
LINE
  5
17E7
  8
247
 10
-111.8019370047577
 20
-5.6454068710062622
 30
0.0
 11
-111.2011430594452
 21
-3.550181986973088
 31
0.0
  0
LINE
  5
17E8
  8
247
 10
-111.8066039969452
 20
-3.550181986973088
 30
0.0
 11
-111.2011430594452
 21
-3.550181986973088
 31
0.0
  0
TEXT
  5
17E9
  8
247
 10
-107.13885546991941
 20
-5.6978251723405453
 30
0.0
 40
2.0
  1
ST16-C1520-45B-50
 41
0.7
  7
YOKO
 11
-107.13885546991941
 21
-5.6978251723405453
 31
0.0
 73
     1
  0
CIRCLE
  5
17EA
  8
246
 10
-3.453134559103884
 20
6.844588104322205
 30
0.0
 40
2.5
  0
LINE
  5
17EB
  8
241
 10
-6.7440788297851828
 20
6.5999999642372122
 30
0.0
 11
-3.5945601311518121
 21
3.450474083801879
 31
0.0
  0
LINE
  5
17EC
  8
240
 10
-0.2531334757869503
 20
6.5090553034641188
 30
0.0
 11
-0.0590215995564334
 21
6.7031670273319959
 31
0.0
  0
LINE
  5
17ED
  8
240
 10
-0.2531334757803167
 20
0.1223759655933632
 30
0.0
 11
0.0000078271712745
 21
-0.7499996572732919
 31
0.0
  0
LINE
  5
17EE
  8
240
 10
-0.2531334757803167
 20
-0.7499996572732927
 30
0.0
 11
0.0000078271712747
 21
-0.7499996572732927
 31
0.0
  0
LINE
  5
17EF
  8
241
 10
-6.8480266407768644
 20
-6.7039478744818561
 30
0.0
 11
-3.7031322717663779
 21
-9.8141171038150805
 31
0.0
  0
LINE
  5
17F0
  8
240
 10
-0.2531334757803171
 20
-6.5090544521808607
 30
0.0
 11
-0.2531334757803167
 21
-0.7499996572732927
 31
0.0
  0
ARC
  5
17F1
  8
240
 10
-6.7058288950186382
 20
-6.8445885553010237
 30
0.0
 40
0.2
 50
135.3154180614095
 51
225.00001639970949
1001
GENIUS_GENODEF_13
1002
{
1000
HIER
1070
     0
1002
}
1002
{
1000
MANEDIT
1070
     0
1002
}
1002
{
1000
NOSEL
1070
     0
1002
}
1002
{
1000
BEHIND
1070
     0
1002
}
1002
{
1000
OTHER
1070
     0
1002
}
1002
{
1000
REACTOR
1002
}
1001
GENIUS_GENOBJ-N-FIL_13
1002
{
1000
OWNER
1000
GEN
1002
}
  0
ARC
  5
17F2
  8
240
 10
-3.453135490106328
 20
-10.097280098127561
 30
0.0
 40
0.2
 50
224.99998360028019
 51
314.99998359976888
1001
GENIUS_GENOBJ-N-FIL_13
1002
{
1000
OWNER
1000
GEN
1002
}
1001
GENIUS_GENODEF_13
1002
{
1000
HIER
1070
     0
1002
}
1002
{
1000
MANEDIT
1070
     0
1002
}
1002
{
1000
NOSEL
1070
     0
1002
}
1002
{
1000
BEHIND
1070
     0
1002
}
1002
{
1000
OTHER
1070
     0
1002
}
1002
{
1000
REACTOR
1002
}
  0
ARC
  5
17F3
  8
240
 10
-0.2004420851940194
 20
-6.8445885553010237
 30
0.0
 40
0.2
 50
314.99998360029059
 51
45.0
1001
GENIUS_GENODEF_13
1002
{
1000
HIER
1070
     0
1002
}
1002
{
1000
MANEDIT
1070
     0
1002
}
1002
{
1000
NOSEL
1070
     0
1002
}
1002
{
1000
BEHIND
1070
     0
1002
}
1002
{
1000
OTHER
1070
     0
1002
}
1002
{
1000
REACTOR
1002
}
1001
GENIUS_GENOBJ-N-FIL_13
1002
{
1000
OWNER
1000
GEN
1002
}
  0
LINE
  5
17F4
  8
240
 10
-0.2531334757803167
 20
0.1223759655933632
 30
0.0
 11
-0.2531334757803163
 21
6.509055303457485
 31
0.0
  0
ARC
  5
17F5
  8
240
 10
-0.2004429002910799
 20
6.8445884390719467
 30
0.0
 40
0.2
 50
314.99997751352561
 51
45.000014093631812
1001
GENIUS_GENODEF_13
1002
{
1000
HIER
1070
     0
1002
}
1002
{
1000
MANEDIT
1070
     0
1002
}
1002
{
1000
NOSEL
1070
     0
1002
}
1002
{
1000
BEHIND
1070
     0
1002
}
1002
{
1000
OTHER
1070
     0
1002
}
1002
{
1000
REACTOR
1002
}
1001
GENIUS_GENOBJ-N-FIL_13
1002
{
1000
OWNER
1000
GEN
1002
}
  0
ARC
  5
17F6
  8
240
 10
-6.7058243563860112
 20
6.8445884385627931
 30
0.0
 40
0.2
 50
135.00001870606161
 51
224.9999346748848
1001
GENIUS_GENODEF_13
1002
{
1000
HIER
1070
     0
1002
}
1002
{
1000
MANEDIT
1070
     0
1002
}
1002
{
1000
NOSEL
1070
     0
1002
}
1002
{
1000
BEHIND
1070
     0
1002
}
1002
{
1000
OTHER
1070
     0
1002
}
1002
{
1000
REACTOR
1002
}
1001
GENIUS_GENOBJ-N-FIL_13
1002
{
1000
OWNER
1000
GEN
1002
}
  0
ARC
  5
17F7
  8
241
 10
-3.4531386136751232
 20
3.5918952787996261
 30
0.0
 40
0.2
 50
224.9999346750632
 51
314.99997751370393
1001
GENIUS_GENODEF_13
1002
{
1000
HIER
1070
     0
1002
}
1002
{
1000
MANEDIT
1070
     0
1002
}
1002
{
1000
NOSEL
1070
     0
1002
}
1002
{
1000
BEHIND
1070
     0
1002
}
1002
{
1000
OTHER
1070
     0
1002
}
1002
{
1000
REACTOR
1002
}
1001
GENIUS_GENOBJ-N-FIL_13
1002
{
1000
OWNER
1000
GEN
1002
}
  0
ARC
  5
17F8
  8
240
 10
-3.4531354901241418
 20
10.097279428696121
 30
0.0
 40
0.2
 50
45.00001409392916
 51
135.00001870635899
1001
GENIUS_GENODEF_13
1002
{
1000
HIER
1070
     0
1002
}
1002
{
1000
MANEDIT
1070
     0
1002
}
1002
{
1000
NOSEL
1070
     0
1002
}
1002
{
1000
BEHIND
1070
     0
1002
}
1002
{
1000
OTHER
1070
     0
1002
}
1002
{
1000
REACTOR
1002
}
1001
GENIUS_GENOBJ-N-FIL_13
1002
{
1000
OWNER
1000
GEN
1002
}
  0
LINE
  5
17F9
  8
241
 10
-0.2531334757803171
 20
-6.7995376884937286
 30
0.0
 11
-0.2531334757803171
 21
-6.5090544521808607
 31
0.0
  0
LINE
  5
17FA
  8
241
 10
-0.4613697528837406
 20
0.8399998769164085
 30
0.0
 11
-0.2531334757803167
 21
0.1223759655933632
 31
0.0
  0
LINE
  5
17FB
  8
241
 10
-6.9062705930073873
 20
-0.7499996572732927
 30
0.0
 11
-0.2531334757803167
 21
-0.7499996572732927
 31
0.0
  0
LINE
  5
17FC
  8
241
 10
-6.7789215084945251
 20
0.8399998769164085
 30
0.0
 11
-6.9062705930073873
 21
-0.7499996572732927
 31
0.0
  0
LINE
  5
17FD
  8
241
 10
-6.7789215084945251
 20
0.8399998769164085
 30
0.0
 11
-0.4613697528837406
 21
0.8399998769164085
 31
0.0
  0
LINE
  5
17FE
  8
241
 10
-3.2030842498091681
 20
-9.8141171038150787
 30
0.0
 11
-0.2531334757803165
 21
-6.7995376884937277
 31
0.0
  0
LINE
  5
17FF
  8
240
 10
-120.65313383936849
 20
-7.9999994486570349
 30
0.0
 11
-52.653133869170851
 21
-7.9999994486570349
 31
0.0
  0
LINE
  5
1800
  8
240
 10
-52.653133869170851
 20
7.9999999143183231
 30
0.0
 11
-120.65313383936849
 21
7.9999999143183231
 31
0.0
  0
LINE
  5
1801
  8
245
 10
-124.9160693121238
 20
0.0
 30
0.0
 11
1.4700252541945811
 21
0.0
 31
0.0
  0
LINE
  5
1802
  8
240
 10
-122.6531304419038
 20
0.0
 30
0.0
 11
-122.6531304419038
 21
6.0000000521540642
 31
0.0
  0
ARC
  5
1803
  8
240
 10
-120.653134062992
 20
-6.0000000427009459
 30
0.0
 40
2.0
 50
180.0
 51
270.0
  0
LINE
  5
1804
  8
240
 10
-122.6531304419038
 20
-5.9999991208314887
 30
0.0
 11
-122.6531304419038
 21
0.0
 31
0.0
  0
ARC
  5
1805
  8
240
 10
-120.653134062992
 20
5.9999999572990532
 30
0.0
 40
2.0
 50
90.0
 51
180.0
  0
LINE
  5
1806
  8
241
 10
-52.653133869170851
 20
0.0
 30
0.0
 11
-52.653133869170851
 21
7.9999999143183231
 31
0.0
  0
LINE
  5
1807
  8
241
 10
-51.253135169617849
 20
6.8694612975401412
 30
0.0
 11
-51.253135169617849
 21
-6.8694613829420339
 31
0.0
  0
LINE
  5
1808
  8
240
 10
-50.010493025183393
 20
-6.5999999642372131
 30
0.0
 11
-6.9531351327893844
 21
-6.5999999642372131
 31
0.0
  0
ARC
  5
1809
  8
240
 10
-50.01049337587272
 20
-9.6000000427009411
 30
0.0
 40
3.0000000000000031
 50
90.0
 51
135.0
  0
LINE
  5
180A
  8
241
 10
-52.653133869170851
 20
-7.9999994486570349
 30
0.0
 11
-52.653133869170851
 21
0.0
 31
0.0
  0
LINE
  5
180B
  8
240
 10
-52.653133869170851
 20
-7.9999994486570349
 30
0.0
 11
-52.131813950836367
 21
-7.4786804616451263
 31
0.0
  0
LINE
  5
180C
  8
240
 10
-6.7440788298042422
 20
6.5999999642372131
 30
0.0
 11
-50.010493025183393
 21
6.5999999642372131
 31
0.0
  0
LINE
  5
180D
  8
240
 10
-52.131813950836367
 20
7.4786795303225508
 30
0.0
 11
-52.653133869170851
 21
7.9999999143183231
 31
0.0
  0
ARC
  5
180E
  8
240
 10
-50.01049337587272
 20
9.5999999572990475
 30
0.0
 40
3.0000000000000031
 50
225.0
 51
270.0
  0
LINE
  5
180F
  8
241
 10
-6.9531351327893267
 20
-6.5999999642372096
 30
0.0
 11
-6.9531351327893258
 21
6.5999999642372131
 31
0.0
  0
LINE
  5
1810
  8
241
 10
-0.2531334757803165
 20
1.1731535196304319
 30
0.0
 11
-0.2531334757803165
 21
6.0172099620103827
 31
0.0
  0
LINE
  5
1811
  8
241
 10
-3.5940185189245422
 20
-0.7499996572732927
 30
0.0
 11
-6.9062705930073873
 21
-0.7499996572732927
 31
0.0
  0
LINE
  5
1812
  8
240
 10
-3.594556886822541
 20
-10.238701413885959
 30
0.0
 11
-6.8477839231488238
 21
-6.9854725152254096
 31
0.0
  0
LINE
  5
1813
  8
240
 10
-0.0590207694355985
 20
-6.9860099520172101
 30
0.0
 11
-3.3117141743491949
 21
-10.23870149484503
 31
0.0
  0
LINE
  5
1814
  8
241
 10
-3.7031322717664921
 20
-9.8141171038150787
 30
0.0
 11
-3.2030842498091681
 21
-9.8141171038150787
 31
0.0
  0
LINE
  5
1815
  8
240
 10
-0.2531334757803165
 20
-6.5090544521808624
 30
0.0
 11
-0.0590207289567099
 21
-6.7031671990637154
 31
0.0
  0
POLYLINE
  8
241
  5
1A02
  66
     1
 10
0.000000
 20
0.000000
 30
0.000000
  70
     8
  0
VERTEX
  8
241
  5
1A03
 10
-3.45314
 20
-0.750000
 30
0.000000
  70
    32
  0
VERTEX
  8
241
  5
1A04
 10
-3.45396
 20
-0.749999
 30
0.000000
  70
    32
  0
VERTEX
  8
241
  5
1A05
 10
-3.45478
 20
-0.749999
 30
0.000000
  70
    32
  0
VERTEX
  8
241
  5
1A06
 10
-3.45560
 20
-0.749998
 30
0.000000
  70
    32
  0
VERTEX
  8
241
  5
1A07
 10
-3.45642
 20
-0.749998
 30
0.000000
  70
    32
  0
VERTEX
  8
241
  5
1A08
 10
-3.45724
 20
-0.749997
 30
0.000000
  70
    32
  0
VERTEX
  8
241
  5
1A09
 10
-3.45806
 20
-0.749997
 30
0.000000
  70
    32
  0
VERTEX
  8
241
  5
1A0A
 10
-3.45888
 20
-0.749996
 30
0.000000
  70
    32
  0
VERTEX
  8
241
  5
1A0B
 10
-3.45970
 20
-0.749996
 30
0.000000
  70
    32
  0
VERTEX
  8
241
  5
1A0C
 10
-3.46052
 20
-0.749995
 30
0.000000
  70
    32
  0
VERTEX
  8
241
  5
1A0D
 10
-3.46134
 20
-0.749995
 30
0.000000
  70
    32
  0
VERTEX
  8
241
  5
1A0E
 10
-3.46216
 20
-0.749994
 30
0.000000
  70
    32
  0
VERTEX
  8
241
  5
1A0F
 10
-3.46298
 20
-0.749994
 30
0.000000
  70
    32
  0
VERTEX
  8
241
  5
1A10
 10
-3.46380
 20
-0.749993
 30
0.000000
  70
    32
  0
VERTEX
  8
241
  5
1A11
 10
-3.46462
 20
-0.749993
 30
0.000000
  70
    32
  0
VERTEX
  8
241
  5
1A12
 10
-3.46544
 20
-0.749992
 30
0.000000
  70
    32
  0
VERTEX
  8
241
  5
1A13
 10
-3.46626
 20
-0.749992
 30
0.000000
  70
    32
  0
VERTEX
  8
241
  5
1A14
 10
-3.46708
 20
-0.749992
 30
0.000000
  70
    32
  0
VERTEX
  8
241
  5
1A15
 10
-3.46789
 20
-0.749991
 30
0.000000
  70
    32
  0
VERTEX
  8
241
  5
1A16
 10
-3.46871
 20
-0.749991
 30
0.000000
  70
    32
  0
VERTEX
  8
241
  5
1A17
 10
-3.46953
 20
-0.749990
 30
0.000000
  70
    32
  0
VERTEX
  8
241
  5
1A18
 10
-3.47035
 20
-0.749990
 30
0.000000
  70
    32
  0
VERTEX
  8
241
  5
1A19
 10
-3.47117
 20
-0.749989
 30
0.000000
  70
    32
  0
VERTEX
  8
241
  5
1A1A
 10
-3.47198
 20
-0.749989
 30
0.000000
  70
    32
  0
VERTEX
  8
241
  5
1A1B
 10
-3.47280
 20
-0.749988
 30
0.000000
  70
    32
  0
VERTEX
  8
241
  5
1A1C
 10
-3.47362
 20
-0.749988
 30
0.000000
  70
    32
  0
VERTEX
  8
241
  5
1A1D
 10
-3.47443
 20
-0.749987
 30
0.000000
  70
    32
  0
VERTEX
  8
241
  5
1A1E
 10
-3.47525
 20
-0.749987
 30
0.000000
  70
    32
  0
VERTEX
  8
241
  5
1A1F
 10
-3.47606
 20
-0.749987
 30
0.000000
  70
    32
  0
VERTEX
  8
241
  5
1A20
 10
-3.47688
 20
-0.749986
 30
0.000000
  70
    32
  0
VERTEX
  8
241
  5
1A21
 10
-3.47769
 20
-0.749986
 30
0.000000
  70
    32
  0
VERTEX
  8
241
  5
1A22
 10
-3.47851
 20
-0.749985
 30
0.000000
  70
    32
  0
VERTEX
  8
241
  5
1A23
 10
-3.47932
 20
-0.749985
 30
0.000000
  70
    32
  0
VERTEX
  8
241
  5
1A24
 10
-3.48014
 20
-0.749984
 30
0.000000
  70
    32
  0
VERTEX
  8
241
  5
1A25
 10
-3.48095
 20
-0.749984
 30
0.000000
  70
    32
  0
VERTEX
  8
241
  5
1A26
 10
-3.48176
 20
-0.749984
 30
0.000000
  70
    32
  0
VERTEX
  8
241
  5
1A27
 10
-3.48257
 20
-0.749983
 30
0.000000
  70
    32
  0
VERTEX
  8
241
  5
1A28
 10
-3.48339
 20
-0.749983
 30
0.000000
  70
    32
  0
VERTEX
  8
241
  5
1A29
 10
-3.48420
 20
-0.749982
 30
0.000000
  70
    32
  0
VERTEX
  8
241
  5
1A2A
 10
-3.48501
 20
-0.749982
 30
0.000000
  70
    32
  0
VERTEX
  8
241
  5
1A2B
 10
-3.48582
 20
-0.749982
 30
0.000000
  70
    32
  0
VERTEX
  8
241
  5
1A2C
 10
-3.48663
 20
-0.749981
 30
0.000000
  70
    32
  0
VERTEX
  8
241
  5
1A2D
 10
-3.48744
 20
-0.749981
 30
0.000000
  70
    32
  0
VERTEX
  8
241
  5
1A2E
 10
-3.48825
 20
-0.749981
 30
0.000000
  70
    32
  0
VERTEX
  8
241
  5
1A2F
 10
-3.48905
 20
-0.749980
 30
0.000000
  70
    32
  0
VERTEX
  8
241
  5
1A30
 10
-3.48986
 20
-0.749980
 30
0.000000
  70
    32
  0
VERTEX
  8
241
  5
1A31
 10
-3.49067
 20
-0.749979
 30
0.000000
  70
    32
  0
VERTEX
  8
241
  5
1A32
 10
-3.49147
 20
-0.749979
 30
0.000000
  70
    32
  0
VERTEX
  8
241
  5
1A33
 10
-3.49228
 20
-0.749979
 30
0.000000
  70
    32
  0
VERTEX
  8
241
  5
1A34
 10
-3.49308
 20
-0.749978
 30
0.000000
  70
    32
  0
VERTEX
  8
241
  5
1A35
 10
-3.49389
 20
-0.749978
 30
0.000000
  70
    32
  0
VERTEX
  8
241
  5
1A36
 10
-3.49469
 20
-0.749978
 30
0.000000
  70
    32
  0
VERTEX
  8
241
  5
1A37
 10
-3.49549
 20
-0.749977
 30
0.000000
  70
    32
  0
VERTEX
  8
241
  5
1A38
 10
-3.49630
 20
-0.749977
 30
0.000000
  70
    32
  0
VERTEX
  8
241
  5
1A39
 10
-3.49710
 20
-0.749977
 30
0.000000
  70
    32
  0
VERTEX
  8
241
  5
1A3A
 10
-3.49790
 20
-0.749977
 30
0.000000
  70
    32
  0
VERTEX
  8
241
  5
1A3B
 10
-3.49870
 20
-0.749976
 30
0.000000
  70
    32
  0
VERTEX
  8
241
  5
1A3C
 10
-3.49950
 20
-0.749976
 30
0.000000
  70
    32
  0
VERTEX
  8
241
  5
1A3D
 10
-3.50030
 20
-0.749976
 30
0.000000
  70
    32
  0
VERTEX
  8
241
  5
1A3E
 10
-3.50109
 20
-0.749975
 30
0.000000
  70
    32
  0
VERTEX
  8
241
  5
1A3F
 10
-3.50189
 20
-0.749975
 30
0.000000
  70
    32
  0
VERTEX
  8
241
  5
1A40
 10
-3.50269
 20
-0.749975
 30
0.000000
  70
    32
  0
VERTEX
  8
241
  5
1A41
 10
-3.50348
 20
-0.749975
 30
0.000000
  70
    32
  0
VERTEX
  8
241
  5
1A42
 10
-3.50428
 20
-0.749974
 30
0.000000
  70
    32
  0
VERTEX
  8
241
  5
1A43
 10
-3.50507
 20
-0.749974
 30
0.000000
  70
    32
  0
VERTEX
  8
241
  5
1A44
 10
-3.50586
 20
-0.749974
 30
0.000000
  70
    32
  0
VERTEX
  8
241
  5
1A45
 10
-3.50666
 20
-0.749974
 30
0.000000
  70
    32
  0
VERTEX
  8
241
  5
1A46
 10
-3.50745
 20
-0.749974
 30
0.000000
  70
    32
  0
VERTEX
  8
241
  5
1A47
 10
-3.50824
 20
-0.749973
 30
0.000000
  70
    32
  0
VERTEX
  8
241
  5
1A48
 10
-3.50903
 20
-0.749973
 30
0.000000
  70
    32
  0
VERTEX
  8
241
  5
1A49
 10
-3.50981
 20
-0.749973
 30
0.000000
  70
    32
  0
VERTEX
  8
241
  5
1A4A
 10
-3.51060
 20
-0.749973
 30
0.000000
  70
    32
  0
VERTEX
  8
241
  5
1A4B
 10
-3.51139
 20
-0.749973
 30
0.000000
  70
    32
  0
VERTEX
  8
241
  5
1A4C
 10
-3.51217
 20
-0.749973
 30
0.000000
  70
    32
  0
VERTEX
  8
241
  5
1A4D
 10
-3.51296
 20
-0.749972
 30
0.000000
  70
    32
  0
VERTEX
  8
241
  5
1A4E
 10
-3.51374
 20
-0.749972
 30
0.000000
  70
    32
  0
VERTEX
  8
241
  5
1A4F
 10
-3.51452
 20
-0.749972
 30
0.000000
  70
    32
  0
VERTEX
  8
241
  5
1A50
 10
-3.51530
 20
-0.749972
 30
0.000000
  70
    32
  0
VERTEX
  8
241
  5
1A51
 10
-3.51609
 20
-0.749972
 30
0.000000
  70
    32
  0
VERTEX
  8
241
  5
1A52
 10
-3.51686
 20
-0.749972
 30
0.000000
  70
    32
  0
VERTEX
  8
241
  5
1A53
 10
-3.51764
 20
-0.749972
 30
0.000000
  70
    32
  0
VERTEX
  8
241
  5
1A54
 10
-3.51842
 20
-0.749972
 30
0.000000
  70
    32
  0
VERTEX
  8
241
  5
1A55
 10
-3.51920
 20
-0.749972
 30
0.000000
  70
    32
  0
VERTEX
  8
241
  5
1A56
 10
-3.51997
 20
-0.749972
 30
0.000000
  70
    32
  0
VERTEX
  8
241
  5
1A57
 10
-3.52074
 20
-0.749972
 30
0.000000
  70
    32
  0
VERTEX
  8
241
  5
1A58
 10
-3.52152
 20
-0.749972
 30
0.000000
  70
    32
  0
VERTEX
  8
241
  5
1A59
 10
-3.52229
 20
-0.749972
 30
0.000000
  70
    32
  0
VERTEX
  8
241
  5
1A5A
 10
-3.52306
 20
-0.749972
 30
0.000000
  70
    32
  0
VERTEX
  8
241
  5
1A5B
 10
-3.52383
 20
-0.749972
 30
0.000000
  70
    32
  0
VERTEX
  8
241
  5
1A5C
 10
-3.52460
 20
-0.749972
 30
0.000000
  70
    32
  0
VERTEX
  8
241
  5
1A5D
 10
-3.52536
 20
-0.749972
 30
0.000000
  70
    32
  0
VERTEX
  8
241
  5
1A5E
 10
-3.52613
 20
-0.749972
 30
0.000000
  70
    32
  0
VERTEX
  8
241
  5
1A5F
 10
-3.52689
 20
-0.749972
 30
0.000000
  70
    32
  0
VERTEX
  8
241
  5
1A60
 10
-3.52766
 20
-0.749972
 30
0.000000
  70
    32
  0
VERTEX
  8
241
  5
1A61
 10
-3.52842
 20
-0.749972
 30
0.000000
  70
    32
  0
VERTEX
  8
241
  5
1A62
 10
-3.52918
 20
-0.749972
 30
0.000000
  70
    32
  0
VERTEX
  8
241
  5
1A63
 10
-3.52994
 20
-0.749972
 30
0.000000
  70
    32
  0
VERTEX
  8
241
  5
1A64
 10
-3.53070
 20
-0.749972
 30
0.000000
  70
    32
  0
VERTEX
  8
241
  5
1A65
 10
-3.53145
 20
-0.749972
 30
0.000000
  70
    32
  0
VERTEX
  8
241
  5
1A66
 10
-3.53221
 20
-0.749972
 30
0.000000
  70
    32
  0
VERTEX
  8
241
  5
1A67
 10
-3.53296
 20
-0.749972
 30
0.000000
  70
    32
  0
VERTEX
  8
241
  5
1A68
 10
-3.53372
 20
-0.749973
 30
0.000000
  70
    32
  0
VERTEX
  8
241
  5
1A69
 10
-3.53447
 20
-0.749973
 30
0.000000
  70
    32
  0
VERTEX
  8
241
  5
1A6A
 10
-3.53522
 20
-0.749973
 30
0.000000
  70
    32
  0
VERTEX
  8
241
  5
1A6B
 10
-3.53597
 20
-0.749973
 30
0.000000
  70
    32
  0
VERTEX
  8
241
  5
1A6C
 10
-3.53671
 20
-0.749973
 30
0.000000
  70
    32
  0
VERTEX
  8
241
  5
1A6D
 10
-3.53746
 20
-0.749974
 30
0.000000
  70
    32
  0
VERTEX
  8
241
  5
1A6E
 10
-3.53820
 20
-0.749974
 30
0.000000
  70
    32
  0
VERTEX
  8
241
  5
1A6F
 10
-3.53894
 20
-0.749974
 30
0.000000
  70
    32
  0
VERTEX
  8
241
  5
1A70
 10
-3.53968
 20
-0.749974
 30
0.000000
  70
    32
  0
VERTEX
  8
241
  5
1A71
 10
-3.54042
 20
-0.749974
 30
0.000000
  70
    32
  0
VERTEX
  8
241
  5
1A72
 10
-3.54116
 20
-0.749975
 30
0.000000
  70
    32
  0
VERTEX
  8
241
  5
1A73
 10
-3.54189
 20
-0.749975
 30
0.000000
  70
    32
  0
VERTEX
  8
241
  5
1A74
 10
-3.54263
 20
-0.749975
 30
0.000000
  70
    32
  0
VERTEX
  8
241
  5
1A75
 10
-3.54336
 20
-0.749975
 30
0.000000
  70
    32
  0
VERTEX
  8
241
  5
1A76
 10
-3.54409
 20
-0.749976
 30
0.000000
  70
    32
  0
VERTEX
  8
241
  5
1A77
 10
-3.54482
 20
-0.749976
 30
0.000000
  70
    32
  0
VERTEX
  8
241
  5
1A78
 10
-3.54554
 20
-0.749976
 30
0.000000
  70
    32
  0
VERTEX
  8
241
  5
1A79
 10
-3.54627
 20
-0.749976
 30
0.000000
  70
    32
  0
VERTEX
  8
241
  5
1A7A
 10
-3.54699
 20
-0.749977
 30
0.000000
  70
    32
  0
VERTEX
  8
241
  5
1A7B
 10
-3.54771
 20
-0.749977
 30
0.000000
  70
    32
  0
VERTEX
  8
241
  5
1A7C
 10
-3.54843
 20
-0.749977
 30
0.000000
  70
    32
  0
VERTEX
  8
241
  5
1A7D
 10
-3.54915
 20
-0.749978
 30
0.000000
  70
    32
  0
VERTEX
  8
241
  5
1A7E
 10
-3.54986
 20
-0.749978
 30
0.000000
  70
    32
  0
VERTEX
  8
241
  5
1A7F
 10
-3.55057
 20
-0.749978
 30
0.000000
  70
    32
  0
VERTEX
  8
241
  5
1A80
 10
-3.55129
 20
-0.749979
 30
0.000000
  70
    32
  0
VERTEX
  8
241
  5
1A81
 10
-3.55199
 20
-0.749979
 30
0.000000
  70
    32
  0
VERTEX
  8
241
  5
1A82
 10
-3.55270
 20
-0.749979
 30
0.000000
  70
    32
  0
VERTEX
  8
241
  5
1A83
 10
-3.55341
 20
-0.749979
 30
0.000000
  70
    32
  0
VERTEX
  8
241
  5
1A84
 10
-3.55411
 20
-0.749980
 30
0.000000
  70
    32
  0
VERTEX
  8
241
  5
1A85
 10
-3.55481
 20
-0.749980
 30
0.000000
  70
    32
  0
VERTEX
  8
241
  5
1A86
 10
-3.55551
 20
-0.749980
 30
0.000000
  70
    32
  0
VERTEX
  8
241
  5
1A87
 10
-3.55620
 20
-0.749981
 30
0.000000
  70
    32
  0
VERTEX
  8
241
  5
1A88
 10
-3.55690
 20
-0.749981
 30
0.000000
  70
    32
  0
VERTEX
  8
241
  5
1A89
 10
-3.55759
 20
-0.749981
 30
0.000000
  70
    32
  0
VERTEX
  8
241
  5
1A8A
 10
-3.55828
 20
-0.749982
 30
0.000000
  70
    32
  0
VERTEX
  8
241
  5
1A8B
 10
-3.55897
 20
-0.749982
 30
0.000000
  70
    32
  0
VERTEX
  8
241
  5
1A8C
 10
-3.55965
 20
-0.749982
 30
0.000000
  70
    32
  0
VERTEX
  8
241
  5
1A8D
 10
-3.56033
 20
-0.749983
 30
0.000000
  70
    32
  0
VERTEX
  8
241
  5
1A8E
 10
-3.56101
 20
-0.749983
 30
0.000000
  70
    32
  0
VERTEX
  8
241
  5
1A8F
 10
-3.56169
 20
-0.749983
 30
0.000000
  70
    32
  0
VERTEX
  8
241
  5
1A90
 10
-3.56237
 20
-0.749984
 30
0.000000
  70
    32
  0
VERTEX
  8
241
  5
1A91
 10
-3.56304
 20
-0.749984
 30
0.000000
  70
    32
  0
VERTEX
  8
241
  5
1A92
 10
-3.56371
 20
-0.749984
 30
0.000000
  70
    32
  0
VERTEX
  8
241
  5
1A93
 10
-3.56438
 20
-0.749985
 30
0.000000
  70
    32
  0
VERTEX
  8
241
  5
1A94
 10
-3.56504
 20
-0.749985
 30
0.000000
  70
    32
  0
VERTEX
  8
241
  5
1A95
 10
-3.56571
 20
-0.749985
 30
0.000000
  70
    32
  0
VERTEX
  8
241
  5
1A96
 10
-3.56637
 20
-0.749986
 30
0.000000
  70
    32
  0
VERTEX
  8
241
  5
1A97
 10
-3.56703
 20
-0.749986
 30
0.000000
  70
    32
  0
VERTEX
  8
241
  5
1A98
 10
-3.56768
 20
-0.749986
 30
0.000000
  70
    32
  0
VERTEX
  8
241
  5
1A99
 10
-3.56834
 20
-0.749987
 30
0.000000
  70
    32
  0
VERTEX
  8
241
  5
1A9A
 10
-3.56899
 20
-0.749987
 30
0.000000
  70
    32
  0
VERTEX
  8
241
  5
1A9B
 10
-3.56964
 20
-0.749987
 30
0.000000
  70
    32
  0
VERTEX
  8
241
  5
1A9C
 10
-3.57029
 20
-0.749988
 30
0.000000
  70
    32
  0
VERTEX
  8
241
  5
1A9D
 10
-3.57094
 20
-0.749988
 30
0.000000
  70
    32
  0
VERTEX
  8
241
  5
1A9E
 10
-3.57158
 20
-0.749988
 30
0.000000
  70
    32
  0
VERTEX
  8
241
  5
1A9F
 10
-3.57223
 20
-0.749989
 30
0.000000
  70
    32
  0
VERTEX
  8
241
  5
1AA0
 10
-3.57287
 20
-0.749989
 30
0.000000
  70
    32
  0
VERTEX
  8
241
  5
1AA1
 10
-3.57351
 20
-0.749989
 30
0.000000
  70
    32
  0
VERTEX
  8
241
  5
1AA2
 10
-3.57415
 20
-0.749990
 30
0.000000
  70
    32
  0
VERTEX
  8
241
  5
1AA3
 10
-3.57478
 20
-0.749990
 30
0.000000
  70
    32
  0
VERTEX
  8
241
  5
1AA4
 10
-3.57542
 20
-0.749990
 30
0.000000
  70
    32
  0
VERTEX
  8
241
  5
1AA5
 10
-3.57605
 20
-0.749991
 30
0.000000
  70
    32
  0
VERTEX
  8
241
  5
1AA6
 10
-3.57669
 20
-0.749991
 30
0.000000
  70
    32
  0
VERTEX
  8
241
  5
1AA7
 10
-3.57732
 20
-0.749991
 30
0.000000
  70
    32
  0
VERTEX
  8
241
  5
1AA8
 10
-3.57795
 20
-0.749992
 30
0.000000
  70
    32
  0
VERTEX
  8
241
  5
1AA9
 10
-3.57858
 20
-0.749992
 30
0.000000
  70
    32
  0
VERTEX
  8
241
  5
1AAA
 10
-3.57920
 20
-0.749992
 30
0.000000
  70
    32
  0
VERTEX
  8
241
  5
1AAB
 10
-3.57983
 20
-0.749992
 30
0.000000
  70
    32
  0
VERTEX
  8
241
  5
1AAC
 10
-3.58045
 20
-0.749993
 30
0.000000
  70
    32
  0
VERTEX
  8
241
  5
1AAD
 10
-3.58108
 20
-0.749993
 30
0.000000
  70
    32
  0
VERTEX
  8
241
  5
1AAE
 10
-3.58170
 20
-0.749993
 30
0.000000
  70
    32
  0
VERTEX
  8
241
  5
1AAF
 10
-3.58232
 20
-0.749994
 30
0.000000
  70
    32
  0
VERTEX
  8
241
  5
1AB0
 10
-3.58294
 20
-0.749994
 30
0.000000
  70
    32
  0
VERTEX
  8
241
  5
1AB1
 10
-3.58356
 20
-0.749994
 30
0.000000
  70
    32
  0
VERTEX
  8
241
  5
1AB2
 10
-3.58418
 20
-0.749995
 30
0.000000
  70
    32
  0
VERTEX
  8
241
  5
1AB3
 10
-3.58480
 20
-0.749995
 30
0.000000
  70
    32
  0
VERTEX
  8
241
  5
1AB4
 10
-3.58542
 20
-0.749995
 30
0.000000
  70
    32
  0
VERTEX
  8
241
  5
1AB5
 10
-3.58604
 20
-0.749996
 30
0.000000
  70
    32
  0
VERTEX
  8
241
  5
1AB6
 10
-3.58665
 20
-0.749996
 30
0.000000
  70
    32
  0
VERTEX
  8
241
  5
1AB7
 10
-3.58727
 20
-0.749996
 30
0.000000
  70
    32
  0
VERTEX
  8
241
  5
1AB8
 10
-3.58788
 20
-0.749997
 30
0.000000
  70
    32
  0
VERTEX
  8
241
  5
1AB9
 10
-3.58850
 20
-0.749997
 30
0.000000
  70
    32
  0
VERTEX
  8
241
  5
1ABA
 10
-3.58911
 20
-0.749997
 30
0.000000
  70
    32
  0
VERTEX
  8
241
  5
1ABB
 10
-3.58973
 20
-0.749997
 30
0.000000
  70
    32
  0
VERTEX
  8
241
  5
1ABC
 10
-3.59034
 20
-0.749998
 30
0.000000
  70
    32
  0
VERTEX
  8
241
  5
1ABD
 10
-3.59095
 20
-0.749998
 30
0.000000
  70
    32
  0
VERTEX
  8
241
  5
1ABE
 10
-3.59157
 20
-0.749998
 30
0.000000
  70
    32
  0
VERTEX
  8
241
  5
1ABF
 10
-3.59218
 20
-0.749999
 30
0.000000
  70
    32
  0
VERTEX
  8
241
  5
1AC0
 10
-3.59279
 20
-0.749999
 30
0.000000
  70
    32
  0
VERTEX
  8
241
  5
1AC1
 10
-3.59341
 20
-0.749999
 30
0.000000
  70
    32
  0
VERTEX
  8
241
  5
1AC2
 10
-3.59402
 20
-0.750000
 30
0.000000
  70
    32
  0
SEQEND
  8
241
  5
1AC3
  0
POLYLINE
  8
241
  5
1AC4
  66
     1
 10
0.000000
 20
0.000000
 30
0.000000
  70
     8
  0
VERTEX
  8
241
  5
1AC5
 10
-3.31225
 20
-0.750000
 30
0.000000
  70
    32
  0
VERTEX
  8
241
  5
1AC6
 10
-3.31287
 20
-0.749999
 30
0.000000
  70
    32
  0
VERTEX
  8
241
  5
1AC7
 10
-3.31348
 20
-0.749999
 30
0.000000
  70
    32
  0
VERTEX
  8
241
  5
1AC8
 10
-3.31409
 20
-0.749999
 30
0.000000
  70
    32
  0
VERTEX
  8
241
  5
1AC9
 10
-3.31470
 20
-0.749998
 30
0.000000
  70
    32
  0
VERTEX
  8
241
  5
1ACA
 10
-3.31532
 20
-0.749998
 30
0.000000
  70
    32
  0
VERTEX
  8
241
  5
1ACB
 10
-3.31593
 20
-0.749998
 30
0.000000
  70
    32
  0
VERTEX
  8
241
  5
1ACC
 10
-3.31654
 20
-0.749997
 30
0.000000
  70
    32
  0
VERTEX
  8
241
  5
1ACD
 10
-3.31716
 20
-0.749997
 30
0.000000
  70
    32
  0
VERTEX
  8
241
  5
1ACE
 10
-3.31777
 20
-0.749997
 30
0.000000
  70
    32
  0
VERTEX
  8
241
  5
1ACF
 10
-3.31839
 20
-0.749996
 30
0.000000
  70
    32
  0
VERTEX
  8
241
  5
1AD0
 10
-3.31900
 20
-0.749996
 30
0.000000
  70
    32
  0
VERTEX
  8
241
  5
1AD1
 10
-3.31962
 20
-0.749996
 30
0.000000
  70
    32
  0
VERTEX
  8
241
  5
1AD2
 10
-3.32023
 20
-0.749995
 30
0.000000
  70
    32
  0
VERTEX
  8
241
  5
1AD3
 10
-3.32085
 20
-0.749995
 30
0.000000
  70
    32
  0
VERTEX
  8
241
  5
1AD4
 10
-3.32147
 20
-0.749995
 30
0.000000
  70
    32
  0
VERTEX
  8
241
  5
1AD5
 10
-3.32209
 20
-0.749994
 30
0.000000
  70
    32
  0
VERTEX
  8
241
  5
1AD6
 10
-3.32271
 20
-0.749994
 30
0.000000
  70
    32
  0
VERTEX
  8
241
  5
1AD7
 10
-3.32333
 20
-0.749994
 30
0.000000
  70
    32
  0
VERTEX
  8
241
  5
1AD8
 10
-3.32395
 20
-0.749993
 30
0.000000
  70
    32
  0
VERTEX
  8
241
  5
1AD9
 10
-3.32457
 20
-0.749993
 30
0.000000
  70
    32
  0
VERTEX
  8
241
  5
1ADA
 10
-3.32519
 20
-0.749993
 30
0.000000
  70
    32
  0
VERTEX
  8
241
  5
1ADB
 10
-3.32582
 20
-0.749992
 30
0.000000
  70
    32
  0
VERTEX
  8
241
  5
1ADC
 10
-3.32644
 20
-0.749992
 30
0.000000
  70
    32
  0
VERTEX
  8
241
  5
1ADD
 10
-3.32707
 20
-0.749992
 30
0.000000
  70
    32
  0
VERTEX
  8
241
  5
1ADE
 10
-3.32770
 20
-0.749991
 30
0.000000
  70
    32
  0
VERTEX
  8
241
  5
1ADF
 10
-3.32832
 20
-0.749991
 30
0.000000
  70
    32
  0
VERTEX
  8
241
  5
1AE0
 10
-3.32895
 20
-0.749991
 30
0.000000
  70
    32
  0
VERTEX
  8
241
  5
1AE1
 10
-3.32959
 20
-0.749990
 30
0.000000
  70
    32
  0
VERTEX
  8
241
  5
1AE2
 10
-3.33022
 20
-0.749990
 30
0.000000
  70
    32
  0
VERTEX
  8
241
  5
1AE3
 10
-3.33085
 20
-0.749990
 30
0.000000
  70
    32
  0
VERTEX
  8
241
  5
1AE4
 10
-3.33149
 20
-0.749989
 30
0.000000
  70
    32
  0
VERTEX
  8
241
  5
1AE5
 10
-3.33212
 20
-0.749989
 30
0.000000
  70
    32
  0
VERTEX
  8
241
  5
1AE6
 10
-3.33276
 20
-0.749989
 30
0.000000
  70
    32
  0
VERTEX
  8
241
  5
1AE7
 10
-3.33340
 20
-0.749988
 30
0.000000
  70
    32
  0
VERTEX
  8
241
  5
1AE8
 10
-3.33404
 20
-0.749988
 30
0.000000
  70
    32
  0
VERTEX
  8
241
  5
1AE9
 10
-3.33469
 20
-0.749988
 30
0.000000
  70
    32
  0
VERTEX
  8
241
  5
1AEA
 10
-3.33533
 20
-0.749987
 30
0.000000
  70
    32
  0
VERTEX
  8
241
  5
1AEB
 10
-3.33598
 20
-0.749987
 30
0.000000
  70
    32
  0
VERTEX
  8
241
  5
1AEC
 10
-3.33663
 20
-0.749987
 30
0.000000
  70
    32
  0
VERTEX
  8
241
  5
1AED
 10
-3.33728
 20
-0.749986
 30
0.000000
  70
    32
  0
VERTEX
  8
241
  5
1AEE
 10
-3.33793
 20
-0.749986
 30
0.000000
  70
    32
  0
VERTEX
  8
241
  5
1AEF
 10
-3.33859
 20
-0.749986
 30
0.000000
  70
    32
  0
VERTEX
  8
241
  5
1AF0
 10
-3.33925
 20
-0.749985
 30
0.000000
  70
    32
  0
VERTEX
  8
241
  5
1AF1
 10
-3.33990
 20
-0.749985
 30
0.000000
  70
    32
  0
VERTEX
  8
241
  5
1AF2
 10
-3.34057
 20
-0.749985
 30
0.000000
  70
    32
  0
VERTEX
  8
241
  5
1AF3
 10
-3.34123
 20
-0.749984
 30
0.000000
  70
    32
  0
VERTEX
  8
241
  5
1AF4
 10
-3.34189
 20
-0.749984
 30
0.000000
  70
    32
  0
VERTEX
  8
241
  5
1AF5
 10
-3.34256
 20
-0.749984
 30
0.000000
  70
    32
  0
VERTEX
  8
241
  5
1AF6
 10
-3.34323
 20
-0.749983
 30
0.000000
  70
    32
  0
VERTEX
  8
241
  5
1AF7
 10
-3.34391
 20
-0.749983
 30
0.000000
  70
    32
  0
VERTEX
  8
241
  5
1AF8
 10
-3.34458
 20
-0.749983
 30
0.000000
  70
    32
  0
VERTEX
  8
241
  5
1AF9
 10
-3.34526
 20
-0.749982
 30
0.000000
  70
    32
  0
VERTEX
  8
241
  5
1AFA
 10
-3.34594
 20
-0.749982
 30
0.000000
  70
    32
  0
VERTEX
  8
241
  5
1AFB
 10
-3.34662
 20
-0.749981
 30
0.000000
  70
    32
  0
VERTEX
  8
241
  5
1AFC
 10
-3.34731
 20
-0.749981
 30
0.000000
  70
    32
  0
VERTEX
  8
241
  5
1AFD
 10
-3.34799
 20
-0.749981
 30
0.000000
  70
    32
  0
VERTEX
  8
241
  5
1AFE
 10
-3.34868
 20
-0.749980
 30
0.000000
  70
    32
  0
VERTEX
  8
241
  5
1AFF
 10
-3.34937
 20
-0.749980
 30
0.000000
  70
    32
  0
VERTEX
  8
241
  5
1B00
 10
-3.35007
 20
-0.749980
 30
0.000000
  70
    32
  0
VERTEX
  8
241
  5
1B01
 10
-3.35076
 20
-0.749979
 30
0.000000
  70
    32
  0
VERTEX
  8
241
  5
1B02
 10
-3.35146
 20
-0.749979
 30
0.000000
  70
    32
  0
VERTEX
  8
241
  5
1B03
 10
-3.35216
 20
-0.749979
 30
0.000000
  70
    32
  0
VERTEX
  8
241
  5
1B04
 10
-3.35286
 20
-0.749978
 30
0.000000
  70
    32
  0
VERTEX
  8
241
  5
1B05
 10
-3.35357
 20
-0.749978
 30
0.000000
  70
    32
  0
VERTEX
  8
241
  5
1B06
 10
-3.35428
 20
-0.749978
 30
0.000000
  70
    32
  0
VERTEX
  8
241
  5
1B07
 10
-3.35498
 20
-0.749978
 30
0.000000
  70
    32
  0
VERTEX
  8
241
  5
1B08
 10
-3.35570
 20
-0.749977
 30
0.000000
  70
    32
  0
VERTEX
  8
241
  5
1B09
 10
-3.35641
 20
-0.749977
 30
0.000000
  70
    32
  0
VERTEX
  8
241
  5
1B0A
 10
-3.35712
 20
-0.749977
 30
0.000000
  70
    32
  0
VERTEX
  8
241
  5
1B0B
 10
-3.35784
 20
-0.749976
 30
0.000000
  70
    32
  0
VERTEX
  8
241
  5
1B0C
 10
-3.35856
 20
-0.749976
 30
0.000000
  70
    32
  0
VERTEX
  8
241
  5
1B0D
 10
-3.35928
 20
-0.749976
 30
0.000000
  70
    32
  0
VERTEX
  8
241
  5
1B0E
 10
-3.36000
 20
-0.749975
 30
0.000000
  70
    32
  0
VERTEX
  8
241
  5
1B0F
 10
-3.36073
 20
-0.749975
 30
0.000000
  70
    32
  0
VERTEX
  8
241
  5
1B10
 10
-3.36145
 20
-0.749975
 30
0.000000
  70
    32
  0
VERTEX
  8
241
  5
1B11
 10
-3.36218
 20
-0.749975
 30
0.000000
  70
    32
  0
VERTEX
  8
241
  5
1B12
 10
-3.36291
 20
-0.749974
 30
0.000000
  70
    32
  0
VERTEX
  8
241
  5
1B13
 10
-3.36364
 20
-0.749974
 30
0.000000
  70
    32
  0
VERTEX
  8
241
  5
1B14
 10
-3.36438
 20
-0.749974
 30
0.000000
  70
    32
  0
VERTEX
  8
241
  5
1B15
 10
-3.36511
 20
-0.749974
 30
0.000000
  70
    32
  0
VERTEX
  8
241
  5
1B16
 10
-3.36585
 20
-0.749973
 30
0.000000
  70
    32
  0
VERTEX
  8
241
  5
1B17
 10
-3.36659
 20
-0.749973
 30
0.000000
  70
    32
  0
VERTEX
  8
241
  5
1B18
 10
-3.36733
 20
-0.749973
 30
0.000000
  70
    32
  0
VERTEX
  8
241
  5
1B19
 10
-3.36807
 20
-0.749973
 30
0.000000
  70
    32
  0
VERTEX
  8
241
  5
1B1A
 10
-3.36881
 20
-0.749973
 30
0.000000
  70
    32
  0
VERTEX
  8
241
  5
1B1B
 10
-3.36956
 20
-0.749972
 30
0.000000
  70
    32
  0
VERTEX
  8
241
  5
1B1C
 10
-3.37031
 20
-0.749972
 30
0.000000
  70
    32
  0
VERTEX
  8
241
  5
1B1D
 10
-3.37105
 20
-0.749972
 30
0.000000
  70
    32
  0
VERTEX
  8
241
  5
1B1E
 10
-3.37180
 20
-0.749972
 30
0.000000
  70
    32
  0
VERTEX
  8
241
  5
1B1F
 10
-3.37255
 20
-0.749972
 30
0.000000
  70
    32
  0
VERTEX
  8
241
  5
1B20
 10
-3.37331
 20
-0.749972
 30
0.000000
  70
    32
  0
VERTEX
  8
241
  5
1B21
 10
-3.37406
 20
-0.749971
 30
0.000000
  70
    32
  0
VERTEX
  8
241
  5
1B22
 10
-3.37482
 20
-0.749971
 30
0.000000
  70
    32
  0
VERTEX
  8
241
  5
1B23
 10
-3.37557
 20
-0.749971
 30
0.000000
  70
    32
  0
VERTEX
  8
241
  5
1B24
 10
-3.37633
 20
-0.749971
 30
0.000000
  70
    32
  0
VERTEX
  8
241
  5
1B25
 10
-3.37709
 20
-0.749971
 30
0.000000
  70
    32
  0
VERTEX
  8
241
  5
1B26
 10
-3.37785
 20
-0.749971
 30
0.000000
  70
    32
  0
VERTEX
  8
241
  5
1B27
 10
-3.37861
 20
-0.749971
 30
0.000000
  70
    32
  0
VERTEX
  8
241
  5
1B28
 10
-3.37938
 20
-0.749971
 30
0.000000
  70
    32
  0
VERTEX
  8
241
  5
1B29
 10
-3.38014
 20
-0.749971
 30
0.000000
  70
    32
  0
VERTEX
  8
241
  5
1B2A
 10
-3.38091
 20
-0.749971
 30
0.000000
  70
    32
  0
VERTEX
  8
241
  5
1B2B
 10
-3.38167
 20
-0.749971
 30
0.000000
  70
    32
  0
VERTEX
  8
241
  5
1B2C
 10
-3.38244
 20
-0.749971
 30
0.000000
  70
    32
  0
VERTEX
  8
241
  5
1B2D
 10
-3.38321
 20
-0.749971
 30
0.000000
  70
    32
  0
VERTEX
  8
241
  5
1B2E
 10
-3.38398
 20
-0.749971
 30
0.000000
  70
    32
  0
VERTEX
  8
241
  5
1B2F
 10
-3.38475
 20
-0.749971
 30
0.000000
  70
    32
  0
VERTEX
  8
241
  5
1B30
 10
-3.38553
 20
-0.749971
 30
0.000000
  70
    32
  0
VERTEX
  8
241
  5
1B31
 10
-3.38630
 20
-0.749971
 30
0.000000
  70
    32
  0
VERTEX
  8
241
  5
1B32
 10
-3.38707
 20
-0.749971
 30
0.000000
  70
    32
  0
VERTEX
  8
241
  5
1B33
 10
-3.38785
 20
-0.749971
 30
0.000000
  70
    32
  0
VERTEX
  8
241
  5
1B34
 10
-3.38863
 20
-0.749971
 30
0.000000
  70
    32
  0
VERTEX
  8
241
  5
1B35
 10
-3.38941
 20
-0.749971
 30
0.000000
  70
    32
  0
VERTEX
  8
241
  5
1B36
 10
-3.39019
 20
-0.749971
 30
0.000000
  70
    32
  0
VERTEX
  8
241
  5
1B37
 10
-3.39097
 20
-0.749971
 30
0.000000
  70
    32
  0
VERTEX
  8
241
  5
1B38
 10
-3.39175
 20
-0.749971
 30
0.000000
  70
    32
  0
VERTEX
  8
241
  5
1B39
 10
-3.39253
 20
-0.749972
 30
0.000000
  70
    32
  0
VERTEX
  8
241
  5
1B3A
 10
-3.39331
 20
-0.749972
 30
0.000000
  70
    32
  0
VERTEX
  8
241
  5
1B3B
 10
-3.39410
 20
-0.749972
 30
0.000000
  70
    32
  0
VERTEX
  8
241
  5
1B3C
 10
-3.39488
 20
-0.749972
 30
0.000000
  70
    32
  0
VERTEX
  8
241
  5
1B3D
 10
-3.39567
 20
-0.749972
 30
0.000000
  70
    32
  0
VERTEX
  8
241
  5
1B3E
 10
-3.39646
 20
-0.749972
 30
0.000000
  70
    32
  0
VERTEX
  8
241
  5
1B3F
 10
-3.39725
 20
-0.749972
 30
0.000000
  70
    32
  0
VERTEX
  8
241
  5
1B40
 10
-3.39803
 20
-0.749973
 30
0.000000
  70
    32
  0
VERTEX
  8
241
  5
1B41
 10
-3.39882
 20
-0.749973
 30
0.000000
  70
    32
  0
VERTEX
  8
241
  5
1B42
 10
-3.39962
 20
-0.749973
 30
0.000000
  70
    32
  0
VERTEX
  8
241
  5
1B43
 10
-3.40041
 20
-0.749973
 30
0.000000
  70
    32
  0
VERTEX
  8
241
  5
1B44
 10
-3.40120
 20
-0.749974
 30
0.000000
  70
    32
  0
VERTEX
  8
241
  5
1B45
 10
-3.40199
 20
-0.749974
 30
0.000000
  70
    32
  0
VERTEX
  8
241
  5
1B46
 10
-3.40279
 20
-0.749974
 30
0.000000
  70
    32
  0
VERTEX
  8
241
  5
1B47
 10
-3.40358
 20
-0.749974
 30
0.000000
  70
    32
  0
VERTEX
  8
241
  5
1B48
 10
-3.40438
 20
-0.749975
 30
0.000000
  70
    32
  0
VERTEX
  8
241
  5
1B49
 10
-3.40518
 20
-0.749975
 30
0.000000
  70
    32
  0
VERTEX
  8
241
  5
1B4A
 10
-3.40597
 20
-0.749975
 30
0.000000
  70
    32
  0
VERTEX
  8
241
  5
1B4B
 10
-3.40677
 20
-0.749975
 30
0.000000
  70
    32
  0
VERTEX
  8
241
  5
1B4C
 10
-3.40757
 20
-0.749976
 30
0.000000
  70
    32
  0
VERTEX
  8
241
  5
1B4D
 10
-3.40837
 20
-0.749976
 30
0.000000
  70
    32
  0
VERTEX
  8
241
  5
1B4E
 10
-3.40917
 20
-0.749976
 30
0.000000
  70
    32
  0
VERTEX
  8
241
  5
1B4F
 10
-3.40997
 20
-0.749977
 30
0.000000
  70
    32
  0
VERTEX
  8
241
  5
1B50
 10
-3.41078
 20
-0.749977
 30
0.000000
  70
    32
  0
VERTEX
  8
241
  5
1B51
 10
-3.41158
 20
-0.749977
 30
0.000000
  70
    32
  0
VERTEX
  8
241
  5
1B52
 10
-3.41238
 20
-0.749978
 30
0.000000
  70
    32
  0
VERTEX
  8
241
  5
1B53
 10
-3.41319
 20
-0.749978
 30
0.000000
  70
    32
  0
VERTEX
  8
241
  5
1B54
 10
-3.41399
 20
-0.749978
 30
0.000000
  70
    32
  0
VERTEX
  8
241
  5
1B55
 10
-3.41480
 20
-0.749979
 30
0.000000
  70
    32
  0
VERTEX
  8
241
  5
1B56
 10
-3.41560
 20
-0.749979
 30
0.000000
  70
    32
  0
VERTEX
  8
241
  5
1B57
 10
-3.41641
 20
-0.749979
 30
0.000000
  70
    32
  0
VERTEX
  8
241
  5
1B58
 10
-3.41722
 20
-0.749980
 30
0.000000
  70
    32
  0
VERTEX
  8
241
  5
1B59
 10
-3.41803
 20
-0.749980
 30
0.000000
  70
    32
  0
VERTEX
  8
241
  5
1B5A
 10
-3.41883
 20
-0.749980
 30
0.000000
  70
    32
  0
VERTEX
  8
241
  5
1B5B
 10
-3.41964
 20
-0.749981
 30
0.000000
  70
    32
  0
VERTEX
  8
241
  5
1B5C
 10
-3.42045
 20
-0.749981
 30
0.000000
  70
    32
  0
VERTEX
  8
241
  5
1B5D
 10
-3.42126
 20
-0.749982
 30
0.000000
  70
    32
  0
VERTEX
  8
241
  5
1B5E
 10
-3.42207
 20
-0.749982
 30
0.000000
  70
    32
  0
VERTEX
  8
241
  5
1B5F
 10
-3.42288
 20
-0.749982
 30
0.000000
  70
    32
  0
VERTEX
  8
241
  5
1B60
 10
-3.42370
 20
-0.749983
 30
0.000000
  70
    32
  0
VERTEX
  8
241
  5
1B61
 10
-3.42451
 20
-0.749983
 30
0.000000
  70
    32
  0
VERTEX
  8
241
  5
1B62
 10
-3.42532
 20
-0.749984
 30
0.000000
  70
    32
  0
VERTEX
  8
241
  5
1B63
 10
-3.42613
 20
-0.749984
 30
0.000000
  70
    32
  0
VERTEX
  8
241
  5
1B64
 10
-3.42695
 20
-0.749984
 30
0.000000
  70
    32
  0
VERTEX
  8
241
  5
1B65
 10
-3.42776
 20
-0.749985
 30
0.000000
  70
    32
  0
VERTEX
  8
241
  5
1B66
 10
-3.42858
 20
-0.749985
 30
0.000000
  70
    32
  0
VERTEX
  8
241
  5
1B67
 10
-3.42939
 20
-0.749986
 30
0.000000
  70
    32
  0
VERTEX
  8
241
  5
1B68
 10
-3.43021
 20
-0.749986
 30
0.000000
  70
    32
  0
VERTEX
  8
241
  5
1B69
 10
-3.43102
 20
-0.749987
 30
0.000000
  70
    32
  0
VERTEX
  8
241
  5
1B6A
 10
-3.43184
 20
-0.749987
 30
0.000000
  70
    32
  0
VERTEX
  8
241
  5
1B6B
 10
-3.43265
 20
-0.749988
 30
0.000000
  70
    32
  0
VERTEX
  8
241
  5
1B6C
 10
-3.43347
 20
-0.749988
 30
0.000000
  70
    32
  0
VERTEX
  8
241
  5
1B6D
 10
-3.43429
 20
-0.749988
 30
0.000000
  70
    32
  0
VERTEX
  8
241
  5
1B6E
 10
-3.43511
 20
-0.749989
 30
0.000000
  70
    32
  0
VERTEX
  8
241
  5
1B6F
 10
-3.43592
 20
-0.749989
 30
0.000000
  70
    32
  0
VERTEX
  8
241
  5
1B70
 10
-3.43674
 20
-0.749990
 30
0.000000
  70
    32
  0
VERTEX
  8
241
  5
1B71
 10
-3.43756
 20
-0.749990
 30
0.000000
  70
    32
  0
VERTEX
  8
241
  5
1B72
 10
-3.43838
 20
-0.749991
 30
0.000000
  70
    32
  0
VERTEX
  8
241
  5
1B73
 10
-3.43920
 20
-0.749991
 30
0.000000
  70
    32
  0
VERTEX
  8
241
  5
1B74
 10
-3.44001
 20
-0.749992
 30
0.000000
  70
    32
  0
VERTEX
  8
241
  5
1B75
 10
-3.44083
 20
-0.749992
 30
0.000000
  70
    32
  0
VERTEX
  8
241
  5
1B76
 10
-3.44165
 20
-0.749993
 30
0.000000
  70
    32
  0
VERTEX
  8
241
  5
1B77
 10
-3.44247
 20
-0.749993
 30
0.000000
  70
    32
  0
VERTEX
  8
241
  5
1B78
 10
-3.44329
 20
-0.749994
 30
0.000000
  70
    32
  0
VERTEX
  8
241
  5
1B79
 10
-3.44411
 20
-0.749994
 30
0.000000
  70
    32
  0
VERTEX
  8
241
  5
1B7A
 10
-3.44493
 20
-0.749995
 30
0.000000
  70
    32
  0
VERTEX
  8
241
  5
1B7B
 10
-3.44575
 20
-0.749995
 30
0.000000
  70
    32
  0
VERTEX
  8
241
  5
1B7C
 10
-3.44657
 20
-0.749996
 30
0.000000
  70
    32
  0
VERTEX
  8
241
  5
1B7D
 10
-3.44739
 20
-0.749996
 30
0.000000
  70
    32
  0
VERTEX
  8
241
  5
1B7E
 10
-3.44821
 20
-0.749997
 30
0.000000
  70
    32
  0
VERTEX
  8
241
  5
1B7F
 10
-3.44903
 20
-0.749997
 30
0.000000
  70
    32
  0
VERTEX
  8
241
  5
1B80
 10
-3.44985
 20
-0.749998
 30
0.000000
  70
    32
  0
VERTEX
  8
241
  5
1B81
 10
-3.45067
 20
-0.749998
 30
0.000000
  70
    32
  0
VERTEX
  8
241
  5
1B82
 10
-3.45149
 20
-0.749999
 30
0.000000
  70
    32
  0
VERTEX
  8
241
  5
1B83
 10
-3.45231
 20
-0.749999
 30
0.000000
  70
    32
  0
VERTEX
  8
241
  5
1B84
 10
-3.45314
 20
-0.750000
 30
0.000000
  70
    32
  0
SEQEND
  8
241
  5
1B85
  0
LINE
  5
1818
  8
241
 10
-0.0584833323953831
 20
-0.7499996572732927
 30
0.0
 11
-3.3122524619100768
 21
-0.7499996572732927
 31
0.0
  0
LINE
  5
1819
  8
240
 10
-6.9531351327893267
 20
-6.5999999642372131
 30
0.0
 11
-6.8480266407768644
 21
-6.7039478744818561
 31
0.0
  0
LINE
  5
181A
  8
240
 10
-3.594556892533757
 20
10.238700738761111
 30
0.0
 11
-6.8472457587948909
 21
6.9860097486285158
 31
0.0
  0
LINE
  5
181B
  8
241
 10
-3.3117173129400359
 20
3.4504738670601149
 30
0.0
 11
-0.2531334757869503
 21
6.5090553034641188
 31
0.0
  0
LINE
  5
181C
  8
240
 10
-0.0590215788406393
 20
6.9860098300961173
 30
0.0
 11
-3.311714168674436
 21
10.23870081972102
 31
0.0
  0
LINE
  5
181D
  8
240
 10
-6.8472458738631401
 20
6.7031672435654874
 30
0.0
 11
-6.7440788297851828
 21
6.5999999642372122
 31
0.0
  0
ENDBLK
  5
1820
  8
0
  0
ENDSEC
  0
SECTION
  2
ENTITIES
  0
LINE
  5
13F2
  8
250
 10
11.33109363964723
 20
-10.349999999999961
 30
0.0
 11
11.33109363964723
 21
-8.1199999999999761
 31
0.0
  0
LINE
  5
13F3
  8
250
 10
10.959426972980561
 20
-8.1199999999999761
 30
0.0
 11
11.33109363964723
 21
-10.349999999999961
 31
0.0
  0
LINE
  5
13F4
  8
250
 10
11.7027603063139
 20
-8.1199999999999761
 30
0.0
 11
11.33109363964723
 21
-10.349999999999961
 31
0.0
  0
LINE
  5
13F5
  8
250
 10
11.33109363964723
 20
10.350000000000019
 30
0.0
 11
11.33109363964723
 21
8.1200000000000312
 31
0.0
  0
LINE
  5
13F6
  8
250
 10
11.7027603063139
 20
8.1200000000000312
 30
0.0
 11
11.33109363964723
 21
10.350000000000019
 31
0.0
  0
LINE
  5
13F7
  8
250
 10
10.959426972980561
 20
8.1200000000000312
 30
0.0
 11
11.33109363964723
 21
10.350000000000019
 31
0.0
  0
TEXT
  5
13F8
  8
250
 10
10.331093639647181
 20
-3.4999999999999138
 30
0.0
 40
3.0
  1
20.7
 50
90.0
  0
TEXT
  5
13F9
  8
250
 10
10.331093639647181
 20
-6.2142857142856078
 30
0.0
 40
3.0
  1
\U+2205
 50
90.0
  0
LINE
  5
13FA
  8
250
 10
-51.253135169617899
 20
-19.020118082214928
 30
0.0
 11
-49.023135169617888
 21
-19.020118082214928
 31
0.0
  0
LINE
  5
13FB
  8
250
 10
-49.023135169617888
 20
-18.648451415548259
 30
0.0
 11
-51.253135169617899
 21
-19.020118082214928
 31
0.0
  0
LINE
  5
13FC
  8
250
 10
-49.023135169617888
 20
-19.391784748881602
 30
0.0
 11
-51.253135169617899
 21
-19.020118082214928
 31
0.0
  0
LINE
  5
13FD
  8
250
 10
0.0
 20
-19.020118082214928
 30
0.0
 11
-2.2300000000000182
 21
-19.020118082214928
 31
0.0
  0
LINE
  5
13FE
  8
250
 10
-2.2300000000000182
 20
-19.391784748881602
 30
0.0
 11
0.0
 21
-19.020118082214928
 31
0.0
  0
LINE
  5
13FF
  8
250
 10
-2.2300000000000182
 20
-18.648451415548259
 30
0.0
 11
0.0
 21
-19.020118082214928
 31
0.0
  0
TEXT
  5
1400
  8
250
 10
-30.626567584808932
 20
-18.020118082214928
 30
0.0
 40
3.0
  1
51.3
  0
LINE
  5
1401
  8
250
 10
-30.668906360352771
 20
-6.5999999642372407
 30
0.0
 11
-30.668906360352771
 21
-4.3699999642372509
 31
0.0
  0
LINE
  5
1402
  8
250
 10
-31.040573027019441
 20
-4.3699999642372509
 30
0.0
 11
-30.668906360352771
 21
-6.5999999642372407
 31
0.0
  0
LINE
  5
1403
  8
250
 10
-30.297239693686091
 20
-4.3699999642372509
 30
0.0
 11
-30.668906360352771
 21
-6.5999999642372407
 31
0.0
  0
LINE
  5
1404
  8
250
 10
-30.668906360352771
 20
6.5999999642371838
 30
0.0
 11
-30.668906360352771
 21
4.3699999642371941
 31
0.0
  0
LINE
  5
1405
  8
250
 10
-30.297239693686091
 20
4.3699999642371941
 30
0.0
 11
-30.668906360352771
 21
6.5999999642371838
 31
0.0
  0
LINE
  5
1406
  8
250
 10
-31.040573027019441
 20
4.3699999642371941
 30
0.0
 11
-30.668906360352771
 21
6.5999999642371838
 31
0.0
  0
TEXT
  5
1407
  8
250
 10
-31.668906360352821
 20
-3.4999999999999711
 30
0.0
 40
3.0
  1
13.2
 50
90.0
  0
TEXT
  5
1408
  8
250
 10
-31.668906360352821
 20
-6.2142857142856647
 30
0.0
 40
3.0
  1
\U+2205
 50
90.0
  0
LINE
  5
1409
  8
250
 10
0.0000000000001705
 20
15.02931911742064
 30
0.0
 11
-2.2087834110895979
 21
14.722438288930929
 31
0.0
  0
LINE
  5
140A
  8
250
 10
-2.157636606341327
 20
14.35430772041596
 30
0.0
 11
0.0000000000001705
 21
15.02931911742064
 31
0.0
  0
LINE
  5
140B
  8
250
 10
-2.2599302158379251
 20
15.0905688574459
 30
0.0
 11
0.0000000000001705
 21
15.02931911742064
 31
0.0
  0
LINE
  5
140C
  8
250
 10
-5.7292144876199691
 20
12.656199949378189
 30
0.0
 11
-3.9503715754278801
 21
14.00104860024711
 31
0.0
  0
LINE
  5
140D
  8
250
 10
-4.1745130172394047
 20
14.297522418945819
 30
0.0
 11
-5.7292144876199691
 21
12.656199949378189
 31
0.0
  0
LINE
  5
140E
  8
250
 10
-3.726230133616411
 20
13.704574781548439
 30
0.0
 11
-5.7292144876199691
 21
12.656199949378189
 31
0.0
  0
TEXT
  5
140F
  8
250
 10
-7.1797299034925004
 20
14.34552732164056
 30
0.0
 40
3.0
  1
45üï
 50
15.90778742044737
  0
LINE
  5
1410
  8
250
 10
-135.66890636035271
 20
-8.0000000427009468
 30
0.0
 11
-135.66890636035271
 21
-5.770000042700957
 31
0.0
  0
LINE
  5
1411
  8
250
 10
-136.04057302701941
 20
-5.770000042700957
 30
0.0
 11
-135.66890636035271
 21
-8.0000000427009468
 31
0.0
  0
LINE
  5
1412
  8
250
 10
-135.29723969368609
 20
-5.770000042700957
 30
0.0
 11
-135.66890636035271
 21
-8.0000000427009468
 31
0.0
  0
LINE
  5
1413
  8
250
 10
-135.66890636035271
 20
7.9999999572990532
 30
0.0
 11
-135.66890636035271
 21
5.7699999572990626
 31
0.0
  0
LINE
  5
1414
  8
250
 10
-135.29723969368609
 20
5.7699999572990626
 30
0.0
 11
-135.66890636035271
 21
7.9999999572990532
 31
0.0
  0
LINE
  5
1415
  8
250
 10
-136.04057302701941
 20
5.7699999572990626
 30
0.0
 11
-135.66890636035271
 21
7.9999999572990532
 31
0.0
  0
TEXT
  5
1416
  8
250
 10
-136.66890636035279
 20
-1.3571428998437509
 30
0.0
 40
3.0
  1
16
 50
90.0
  0
TEXT
  5
1417
  8
250
 10
-136.66890636035279
 20
-4.0714286141294451
 30
0.0
 40
3.0
  1
\U+2205
 50
90.0
  0
LINE
  5
1418
  8
250
 10
-122.653134062992
 20
-26.020118082214939
 30
0.0
 11
-120.42313406299201
 21
-26.020118082214939
 31
0.0
  0
LINE
  5
1419
  8
250
 10
-120.42313406299201
 20
-25.648451415548269
 30
0.0
 11
-122.653134062992
 21
-26.020118082214939
 31
0.0
  0
LINE
  5
141A
  8
250
 10
-120.42313406299201
 20
-26.391784748881609
 30
0.0
 11
-122.653134062992
 21
-26.020118082214939
 31
0.0
  0
LINE
  5
141B
  8
250
 10
0.0
 20
-26.020118082214939
 30
0.0
 11
-2.2300000000000182
 21
-26.020118082214939
 31
0.0
  0
LINE
  5
141C
  8
250
 10
-2.2300000000000182
 20
-26.391784748881609
 30
0.0
 11
0.0
 21
-26.020118082214939
 31
0.0
  0
LINE
  5
141D
  8
250
 10
-2.2300000000000182
 20
-25.648451415548269
 30
0.0
 11
0.0
 21
-26.020118082214939
 31
0.0
  0
TEXT
  5
141E
  8
250
 10
-67.969424174353151
 20
-25.020118082214939
 30
0.0
 40
3.0
  1
122.7
  0
LINE
  5
141F
  8
250
 10
-122.653134062992
 20
-19.020118082214928
 30
0.0
 11
-120.42313406299201
 21
-19.020118082214928
 31
0.0
  0
LINE
  5
1420
  8
250
 10
-120.42313406299201
 20
-18.648451415548259
 30
0.0
 11
-122.653134062992
 21
-19.020118082214928
 31
0.0
  0
LINE
  5
1421
  8
250
 10
-120.42313406299201
 20
-19.391784748881602
 30
0.0
 11
-122.653134062992
 21
-19.020118082214928
 31
0.0
  0
LINE
  5
1422
  8
250
 10
-51.253135169617899
 20
-19.020118082214928
 30
0.0
 11
-53.483135169617917
 21
-19.020118082214928
 31
0.0
  0
LINE
  5
1423
  8
250
 10
-53.483135169617917
 20
-19.391784748881602
 30
0.0
 11
-51.253135169617899
 21
-19.020118082214928
 31
0.0
  0
LINE
  5
1424
  8
250
 10
-53.483135169617917
 20
-18.648451415548259
 30
0.0
 11
-51.253135169617899
 21
-19.020118082214928
 31
0.0
  0
TEXT
  5
1425
  8
250
 10
-92.024563187733634
 20
-18.020118082214928
 30
0.0
 40
3.0
  1
71.4
  0
LINE
  5
1426
  8
250
 10
-120.42313406299201
 20
-19.020118082214928
 30
0.0
 11
-53.483135169617917
 21
-19.020118082214928
 31
0.0
  0
LINE
  5
1427
  8
250
 10
-51.253135169617899
 20
-7.3694613829420632
 30
0.0
 11
-51.253135169617899
 21
-20.020118082214939
 31
0.0
  0
LINE
  5
1428
  8
250
 10
-122.653134062992
 20
-7.0000000427009459
 30
0.0
 11
-122.653134062992
 21
-20.020118082214939
 31
0.0
  0
LINE
  5
1429
  8
250
 10
-120.42313406299201
 20
-26.020118082214939
 30
0.0
 11
-2.2300000000000182
 21
-26.020118082214939
 31
0.0
  0
LINE
  5
142A
  8
250
 10
0.0
 20
-7.3445876235936387
 30
0.0
 11
0.0
 21
-27.020118082214939
 31
0.0
  0
LINE
  5
142B
  8
250
 10
-122.653134062992
 20
-6.5000000427009459
 30
0.0
 11
-122.653134062992
 21
-27.020118082214939
 31
0.0
  0
LINE
  5
142C
  8
250
 10
-135.66890636035271
 20
-5.770000042700957
 30
0.0
 11
-135.66890636035271
 21
5.7699999572990626
 31
0.0
  0
LINE
  5
142D
  8
250
 10
-121.153134062992
 20
7.9999999572990532
 30
0.0
 11
-136.66890636035271
 21
7.9999999572990532
 31
0.0
  0
LINE
  5
142E
  8
250
  6
CONTINUOUS
 62
     3
 10
-121.153134062992
 20
-8.0000000427009468
 30
0.0
 11
-136.66890636035271
 21
-8.0000000427009468
 31
0.0
  0
ARC
  5
142F
  8
250
 10
0.0000000000001705
 20
6.9269882802784926
 30
0.0
 40
8.1023308371421692
 50
105.8196877278546
 51
119.18032636564389
  0
LINE
  5
1430
  8
250
 10
-3.665805939469692
 20
10.592792416333729
 30
0.0
 11
-6.4363214427391418
 21
13.36330655663204
 31
0.0
  0
LINE
  5
1431
  8
250
 10
0.0000000000002274
 20
7.4269882802784926
 30
0.0
 11
0.0000000000001705
 21
16.029319117420641
 31
0.0
  0
LINE
  5
1432
  8
250
 10
-30.668906360352771
 20
-4.3699999642372509
 30
0.0
 11
-30.668906360352771
 21
4.3699999642371941
 31
0.0
  0
LINE
  5
1433
  8
250
 10
-49.023135169617888
 20
-19.020118082214928
 30
0.0
 11
-2.2300000000000182
 21
-19.020118082214928
 31
0.0
  0
LINE
  5
1434
  8
250
 10
0.0
 20
-7.3445876235936387
 30
0.0
 11
0.0
 21
-20.020118082214939
 31
0.0
  0
LINE
  5
1435
  8
250
 10
-51.253135169617899
 20
-7.3694613829420632
 30
0.0
 11
-51.253135169617899
 21
-20.020118082214939
 31
0.0
  0
LINE
  5
1436
  8
250
 10
11.33109363964723
 20
-8.1199999999999761
 30
0.0
 11
11.33109363964723
 21
8.1200000000000312
 31
0.0
  0
LINE
  5
1437
  8
250
 10
-2.9531354904173091
 20
10.350000000000019
 30
0.0
 11
12.33109363964723
 21
10.350000000000019
 31
0.0
  0
LINE
  5
1438
  8
250
 10
-2.9531354904173091
 20
-10.349999999999961
 30
0.0
 11
12.33109363964723
 21
-10.349999999999961
 31
0.0
  0
TEXT
  5
14F1
  8
241
 10
-119.0
 20
21.0
 30
0.0
 40
5.0
  1
ST16-C1520-45B-50
  7
YOKO
 11
-119.0
 21
21.0
 31
0.0
 73
     1
  0
INSERT
  5
1821
  8
240
  2
A$C75D02D40
 10
0.0
 20
0.0
 30
0.0
  0
VIEWPORT
  5
22
 67
     1
  8
0
 10
261.51769911504419
 20
148.5
 30
0.0
 40
523.0353982300885
 41
297.0
 68
     1
 69
     1
1001
ACAD
1000
MVIEW
1002
{
1070
    16
1010
0.0
1020
0.0
1030
0.0
1010
0.0
1020
0.0
1030
1.0
1040
0.0
1040
297.0
1040
261.51769911504419
1040
148.5
1040
50.0
1040
0.0
1040
0.0
1070
     0
1070
   100
1070
     1
1070
     1
1070
     0
1070
     0
1070
     0
1070
     0
1040
0.0
1040
0.0
1040
0.0
1040
1.0
1040
1.0
1040
10.0
1040
10.0
1070
     0
1002
{
1002
}
1002
}
1001
GENIUS_GENODEF_13
1002
{
1000
HIER
1070
     0
1002
}
1002
{
1000
MANEDIT
1070
     0
1002
}
1002
{
1000
NOSEL
1070
     0
1002
}
1002
{
1000
BEHIND
1070
     0
1002
}
1002
{
1000
OTHER
1070
     0
1002
}
1002
{
1000
REACTOR
1002
}
1001
GENIUS_GENOBJ-N-SDF_13
1002
{
1000
OWNER
1000
GEN
1002
}
1001
GENIUS_GENSCREG_15
1000
PF
1040
1.0
1000
DF
1040
1.0
1000
MIN
1011
0.0
1021
-0.0000023841862547
1031
0.0
1021
0.0
1031
0.0
1000
MAX
1011
523.0353982300885
1021
-0.0000023841862547
1031
0.0
1021
297.0
1031
0.0
1000
FLAGS
1070
     2
  0
ENDSEC
  0
EOF
