  0
SECTION
  2
HEADER
  9
$ACADVER
  1
AC1009
  9
$INSBASE
 10
0.0
 20
0.0
 30
0.0
  9
$EXTMIN
 10
-131.56451720390481
 20
-28.594142487430531
 30
0.0
  9
$EXTMAX
 10
17.435489682866908
 20
33.000000000000043
 30
0.0
  9
$LIMMIN
 10
0.0
 20
0.0
  9
$LIMMAX
 10
297.0
 20
210.0
  9
$ORTHOMODE
 70
     0
  9
$REGENMODE
 70
     1
  9
$FILLMODE
 70
     1
  9
$QTEXTMODE
 70
     0
  9
$MIRRTEXT
 70
     1
  9
$DRAGMODE
 70
     2
  9
$LTSCALE
 40
10.0
  9
$OSMODE
 70
  3071
  9
$ATTMODE
 70
     1
  9
$TEXTSIZE
 40
3.0
  9
$TRACEWID
 40
1.0
  9
$TEXTSTYLE
  7
YOKO
  9
$CLAYER
  8
240
  9
$CELTYPE
  6
BYLAYER
  9
$CECOLOR
 62
   256
  9
$DIMSCALE
 40
1.0
  9
$DIMASZ
 40
2.2299999999999991
  9
$DIMEXO
 40
0.5
  9
$DIMDLI
 40
7.0
  9
$DIMRND
 40
0.0
  9
$DIMDLE
 40
0.0
  9
$DIMEXE
 40
1.0
  9
$DIMTP
 40
0.0
  9
$DIMTM
 40
0.01
  9
$DIMTXT
 40
2.7999999999999989
  9
$DIMCEN
 40
0.0
  9
$DIMTSZ
 40
0.0
  9
$DIMTOL
 70
     0
  9
$DIMLIM
 70
     0
  9
$DIMTIH
 70
     0
  9
$DIMTOH
 70
     0
  9
$DIMSE1
 70
     0
  9
$DIMSE2
 70
     0
  9
$DIMTAD
 70
     3
  9
$DIMZIN
 70
     9
  9
$DIMBLK
  1
OPEN
  9
$DIMASO
 70
     1
  9
$DIMSHO
 70
     1
  9
$DIMPOST
  1

  9
$DIMAPOST
  1

  9
$DIMALT
 70
     0
  9
$DIMALTD
 70
     2
  9
$DIMALTF
 40
25.399999999999999
  9
$DIMLFAC
 40
1.0
  9
$DIMTOFL
 70
     1
  9
$DIMTVP
 40
0.0
  9
$DIMTIX
 70
     1
  9
$DIMSOXD
 70
     0
  9
$DIMSAH
 70
     0
  9
$DIMBLK1
  1

  9
$DIMBLK2
  1

  9
$DIMSTYLE
  2
BIGT
  9
$DIMCLRD
 70
   256
  9
$DIMCLRE
 70
   256
  9
$DIMCLRT
 70
    40
  9
$DIMTFAC
 40
1.0
  9
$DIMGAP
 40
1.0
  9
$LUNITS
 70
     2
  9
$LUPREC
 70
     3
  9
$SKETCHINC
 40
1.0
  9
$FILLETRAD
 40
0.0
  9
$AUNITS
 70
     0
  9
$AUPREC
 70
     3
  9
$MENU
  1
.
  9
$ELEVATION
 40
0.0
  9
$PELEVATION
 40
0.0
  9
$THICKNESS
 40
0.0
  9
$LIMCHECK
 70
     0
  9
$BLIPMODE
 70
     0
  9
$CHAMFERA
 40
0.25
  9
$CHAMFERB
 40
0.25
  9
$SKPOLY
 70
     0
  9
$TDCREATE
 40
2454809.411307327
  9
$TDUPDATE
 40
2456036.6102098031
  9
$TDINDWG
 40
0.0042149074
  9
$TDUSRTIMER
 40
0.0042147222
  9
$USRTIMER
 70
     1
  9
$ANGBASE
 50
0.0
  9
$ANGDIR
 70
     0
  9
$PDMODE
 70
     1
  9
$PDSIZE
 40
0.0
  9
$PLINEWID
 40
0.0
  9
$COORDS
 70
     2
  9
$SPLFRAME
 70
     0
  9
$SPLINETYPE
 70
     6
  9
$SPLINESEGS
 70
     4
  9
$ATTDIA
 70
     1
  9
$ATTREQ
 70
     1
  9
$HANDLING
 70
     1
  9
$HANDSEED
  5
1B90
  9
$SURFTAB1
 70
     6
  9
$SURFTAB2
 70
     6
  9
$SURFTYPE
 70
     6
  9
$SURFU
 70
     6
  9
$SURFV
 70
     6
  9
$UCSNAME
  2

  9
$UCSORG
 10
0.0
 20
0.0
 30
0.0
  9
$UCSXDIR
 10
1.0
 20
0.0
 30
0.0
  9
$UCSYDIR
 10
0.0
 20
1.0
 30
0.0
  9
$PUCSNAME
  2

  9
$PUCSORG
 10
0.0
 20
0.0
 30
0.0
  9
$PUCSXDIR
 10
1.0
 20
0.0
 30
0.0
  9
$PUCSYDIR
 10
0.0
 20
1.0
 30
0.0
  9
$USERI1
 70
     1
  9
$USERI2
 70
     0
  9
$USERI3
 70
     0
  9
$USERI4
 70
     0
  9
$USERI5
 70
     0
  9
$USERR1
 40
0.0
  9
$USERR2
 40
0.0
  9
$USERR3
 40
0.0
  9
$USERR4
 40
0.0
  9
$USERR5
 40
0.0
  9
$WORLDVIEW
 70
     1
  9
$SHADEDGE
 70
     3
  9
$SHADEDIF
 70
    70
  9
$TILEMODE
 70
     1
  9
$MAXACTVP
 70
    16
  9
$PLIMCHECK
 70
     0
  9
$PEXTMIN
 10
1.0000000000000000E+020
 20
1.0000000000000000E+020
 30
1.0000000000000000E+020
  9
$PEXTMAX
 10
-1.0000000000000000E+020
 20
-1.0000000000000000E+020
 30
-1.0000000000000000E+020
  9
$PLIMMIN
 10
0.0
 20
0.0
  9
$PLIMMAX
 10
420.0
 20
297.0
  9
$UNITMODE
 70
     0
  9
$VISRETAIN
 70
     1
  9
$PLINEGEN
 70
     0
  9
$PSLTSCALE
 70
     1
  0
ENDSEC
  0
SECTION
  2
TABLES
  0
TABLE
  2
VPORT
 70
     3
  0
VPORT
  2
*ACTIVE
 70
     0
 10
0.0
 20
0.0
 11
1.0
 21
1.0
 12
-50.950876733106519
 22
2.2045902130247792
 13
0.0
 23
0.0
 14
7.0
 24
7.0
 15
7.0
 25
7.0
 16
0.0
 26
0.0
 36
1.0
 17
0.0
 27
0.0
 37
0.0
 40
96.5880044051422
 41
1.675386444708679
 42
50.0
 43
0.0
 44
0.0
 50
0.0
 51
0.0
 71
     0
 72
  2000
 73
     1
 74
     0
 75
     0
 76
     1
 77
     0
 78
     0
  0
ENDTAB
  0
TABLE
  2
LTYPE
 70
    13
  0
LTYPE
  2
CONTINUOUS
 70
     0
  3
Solid line
 72
    65
 73
     0
 40
0.0
  0
LTYPE
  2
CENTER2
 70
     0
  3
___ _ ___ _ ___ _ ___ _ ___ _ ___ _ ___ _ ___ _
 72
    65
 73
     4
 40
1.125
 49
0.75
 49
-0.125
 49
0.125
 49
-0.125
  0
LTYPE
  2
HIDDEN2
 70
     0
  3
_ _ _ _ _ _ _ _ _ _ _ _ _ _ _ _ _ _ _ _ _ _ _ _
 72
    65
 73
     2
 40
0.1875
 49
0.125
 49
-0.0625
  0
LTYPE
  2
PHANTOM2
 70
     0
  3
___ _ _ ___ _ _ ___ _ _ ___ _ _ ___ _ _ ___ _ _
 72
    65
 73
     6
 40
1.25
 49
0.625
 49
-0.125
 49
0.125
 49
-0.125
 49
0.125
 49
-0.125
  0
LTYPE
  2
CENTER
 70
     0
  3
____ _ ____ _ ____ _ ____ _ ____ _ ____ _ ____ 
 72
    65
 73
     4
 40
2.0
 49
1.25
 49
-0.25
 49
0.25
 49
-0.25
  0
LTYPE
  2
AM_ISO02W050
 70
     0
  3
__ __ __ __ __ __ __ __ __ __ __ __ __ __ __
 72
    65
 73
     2
 40
7.5
 49
6.0
 49
-1.5
  0
LTYPE
  2
AMCONSTR
 70
     0
  3
_______________________
 72
    65
 73
     2
 40
9999.0
 49
9999.0
 49
0.0
  0
LTYPE
  2
ACISOWELD
 70
     0
  3
_ _ _ _ _
 72
    65
 73
     2
 40
2.0
 49
2.0
 49
-1.0
  0
LTYPE
  2
ACISOTGB
 70
     0
  3
__ . . __ . .
 72
    65
 73
     6
 40
9.0
 49
4.0
 49
-1.0
 49
1.0
 49
-1.0
 49
1.0
 49
-1.0
  0
LTYPE
  2
ACISOTGL
 70
     0
  3
_ _ _ _ _
 72
    65
 73
     2
 40
3.0
 49
2.0
 49
-1.0
  0
LTYPE
  2
ACJISTGB
 70
     0
  3
__ . . __ . .
 72
    65
 73
     6
 40
9.0
 49
4.0
 49
-1.0
 49
1.0
 49
-1.0
 49
1.0
 49
-1.0
  0
LTYPE
  2
ACJISTGL
 70
     0
  3
_ _ _ _ _
 72
    65
 73
     2
 40
3.0
 49
2.0
 49
-1.0
  0
LTYPE
  2
HIDDEN
 70
     0
  3
Hidden __ __ __ __ __ __ __ __ __ __ __ __ __ _
 72
    65
 73
     2
 40
9.5249999999999986
 49
6.3499999999999988
 49
-3.1749999999999989
  0
ENDTAB
  0
TABLE
  2
LAYER
 70
     8
  0
LAYER
  2
0
 70
     0
 62
     7
  6
CONTINUOUS
  0
LAYER
  2
DEFPOINTS
 70
     0
 62
     7
  6
CONTINUOUS
  0
LAYER
  2
245
 70
     0
 62
     2
  6
CENTER2
  0
LAYER
  2
240
 70
     0
 62
     4
  6
CONTINUOUS
  0
LAYER
  2
241
 70
     0
 62
   211
  6
CONTINUOUS
  0
LAYER
  2
246
 70
     0
 62
     3
  6
PHANTOM2
  0
LAYER
  2
250
 70
     0
 62
     3
  6
CONTINUOUS
  0
LAYER
  2
247
 70
     0
 62
    60
  6
CONTINUOUS
  0
ENDTAB
  0
TABLE
  2
STYLE
 70
     6
  0
STYLE
  2
STANDARD
 70
     0
 40
0.0
 41
1.0
 50
0.0
 71
     0
 42
3.0
  3
romans.shx
  4
extfont.shx
  0
STYLE
  2
ACISOTS
 70
     0
 40
1.0
 41
1.0
 50
0.0
 71
     0
 42
3.0
  3
amgdt.shx
  4
extfont.shx
  0
STYLE
  2
ACISOGDT
 70
     0
 40
0.0
 41
1.0
 50
0.0
 71
     0
 42
3.0
  3
amgdt.shx
  4
extfont.shx
  0
STYLE
  2
ACJISTS
 70
     0
 40
1.0
 41
1.0
 50
0.0
 71
     0
 42
3.0
  3
amgdt.shx
  4
extfont.shx
  0
STYLE
  2
ACJISGDT
 70
     0
 40
0.0
 41
1.0
 50
0.0
 71
     0
 42
3.0
  3
amgdt.shx
  4
extfont.shx
  0
STYLE
  2
YOKO
 70
     0
 40
0.0
 41
1.0
 50
0.0
 71
     0
 42
3.0
  3
romans.shx
  4
extfont.shx
  0
ENDTAB
  0
TABLE
  2
VIEW
 70
     0
  0
ENDTAB
  0
TABLE
  2
UCS
 70
     0
  0
ENDTAB
  0
TABLE
  2
APPID
 70
    31
  0
APPID
  2
ACAD
 70
     0
  0
APPID
  2
GLOBAL
 70
     0
  0
APPID
  2
DETAIL
 70
     0
  0
APPID
  2
GRPNAME
 70
     0
  0
APPID
  2
GPARA
 70
     0
  0
APPID
  2
MCAD_NO_VIS
 70
     0
  0
APPID
  2
ACAD_TEMP_GRAPHIC
 70
     0
  0
APPID
  2
ACATTRIBSERVICES
 70
     0
  0
APPID
  2
GENIUS_GENSCREG_15
 70
     0
  0
APPID
  2
GENIUS_GENODEF_13
 70
     0
  0
APPID
  2
GENIUS_GENOBJ-N-SDF_13
 70
     0
  0
APPID
  2
GENIUS_GENREC_14
 70
     0
  0
APPID
  2
GENIUS_GENOBJ-N-REC_13
 70
     0
  0
APPID
  2
GENIUS_GENDIMSH_14
 70
     0
  0
APPID
  2
GENIUS_GENOBJ-N-DIM_13
 70
     0
  0
APPID
  2
GENIUS_GENDIM_13
 70
     0
  0
APPID
  2
GENIUS_GENDTOL_13
 70
     0
  0
APPID
  2
GENIUS_GENOLIS_13
 70
     0
  0
APPID
  2
GENIUS_GENOENT_13
 70
     0
  0
APPID
  2
GENIUS_GENOBJ-F-FEM_13
 70
     0
  0
APPID
  2
GENIUS_GENOREF_13
 70
     0
  0
APPID
  2
GENIUS_GEFFEM_13
 70
     0
  0
APPID
  2
GENIUS_GEFFEMP_13
 70
     0
  0
APPID
  2
AD_DRAW
 70
     0
  0
APPID
  2
DESIGNERASSEMBLIES
 70
     0
  0
APPID
  2
ACADM_DIM_EDIT
 70
     0
  0
APPID
  2
AMDT_DM_ADJ
 70
     0
  0
APPID
  2
GENIUS_GENOBJ-N-FIL_13
 70
     0
  0
APPID
  2
HATCH_TYPE
 70
     0
  0
APPID
  2
HATCH_DISPLAY
 70
     0
  0
APPID
  2
HATCH_DISTANCE
 70
     0
  0
ENDTAB
  0
TABLE
  2
DIMSTYLE
 70
    23
  0
DIMSTYLE
  2
BIGT
 70
     0
  3

  4

  5
OPEN
  6

  7

 40
1.0
 41
2.2299999999999991
 42
0.5
 43
7.0
 44
1.0
 45
0.0
 46
0.0
 47
0.0
 48
0.01
140
2.7999999999999989
141
0.0
142
0.0
143
25.399999999999999
144
1.0
145
0.0
146
1.0
147
1.0
 71
     0
 72
     0
 73
     0
 74
     0
 75
     0
 76
     0
 77
     3
 78
     9
170
     0
171
     2
172
     1
173
     0
174
     1
175
     0
176
   256
177
   256
178
    40
  0
DIMSTYLE
  2
AM_ISO
 70
     0
  3

  4
"
  5

  6

  7

 40
1.0
 41
2.5
 42
1.0
 43
10.0
 44
1.0
 45
0.0
 46
0.0
 47
0.1
 48
0.1
140
3.5
141
0.0
142
0.0
143
0.0393701
144
1.0
145
0.0
146
0.71
147
1.5
 71
     0
 72
     0
 73
     0
 74
     0
 75
     0
 76
     0
 77
     1
 78
     8
170
     0
171
     2
172
     1
173
     0
174
     0
175
     0
176
   256
177
   256
178
     2
  0
DIMSTYLE
  2
AM_ISO$3
 70
     0
  3

  4
"
  5

  6

  7

 40
1.0
 41
2.5
 42
1.0
 43
10.0
 44
1.0
 45
0.0
 46
0.0
 47
0.1
 48
0.1
140
3.5
141
0.0
142
0.0
143
0.0393701
144
1.0
145
0.0
146
0.71
147
1.5
 71
     0
 72
     0
 73
     0
 74
     1
 75
     0
 76
     0
 77
     1
 78
     8
170
     0
171
     2
172
     0
173
     0
174
     0
175
     0
176
   256
177
   256
178
     2
  0
DIMSTYLE
  2
AM_ISO$4
 70
     0
  3

  4
"
  5

  6

  7

 40
1.0
 41
2.5
 42
1.0
 43
10.0
 44
1.0
 45
0.0
 46
0.0
 47
0.1
 48
0.1
140
3.5
141
0.0
142
0.0
143
0.0393701
144
1.0
145
0.0
146
0.71
147
1.5
 71
     0
 72
     0
 73
     0
 74
     1
 75
     0
 76
     0
 77
     1
 78
     8
170
     0
171
     2
172
     0
173
     0
174
     0
175
     0
176
   256
177
   256
178
     2
  0
DIMSTYLE
  2
AM_ISO$6
 70
     0
  3

  4
"
  5

  6

  7

 40
1.0
 41
2.5
 42
1.0
 43
10.0
 44
1.0
 45
0.0
 46
0.0
 47
0.1
 48
0.1
140
3.5
141
0.0
142
0.0
143
0.0393701
144
1.0
145
0.0
146
0.71
147
1.5
 71
     0
 72
     0
 73
     0
 74
     0
 75
     0
 76
     0
 77
     0
 78
     8
170
     0
171
     2
172
     1
173
     0
174
     0
175
     0
176
   256
177
   256
178
     2
  0
DIMSTYLE
  2
AM_ISO$7
 70
     0
  3

  4
"
  5

  6

  7

 40
1.0
 41
2.5
 42
1.0
 43
10.0
 44
1.0
 45
0.0
 46
0.0
 47
0.1
 48
0.1
140
5.0
141
0.0
142
0.0
143
0.0393701
144
1.0
145
0.0
146
0.71
147
1.5
 71
     0
 72
     0
 73
     0
 74
     0
 75
     0
 76
     0
 77
     1
 78
     8
170
     0
171
     2
172
     1
173
     0
174
     0
175
     0
176
   256
177
   256
178
     2
  0
DIMSTYLE
  2
AM_ISO$SF
 70
     0
  3

  4
"
  5

  6

  7

 40
1.0
 41
2.5
 42
1.0
 43
10.0
 44
1.0
 45
0.0
 46
0.0
 47
0.1
 48
0.1
140
3.5
141
0.0
142
0.0
143
0.0393701
144
1.0
145
0.0
146
0.71
147
1.5
 71
     0
 72
     0
 73
     0
 74
     0
 75
     1
 76
     1
 77
     1
 78
     8
170
     0
171
     2
172
     1
173
     0
174
     0
175
     0
176
   256
177
   256
178
     2
  0
DIMSTYLE
  2
AM_ISO$SH
 70
     0
  3

  4
"
  5

  6
GENAXEH
  7

 40
1.0
 41
2.5
 42
1.0
 43
10.0
 44
1.0
 45
0.0
 46
0.0
 47
0.1
 48
0.1
140
3.5
141
0.0
142
0.0
143
0.0393701
144
2.0
145
0.0
146
0.71
147
1.5
 71
     0
 72
     0
 73
     0
 74
     0
 75
     1
 76
     1
 77
     1
 78
     8
170
     0
171
     2
172
     1
173
     1
174
     0
175
     0
176
   256
177
   256
178
     2
  0
DIMSTYLE
  2
BIGT$2
 70
     0
  3

  4

  5
OPEN
  6

  7

 40
1.0
 41
2.2299999999999991
 42
0.5
 43
7.0
 44
1.0
 45
0.0
 46
0.0
 47
0.0
 48
0.01
140
2.7999999999999989
141
0.0
142
0.0
143
25.399999999999999
144
1.0
145
0.0
146
1.0
147
1.0
 71
     0
 72
     0
 73
     0
 74
     0
 75
     0
 76
     0
 77
     3
 78
     9
170
     0
171
     2
172
     1
173
     0
174
     0
175
     0
176
   256
177
   256
178
    40
  0
DIMSTYLE
  2
BIGT$3
 70
     0
  3

  4

  5
OPEN
  6

  7

 40
1.0
 41
2.2299999999999991
 42
0.5
 43
2.5
 44
1.0
 45
0.0
 46
0.0
 47
0.0
 48
0.01
140
2.7999999999999989
141
0.0
142
0.0
143
25.399999999999999
144
1.0
145
0.0
146
1.0
147
1.0
 71
     0
 72
     0
 73
     0
 74
     0
 75
     0
 76
     0
 77
     3
 78
     9
170
     0
171
     2
172
     1
173
     0
174
     0
175
     0
176
   256
177
   256
178
    40
  0
DIMSTYLE
  2
BIGT$7
 70
     0
  3

  4

  5
OPEN
  6

  7

 40
0.0
 41
2.2299999999999991
 42
0.5
 43
7.0
 44
1.0
 45
0.0
 46
0.0
 47
0.0
 48
0.01
140
2.7999999999999989
141
0.0
142
0.0
143
25.399999999999999
144
1.0
145
0.0
146
1.0
147
1.0
 71
     0
 72
     0
 73
     0
 74
     0
 75
     0
 76
     0
 77
     3
 78
     9
170
     0
171
     2
172
     0
173
     0
174
     0
175
     0
176
   256
177
   256
178
    40
  0
DIMSTYLE
  2
BIGT$6
 70
     0
  3

  4

  5
OPEN
  6

  7

 40
1.0
 41
2.2299999999999991
 42
0.5
 43
2.5
 44
1.0
 45
0.0
 46
0.0
 47
0.0
 48
0.01
140
2.7999999999999989
141
0.0
142
0.0
143
25.399999999999999
144
1.0
145
0.0
146
1.0
147
1.0
 71
     0
 72
     0
 73
     0
 74
     0
 75
     0
 76
     0
 77
     3
 78
     9
170
     0
171
     2
172
     1
173
     0
174
     0
175
     0
176
   256
177
   256
178
    40
  0
DIMSTYLE
  2
BIGT$0
 70
     0
  3

  4

  5
OPEN
  6

  7

 40
1.0
 41
2.2299999999999991
 42
0.5
 43
7.0
 44
1.0
 45
0.0
 46
0.0
 47
0.0
 48
0.01
140
2.7999999999999989
141
0.0
142
0.0
143
25.399999999999999
144
1.0
145
0.0
146
1.0
147
1.0
 71
     0
 72
     0
 73
     0
 74
     0
 75
     0
 76
     0
 77
     3
 78
     9
170
     0
171
     2
172
     1
173
     0
174
     0
175
     0
176
   256
177
   256
178
    40
  0
DIMSTYLE
  2
BIGT$4
 70
     0
  3

  4

  5
OPEN
  6

  7

 40
1.0
 41
2.2299999999999991
 42
0.5
 43
2.5
 44
1.0
 45
0.0
 46
0.0
 47
0.0
 48
0.01
140
2.7999999999999989
141
0.0
142
0.0
143
25.399999999999999
144
1.0
145
0.0
146
1.0
147
1.0
 71
     0
 72
     0
 73
     0
 74
     0
 75
     0
 76
     0
 77
     3
 78
     9
170
     0
171
     2
172
     1
173
     0
174
     0
175
     0
176
   256
177
   256
178
    40
  0
DIMSTYLE
  2
BIGT$SH
 70
     0
  3

  4

  5
OPEN
  6

  7

 40
1.0
 41
2.2299999999999991
 42
0.5
 43
7.0
 44
1.0
 45
0.0
 46
0.0
 47
0.0
 48
0.0
140
2.7999999999999989
141
0.0
142
0.0
143
25.399999999999999
144
1.0
145
0.0
146
1.0
147
1.0
 71
     0
 72
     0
 73
     0
 74
     0
 75
     0
 76
     0
 77
     3
 78
     9
170
     0
171
     2
172
     1
173
     0
174
     0
175
     0
176
   256
177
   256
178
    40
  0
DIMSTYLE
  2
BIGT$SF
 70
     0
  3

  4

  5
OPEN
  6

  7

 40
1.0
 41
2.2299999999999991
 42
0.5
 43
7.0
 44
1.0
 45
0.0
 46
0.0
 47
0.0
 48
0.0
140
2.7999999999999989
141
0.0
142
0.0
143
25.399999999999999
144
1.0
145
0.0
146
1.0
147
1.0
 71
     0
 72
     0
 73
     0
 74
     0
 75
     0
 76
     0
 77
     3
 78
     9
170
     0
171
     2
172
     1
173
     0
174
     0
175
     0
176
   256
177
   256
178
    40
  0
DIMSTYLE
  2
TECHNICAL_OSAKA
 70
     0
  3

  4
"
  5
OPEN30
  6

  7

 40
1.0
 41
2.5
 42
1.0
 43
10.0
 44
1.0
 45
0.0
 46
0.0
 47
0.1
 48
0.1
140
2.7999999999999989
141
0.0
142
0.0
143
0.0393701
144
1.0
145
0.0
146
0.71
147
1.5
 71
     0
 72
     0
 73
     0
 74
     0
 75
     0
 76
     0
 77
     3
 78
     8
170
     0
171
     2
172
     1
173
     0
174
     0
175
     0
176
   256
177
   256
178
    40
  0
DIMSTYLE
  2
TECHNICAL_OSAKA$3
 70
     0
  3

  4
"
  5
OPEN30
  6

  7

 40
1.0
 41
2.5
 42
1.0
 43
10.0
 44
1.0
 45
0.0
 46
0.0
 47
0.1
 48
0.1
140
2.7999999999999989
141
0.0
142
0.0
143
0.0393701
144
1.0
145
0.0
146
0.71
147
1.5
 71
     0
 72
     0
 73
     0
 74
     1
 75
     0
 76
     0
 77
     3
 78
     8
170
     0
171
     2
172
     0
173
     0
174
     0
175
     0
176
   256
177
   256
178
    40
  0
DIMSTYLE
  2
TECHNICAL_OSAKA$4
 70
     0
  3

  4
"
  5
OPEN30
  6

  7

 40
1.0
 41
2.5
 42
1.0
 43
10.0
 44
1.0
 45
0.0
 46
0.0
 47
0.1
 48
0.1
140
2.7999999999999989
141
0.0
142
0.0
143
0.0393701
144
1.0
145
0.0
146
0.71
147
1.5
 71
     0
 72
     0
 73
     0
 74
     1
 75
     0
 76
     0
 77
     3
 78
     8
170
     0
171
     2
172
     0
173
     0
174
     0
175
     0
176
   256
177
   256
178
    40
  0
DIMSTYLE
  2
TECHNICAL_OSAKA$6
 70
     0
  3

  4
"
  5
OPEN30
  6

  7

 40
1.0
 41
2.5
 42
1.0
 43
10.0
 44
1.0
 45
0.0
 46
0.0
 47
0.1
 48
0.1
140
2.7999999999999989
141
0.0
142
0.0
143
0.0393701
144
1.0
145
0.0
146
0.71
147
1.5
 71
     0
 72
     0
 73
     0
 74
     0
 75
     0
 76
     0
 77
     0
 78
     8
170
     0
171
     2
172
     1
173
     0
174
     0
175
     0
176
   256
177
   256
178
    40
  0
DIMSTYLE
  2
TECHNICAL_OSAKA$7
 70
     0
  3

  4
"
  5
OPEN30
  6

  7

 40
1.0
 41
2.5
 42
1.0
 43
10.0
 44
1.0
 45
0.0
 46
0.0
 47
0.1
 48
0.1
140
2.7999999999999989
141
0.0
142
0.0
143
0.0393701
144
1.0
145
0.0
146
0.71
147
1.5
 71
     0
 72
     0
 73
     0
 74
     0
 75
     0
 76
     0
 77
     3
 78
     8
170
     0
171
     2
172
     1
173
     0
174
     0
175
     0
176
   256
177
   256
178
    40
  0
DIMSTYLE
  2
TECHNICAL_OSAKA$SF
 70
     0
  3

  4
"
  5
OPEN30
  6
OPEN30
  7
OPEN30
 40
1.0
 41
2.5
 42
1.0
 43
10.0
 44
1.0
 45
0.0
 46
0.0
 47
0.1
 48
0.1
140
3.5
141
0.0
142
0.0
143
0.0393701
144
1.0
145
0.0
146
0.71
147
1.5
 71
     0
 72
     0
 73
     0
 74
     0
 75
     1
 76
     1
 77
     3
 78
     8
170
     0
171
     2
172
     1
173
     0
174
     0
175
     0
176
   256
177
   256
178
    40
  0
DIMSTYLE
  2
TECHNICAL_OSAKA$SH
 70
     0
  3

  4
"
  5
OPEN30
  6
GENAXEH
  7
OPEN30
 40
1.0
 41
2.5
 42
1.0
 43
10.0
 44
1.0
 45
0.0
 46
0.0
 47
0.1
 48
0.1
140
3.5
141
0.0
142
0.0
143
0.0393701
144
2.0
145
0.0
146
0.71
147
1.5
 71
     0
 72
     0
 73
     0
 74
     0
 75
     1
 76
     1
 77
     3
 78
     8
170
     0
171
     2
172
     1
173
     1
174
     0
175
     0
176
   256
177
   256
178
    40
  0
ENDTAB
  0
ENDSEC
  0
SECTION
  2
BLOCKS
  0
BLOCK
  8
0
  2
$MODEL_SPACE
 70
     0
 10
0.0
 20
0.0
 30
0.0
  3
$MODEL_SPACE
  1

  0
ENDBLK
  5
1C
  8
0
  0
BLOCK
 67
     1
  8
0
  2
$PAPER_SPACE
 70
     0
 10
0.0
 20
0.0
 30
0.0
  3
$PAPER_SPACE
  1

  0
ENDBLK
  5
19
 67
     1
  8
0
  0
BLOCK
  8
0
  2
_OPEN
 70
     0
 10
0.0
 20
0.0
 30
0.0
  3
_OPEN
  1

  0
LINE
  5
1B25
  8
0
  6
BYBLOCK
 62
     0
 10
-1.0
 20
0.1666666666666666
 30
0.0
 11
0.0
 21
0.0
 31
0.0
  0
LINE
  5
1B26
  8
0
  6
BYBLOCK
 62
     0
 10
-1.0
 20
-0.1666666666666666
 30
0.0
 11
0.0
 21
0.0
 31
0.0
  0
LINE
  5
1B27
  8
0
  6
BYBLOCK
 62
     0
 10
0.0
 20
0.0
 30
0.0
 11
-1.0
 21
0.0
 31
0.0
  0
ENDBLK
  5
1B28
  8
0
  0
BLOCK
  8
0
  2
GENAXEH
 70
     0
 10
0.0
 20
0.0
 30
0.0
  3
GENAXEH
  1

  0
LINE
  5
1B50
  8
0
 10
-1.0
 20
0.0
 30
0.0
 11
1.0
 21
0.0
 31
0.0
  0
ENDBLK
  5
1B51
  8
0
  0
BLOCK
  8
0
  2
_OPEN30
 70
     0
 10
0.0
 20
0.0
 30
0.0
  3
_OPEN30
  1

  0
LINE
  5
1B75
  8
0
  6
BYBLOCK
 62
     0
 10
-1.0
 20
0.26794919
 30
0.0
 11
0.0
 21
0.0
 31
0.0
  0
LINE
  5
1B76
  8
0
  6
BYBLOCK
 62
     0
 10
0.0
 20
0.0
 30
0.0
 11
-1.0
 21
-0.26794919
 31
0.0
  0
LINE
  5
1B77
  8
0
  6
BYBLOCK
 62
     0
 10
0.0
 20
0.0
 30
0.0
 11
-1.0
 21
0.0
 31
0.0
  0
ENDBLK
  5
1B78
  8
0
  0
BLOCK
  8
0
  2
A$C5FBA6F41
 70
     0
 10
0.0
 20
0.0
 30
0.0
  3
A$C5FBA6F41
  1

  0
ARC
  5
18E2
  8
240
 10
-115.16396103067891
 20
-6.0
 30
0.0
 40
2.0
 50
180.0
 51
270.0
  0
ARC
  5
18E3
  8
240
 10
-115.16396103067891
 20
5.9999999999999432
 30
0.0
 40
2.0
 50
90.0
 51
180.0
  0
LINE
  5
18E4
  8
240
 10
-5.739696961967101
 20
11.174776284114159
 30
0.0
 11
-6.9882250993909096
 21
11.174776284114159
 31
0.0
  0
LINE
  5
18E5
  8
240
 10
-0.5639610306789124
 20
-5.5499999999999838
 30
0.0
 11
-0.5639610306789109
 21
3.5397474415697929
 31
0.0
  0
LINE
  5
18E6
  8
240
 10
0.0
 20
4.1865511847233314
 30
0.0
 11
0.0
 21
5.4350793221471152
 31
0.0
  0
LINE
  5
18E7
  8
241
 10
-6.9882250993908821
 20
-1.5531457772437129
 30
0.0
 11
-5.7396969619669589
 21
-1.5531457772437129
 31
0.0
  0
LINE
  5
18E8
  8
241
 10
-5.5982756057296479
 20
-1.4945671334810211
 30
0.0
 11
-0.5639610306789114
 21
3.5397474415697929
 31
0.0
  0
LINE
  5
18E9
  8
240
 10
-0.0585786437626912
 20
5.5765006783844253
 30
0.0
 11
-5.5982756057297918
 21
11.116197640351469
 31
0.0
  0
LINE
  5
18EA
  8
240
 10
-12.7279220613579
 20
5.4350793221471427
 30
0.0
 11
-12.7279220613579
 21
5.2371366222392899
 31
0.0
  0
LINE
  5
18EB
  8
240
 10
-13.635076041368841
 20
5.237136622239289
 30
0.0
 11
-13.89793941912955
 21
5.5
 31
0.0
  0
LINE
  5
18EC
  8
240
 10
-12.7279220613579
 20
5.2371366222392899
 30
0.0
 11
-13.635076041368841
 21
5.237136622239289
 31
0.0
  0
LINE
  5
18ED
  8
241
 10
-12.66934341759521
 20
4.0451298284859609
 30
0.0
 11
-7.1296464556281922
 21
-1.4945671334810231
 31
0.0
  0
LINE
  5
18EE
  8
240
 10
-7.1296464556282197
 20
11.116197640351469
 30
0.0
 11
-12.66934341759521
 21
5.576500678384452
 31
0.0
  0
ARC
  5
18EF
  8
241
 10
-12.653910524340059
 20
-6.1999999999999877
 30
0.0
 40
0.7000000000000171
 50
68.179783726730335
 51
90.0
  0
LINE
  5
18F0
  8
240
 10
-12.39410290320472
 20
-5.5499999999999821
 30
0.0
 11
-0.5639610306789124
 21
-5.5499999999999838
 31
0.0
  0
LINE
  5
18F1
  8
241
 10
-12.653910524340059
 20
-5.5
 30
0.0
 11
-12.653910524340059
 21
4.0296969352308176
 31
0.0
  0
LINE
  5
18F2
  8
241
 10
-12.39410290320472
 20
3.7698893140954808
 30
0.0
 11
-12.39410290320472
 21
-5.5499999999999821
 31
0.0
  0
ARC
  5
18F3
  8
240
 10
-40.288316683661087
 20
12.5
 30
0.0
 40
7.0
 50
240.0000000000002
 51
270.0
  0
LINE
  5
18F4
  8
241
 10
-46.494088049601089
 20
0.0
 30
0.0
 11
-46.494088049601089
 21
7.9999999999999707
 31
0.0
  0
LINE
  5
18F5
  8
240
 10
-43.788316683661087
 20
6.4378221735089483
 30
0.0
 11
-46.494088049601089
 21
7.9999999999999707
 31
0.0
  0
LINE
  5
18F6
  8
240
 10
-46.494088049601089
 20
-8.0
 30
0.0
 11
-43.788316683661087
 21
-6.4378221735089483
 31
0.0
  0
ARC
  5
18F7
  8
240
 10
-40.288316683661087
 20
-12.5
 30
0.0
 40
7.0
 50
90.0
 51
119.9999999999997
  0
LINE
  5
18F8
  8
241
 10
-42.163961030678927
 20
5.7559686919839796
 30
0.0
 11
-42.163961030678927
 21
-5.7559686919839796
 31
0.0
  0
LINE
  5
18F9
  8
241
 10
-46.494088049601089
 20
-8.0
 30
0.0
 11
-46.494088049601089
 21
0.0
 31
0.0
  0
LINE
  5
18FA
  8
240
 10
-13.89793941912955
 20
5.5
 30
0.0
 11
-40.288316683661087
 21
5.5
 31
0.0
  0
LINE
  5
18FB
  8
240
 10
-40.288316683661087
 20
-5.5
 30
0.0
 11
-12.653910524340059
 21
-5.5
 31
0.0
  0
LINE
  5
18FC
  8
240
 10
-117.16396103067891
 20
0.0
 30
0.0
 11
-117.16396103067891
 21
5.9999999999999432
 31
0.0
  0
LINE
  5
18FD
  8
240
 10
-117.16396103067891
 20
-6.0
 30
0.0
 11
-117.16396103067891
 21
0.0
 31
0.0
  0
LINE
  5
18FE
  8
240
 10
-46.494088049601089
 20
7.9999999999999707
 30
0.0
 11
-115.16396103067891
 21
7.9999999999999432
 31
0.0
  0
LINE
  5
18FF
  8
240
 10
-115.16396103067891
 20
-8.0
 30
0.0
 11
-46.494088049601089
 21
-8.0
 31
0.0
  0
LINE
  5
1900
  8
245
 10
-120.03583553414769
 20
0.0
 30
0.0
 11
4.4159550933823084
 21
0.0
 31
0.0
  0
CIRCLE
  5
1901
  8
246
 10
-6.3639610306789782
 20
4.8108152534352229
 30
0.0
 40
5.0
  0
ARC
  5
1902
  8
241
 10
-6.9882250993908821
 20
-1.353145777243713
 30
0.0
 40
0.2
 50
225.00000000000011
 51
270.0
1001
GENIUS_GENOBJ-N-FIL_13
1002
{
1000
OWNER
1000
GEN
1002
}
1001
GENIUS_GENODEF_13
1002
{
1000
HIER
1070
     0
1002
}
1002
{
1000
MANEDIT
1070
     0
1002
}
1002
{
1000
NOSEL
1070
     0
1002
}
1002
{
1000
BEHIND
1070
     0
1002
}
1002
{
1000
OTHER
1070
     0
1002
}
1002
{
1000
REACTOR
1002
}
  0
ARC
  5
1903
  8
241
 10
-5.7396969619669589
 20
-1.353145777243713
 30
0.0
 40
0.2
 50
270.0
 51
315.00000000000051
1001
GENIUS_GENODEF_13
1002
{
1000
HIER
1070
     0
1002
}
1002
{
1000
MANEDIT
1070
     0
1002
}
1002
{
1000
NOSEL
1070
     0
1002
}
1002
{
1000
BEHIND
1070
     0
1002
}
1002
{
1000
OTHER
1070
     0
1002
}
1002
{
1000
REACTOR
1002
}
1001
GENIUS_GENOBJ-N-FIL_13
1002
{
1000
OWNER
1000
GEN
1002
}
  0
ARC
  5
1904
  8
240
 10
-12.5279220613579
 20
5.4350793221471427
 30
0.0
 40
0.2
 50
135.00000000000011
 51
180.0
1001
GENIUS_GENOBJ-N-FIL_13
1002
{
1000
OWNER
1000
GEN
1002
}
1001
GENIUS_GENODEF_13
1002
{
1000
HIER
1070
     0
1002
}
1002
{
1000
MANEDIT
1070
     0
1002
}
1002
{
1000
NOSEL
1070
     0
1002
}
1002
{
1000
BEHIND
1070
     0
1002
}
1002
{
1000
OTHER
1070
     0
1002
}
1002
{
1000
REACTOR
1002
}
  0
ARC
  5
1905
  8
241
 10
-12.5279220613579
 20
4.186551184723271
 30
0.0
 40
0.2
 50
180.0
 51
225.00000000000011
1001
GENIUS_GENODEF_13
1002
{
1000
HIER
1070
     0
1002
}
1002
{
1000
MANEDIT
1070
     0
1002
}
1002
{
1000
NOSEL
1070
     0
1002
}
1002
{
1000
BEHIND
1070
     0
1002
}
1002
{
1000
OTHER
1070
     0
1002
}
1002
{
1000
REACTOR
1002
}
1001
GENIUS_GENOBJ-N-FIL_13
1002
{
1000
OWNER
1000
GEN
1002
}
  0
ARC
  5
1906
  8
240
 10
-6.9882250993909096
 20
10.97477628411416
 30
0.0
 40
0.2
 50
90.0
 51
135.00000000000011
1001
GENIUS_GENODEF_13
1002
{
1000
HIER
1070
     0
1002
}
1002
{
1000
MANEDIT
1070
     0
1002
}
1002
{
1000
NOSEL
1070
     0
1002
}
1002
{
1000
BEHIND
1070
     0
1002
}
1002
{
1000
OTHER
1070
     0
1002
}
1002
{
1000
REACTOR
1002
}
1001
GENIUS_GENOBJ-N-FIL_13
1002
{
1000
OWNER
1000
GEN
1002
}
  0
ARC
  5
1907
  8
240
 10
-5.739696961967101
 20
10.97477628411416
 30
0.0
 40
0.2
 50
45.000000000000242
 51
90.0
1001
GENIUS_GENOBJ-N-FIL_13
1002
{
1000
OWNER
1000
GEN
1002
}
1001
GENIUS_GENODEF_13
1002
{
1000
HIER
1070
     0
1002
}
1002
{
1000
MANEDIT
1070
     0
1002
}
1002
{
1000
NOSEL
1070
     0
1002
}
1002
{
1000
BEHIND
1070
     0
1002
}
1002
{
1000
OTHER
1070
     0
1002
}
1002
{
1000
REACTOR
1002
}
  0
ARC
  5
1908
  8
240
 10
-0.2
 20
5.4350793221471152
 30
0.0
 40
0.2
 50
0.0
 51
45.00000000000027
1001
GENIUS_GENOBJ-N-FIL_13
1002
{
1000
OWNER
1000
GEN
1002
}
1001
GENIUS_GENODEF_13
1002
{
1000
HIER
1070
     0
1002
}
1002
{
1000
MANEDIT
1070
     0
1002
}
1002
{
1000
NOSEL
1070
     0
1002
}
1002
{
1000
BEHIND
1070
     0
1002
}
1002
{
1000
OTHER
1070
     0
1002
}
1002
{
1000
REACTOR
1002
}
  0
ARC
  5
1909
  8
240
 10
-0.2
 20
4.1865511847233314
 30
0.0
 40
0.2
 50
315.00000000000051
 51
0.0
1001
GENIUS_GENODEF_13
1002
{
1000
HIER
1070
     0
1002
}
1002
{
1000
MANEDIT
1070
     0
1002
}
1002
{
1000
NOSEL
1070
     0
1002
}
1002
{
1000
BEHIND
1070
     0
1002
}
1002
{
1000
OTHER
1070
     0
1002
}
1002
{
1000
REACTOR
1002
}
1001
GENIUS_GENOBJ-N-FIL_13
1002
{
1000
OWNER
1000
GEN
1002
}
  0
LINE
  5
190A
  8
240
 10
-0.5639610306789114
 20
3.5397474415697929
 30
0.0
 11
-0.0585786437626894
 21
4.0451298284860231
 31
0.0
  0
LINE
  5
190B
  8
241
 10
-12.7279220613579
 20
5.2371366222392899
 30
0.0
 11
-12.7279220613579
 21
4.186551184723271
 31
0.0
  0
TEXT
  5
190C
  8
247
 10
-101.6496860586945
 20
-5.6978257236835086
 30
0.0
 40
2.0
  1
ST20-C1222-45B-40
 41
0.7
  7
YOKO
 11
-101.6496860586945
 21
-5.6978257236835086
 31
0.0
 73
     1
  0
LINE
  5
190D
  8
247
 10
-106.31743458572031
 20
-3.5501825383160521
 30
0.0
 11
-105.71197364822029
 21
-3.5501825383160521
 31
0.0
  0
LINE
  5
190E
  8
247
 10
-106.3127675935328
 20
-5.6454074223492263
 30
0.0
 11
-105.71197364822029
 21
-3.5501825383160521
 31
0.0
  0
LINE
  5
190F
  8
247
 10
-108.6266992341578
 20
-5.9946144476077468
 30
0.0
 11
-103.90079396072031
 21
-5.9946144476077468
 31
0.0
  0
LINE
  5
1910
  8
247
 10
-108.6266992341578
 20
-5.7618097660992511
 30
0.0
 11
-103.90079396072031
 21
-5.7618097660992511
 31
0.0
  0
ARC
  5
1911
  8
247
 10
-105.1028564607203
 20
-4.8888007023785471
 30
0.0
 40
0.756615234375
 50
163.99975070172931
 51
304.9638732916307
  0
ARC
  5
1912
  8
247
 10
-108.6266992341578
 20
-4.7723983586285481
 30
0.0
 40
0.9894111328124999
 50
90.0
 51
270.0
  0
ARC
  5
1913
  8
247
 10
-108.6266992341578
 20
-4.7723983586285481
 30
0.0
 40
1.2222158203124971
 50
90.0
 51
270.0
  0
LINE
  5
1914
  8
247
 10
-106.83346681228279
 20
-5.6454074223492263
 30
0.0
 11
-106.3127675935328
 21
-5.6454074223492263
 31
0.0
  0
LINE
  5
1915
  8
247
 10
-107.3173399076136
 20
-5.6017715381798912
 30
0.0
 11
-107.00007898429401
 21
-5.2845106148603262
 31
0.0
  0
LINE
  5
1916
  8
247
 10
-108.39550129692999
 20
-5.6454074223492263
 30
0.0
 11
-107.7334604085971
 21
-4.9833665340162581
 31
0.0
  0
LINE
  5
1917
  8
247
 10
-108.13686992064331
 20
-5.6454074223492263
 30
0.0
 11
-107.8374312085498
 21
-5.3459687102558213
 31
0.0
  0
LINE
  5
1918
  8
247
 10
-107.61960716806971
 20
-5.6454074223492521
 30
0.0
 11
-106.961447513138
 21
-4.9872477674175313
 31
0.0
  0
LINE
  5
1919
  8
247
 10
-107.658022071405
 20
-4.7202724224950181
 30
0.0
 11
-107.8488060341941
 21
-5.3856388535542159
 31
0.0
  0
ARC
  5
191A
  8
247
 10
-107.7981718904078
 20
-5.0401219914410262
 30
0.0
 40
0.3492072715759277
 50
261.66285421114719
 51
66.338192159113618
  0
LINE
  5
191B
  8
247
 10
-107.87823854435651
 20
-5.6454074223492263
 30
0.0
 11
-107.0240252145458
 21
-4.7911940925385759
 31
0.0
  0
LINE
  5
191C
  8
247
 10
-108.5045400544702
 20
-5.6454074223492263
 30
0.0
 11
-107.5384463044704
 21
-5.6454074223492263
 31
0.0
  0
LINE
  5
191D
  8
247
 10
-108.4444001522543
 20
-5.4356749013867898
 30
0.0
 11
-107.45937911820189
 21
-4.4506538673343536
 31
0.0
  0
LINE
  5
191E
  8
247
 10
-108.3404239948064
 20
-5.0730673676521043
 30
0.0
 11
-107.5255074859349
 21
-4.2581508587804828
 31
0.0
  0
ARC
  5
191F
  8
247
 10
-107.5384463044704
 20
-5.0634042180035692
 30
0.0
 40
0.5820029296875
 50
270.0
 51
40.329840654167157
  0
LINE
  5
1920
  8
247
 10
-107.4570185049197
 20
-4.9655560066256621
 30
0.0
 11
-106.6936421138044
 21
-4.202179615510321
 31
0.0
  0
LINE
  5
1921
  8
247
 10
-106.3908672029078
 20
-3.8062606633160421
 30
0.0
 11
-106.31743458572031
 21
-3.5501825383160521
 31
0.0
  0
LINE
  5
1922
  8
247
 10
-106.3908672029078
 20
-3.8062606633160421
 30
0.0
 11
-106.30609669509531
 21
-3.8062606633160421
 31
0.0
  0
LINE
  5
1923
  8
247
 10
-107.3416164606756
 20
-3.8156284572344261
 30
0.0
 11
-107.10151855631651
 21
-3.575530552875251
 31
0.0
  0
LINE
  5
1924
  8
247
 10
-108.0848693581176
 20
-3.782987225816103
 30
0.0
 11
-107.85206467061759
 21
-3.5501825383161099
 31
0.0
  0
LINE
  5
1925
  8
247
 10
-108.1459287263453
 20
-3.5501825383160521
 30
0.0
 11
-108.2126816560328
 21
-3.7829872258160471
 31
0.0
  0
LINE
  5
1926
  8
247
 10
-108.0248418122828
 20
-3.5501825383160521
 30
0.0
 11
-108.0915947419706
 21
-3.7829872258160471
 31
0.0
  0
LINE
  5
1927
  8
247
 10
-108.0248418122828
 20
-3.5501825383160521
 30
0.0
 11
-107.2738246906049
 21
-3.5501825383161378
 31
0.0
  0
LINE
  5
1928
  8
247
 10
-108.6266992341578
 20
-3.5501825383160521
 30
0.0
 11
-108.1459287263453
 21
-3.5501825383160521
 31
0.0
  0
LINE
  5
1929
  8
247
 10
-107.21924849691371
 20
-3.951891869759379
 30
0.0
 11
-106.92895825675269
 21
-3.6616016295982412
 31
0.0
  0
LINE
  5
192A
  8
247
 10
-108.0915947419706
 20
-3.7829872258160471
 30
0.0
 11
-107.9704990388456
 21
-3.782987225816786
 31
0.0
  0
LINE
  5
192B
  8
247
 10
-108.6266992341578
 20
-3.7829872258160471
 30
0.0
 11
-108.2126816560328
 21
-3.7829872258160471
 31
0.0
  0
LINE
  5
192C
  8
247
 10
-108.02849552246271
 20
-3.9852447664479209
 30
0.0
 11
-107.59343329433089
 21
-3.5501825383161099
 31
0.0
  0
LINE
  5
192D
  8
247
 10
-107.1894095457646
 20
-4.1806842948969383
 30
0.0
 11
-106.7998333761139
 21
-3.7911081252462111
 31
0.0
  0
ARC
  5
192E
  8
247
 10
-107.2714257966577
 20
-4.1321854680035388
 30
0.0
 40
0.5820078735351563
 50
287.66957754739968
 51
90.236159842671583
  0
LINE
  5
192F
  8
247
 10
-108.13247167991059
 20
-4.3478523001826668
 30
0.0
 11
-107.33480191804411
 21
-3.5501825383161378
 31
0.0
  0
LINE
  5
1930
  8
247
 10
-107.54729909358031
 20
-4.7972052189994949
 30
0.0
 11
-106.71421247014371
 21
-3.9641185955628688
 31
0.0
  0
LINE
  5
1931
  8
247
 10
-106.83346681228279
 20
-5.6454074223492263
 30
0.0
 11
-106.30609669509531
 21
-3.8062606633160421
 31
0.0
  0
LINE
  5
1932
  8
247
 10
-107.39100434215911
 20
-3.7890721517617609
 30
0.0
 11
-107.58178516636249
 21
-4.4544188479733018
 31
0.0
  0
ARC
  5
1933
  8
247
 10
-107.5311513825953
 20
-4.108912030503574
 30
0.0
 40
0.349197280883789
 50
261.6626016879294
 51
66.338155095189762
  0
LINE
  5
1934
  8
247
 10
-108.2364478373586
 20
-4.7104598339173558
 30
0.0
 11
-107.42153476045409
 21
-3.8955467570128821
 31
0.0
  0
LINE
  5
1935
  8
247
 10
-108.5045400544702
 20
-5.6454074223492263
 30
0.0
 11
-107.9704990388456
 21
-3.782987225816786
 31
0.0
  0
ARC
  5
1936
  8
247
 10
-103.90079396072031
 20
-4.7723983586285534
 30
0.0
 40
1.2222158203124971
 50
270.0
 51
104.7707939660925
  0
ARC
  5
1937
  8
247
 10
-103.90079396072031
 20
-4.7723983586285534
 30
0.0
 40
0.9894111328124999
 50
270.0
 51
104.1274364964102
  0
LINE
  5
1938
  8
247
 10
-104.8928769685328
 20
-5.2122557805035417
 30
0.0
 11
-104.7433838044703
 21
-4.690914960191038
 31
0.0
  0
LINE
  5
1939
  8
247
 10
-104.93712989822031
 20
-4.690914960191038
 30
0.0
 11
-104.7433838044703
 21
-4.690914960191038
 31
0.0
  0
LINE
  5
193A
  8
247
 10
-104.66927442947031
 20
-5.5088517582867702
 30
0.0
 11
-104.5327099763453
 21
-5.6454074223492263
 31
0.0
  0
LINE
  5
193B
  8
247
 10
-104.93712989822031
 20
-4.690914960191038
 30
0.0
 11
-104.8703769685328
 21
-4.4581102726910471
 31
0.0
  0
LINE
  5
193C
  8
247
 10
-104.8703769685328
 20
-4.4581102726910471
 30
0.0
 11
-104.19225685134531
 21
-4.4581102726910471
 31
0.0
  0
LINE
  5
193D
  8
247
 10
-104.5327099763453
 20
-5.6454074223492263
 30
0.0
 11
-104.19225685134531
 21
-4.4581102726910471
 31
0.0
  0
LINE
  5
193E
  8
247
 10
-104.1422910310328
 20
-3.812905194566043
 30
0.0
 11
-104.2124013825953
 21
-3.5905682805035619
 31
0.0
  0
LINE
  5
193F
  8
247
 10
-104.2533056794703
 20
-3.847912030503553
 30
0.0
 11
-104.32341603103281
 21
-3.6255751164410142
 31
0.0
  0
ARC
  5
1940
  8
247
 10
-103.90079396072031
 20
-4.7723983586285534
 30
0.0
 40
1.222216369628905
 50
110.22964506332001
 51
118.57168892371681
  0
ARC
  5
1941
  8
247
 10
-104.8141006013453
 20
-4.0507108586285501
 30
0.0
 40
0.2444448051452637
 50
1.7101213820627561
 51
163.9983983544472
  0
ARC
  5
1942
  8
247
 10
-103.90079396072031
 20
-4.7723983586285534
 30
0.0
 40
0.9894138793945311
 50
110.8721834020737
 51
132.5419489373877
  0
ARC
  5
1943
  8
247
 10
-103.8658310700953
 20
-4.928579999253544
 30
0.0
 40
1.9799648437499999
 50
155.20517736984041
 51
172.79482596205219
  0
ARC
  5
1944
  8
247
 10
-105.12785255447029
 20
-5.1448788273785651
 30
0.0
 40
0.2444446334838867
 50
164.0002730571824
 51
344.0002730571826
  0
LINE
  5
1945
  8
247
 10
-105.3628281404078
 20
-5.07750187425356
 30
0.0
 11
-105.04907618728279
 21
-3.983325116441053
 31
0.0
  0
ARC
  5
1946
  8
247
 10
-104.9359697419703
 20
-4.3067889836285369
 30
0.0
 40
0.7566075439453125
 50
53.444012197057539
 51
164.0001843876851
  0
LINE
  5
1947
  8
247
 10
-104.1422910310328
 20
-3.812905194566043
 30
0.0
 11
-104.2124013825953
 21
-3.5905682805035619
 31
0.0
  0
LINE
  5
1948
  8
247
 10
-104.2124013825953
 20
-3.5905682805035619
 30
0.0
 11
-104.2124013825953
 21
-3.5905682805035619
 31
0.0
  0
LINE
  5
1949
  8
247
 10
-104.2124013825953
 20
-3.5905682805035619
 30
0.0
 11
-104.1422910310328
 21
-3.812905194566043
 31
0.0
  0
LINE
  5
194A
  8
247
 10
-104.1422910310328
 20
-3.812905194566043
 30
0.0
 11
-104.1422910310328
 21
-3.812905194566043
 31
0.0
  0
LINE
  5
194B
  8
247
 10
-104.1422910310328
 20
-3.812905194566043
 30
0.0
 11
-104.2124013825953
 21
-3.5905682805035619
 31
0.0
1001
HATCH_DISTANCE
1040
1.0
1001
HATCH_DISPLAY
1070
     0
1001
HATCH_TYPE
1070
     7
  0
LINE
  5
194C
  8
247
 10
-104.2124013825953
 20
-3.5905682805035619
 30
0.0
 11
-104.2124013825953
 21
-3.5905682805035619
 31
0.0
1001
HATCH_DISTANCE
1040
1.0
1001
HATCH_DISPLAY
1070
     0
1001
HATCH_TYPE
1070
     7
  0
LINE
  5
194D
  8
247
 10
-104.2124013825953
 20
-3.5905682805035619
 30
0.0
 11
-104.1422910310328
 21
-3.812905194566043
 31
0.0
1001
HATCH_DISTANCE
1040
1.0
1001
HATCH_DISPLAY
1070
     0
1001
HATCH_TYPE
1070
     7
  0
LINE
  5
194E
  8
247
 10
-104.1422910310328
 20
-3.812905194566043
 30
0.0
 11
-104.1422910310328
 21
-3.812905194566043
 31
0.0
1001
HATCH_DISTANCE
1040
1.0
1001
HATCH_DISPLAY
1070
     0
1001
HATCH_TYPE
1070
     7
  0
LINE
  5
194F
  8
247
 10
-104.1422910310328
 20
-3.812905194566043
 30
0.0
 11
-104.2124013825953
 21
-3.5905682805035619
 31
0.0
  0
LINE
  5
1950
  8
247
 10
-104.2124013825953
 20
-3.5905682805035619
 30
0.0
 11
-104.2124013825953
 21
-3.5905682805035619
 31
0.0
  0
LINE
  5
1951
  8
247
 10
-104.2124013825953
 20
-3.5905682805035619
 30
0.0
 11
-104.1422910310328
 21
-3.812905194566043
 31
0.0
  0
LINE
  5
1952
  8
247
 10
-104.1422910310328
 20
-3.812905194566043
 30
0.0
 11
-104.1422910310328
 21
-3.812905194566043
 31
0.0
  0
LINE
  5
1953
  8
247
 10
-104.1422910310328
 20
-3.812905194566043
 30
0.0
 11
-104.2124013825953
 21
-3.5905682805035619
 31
0.0
1001
HATCH_DISTANCE
1040
1.0
1001
HATCH_DISPLAY
1070
     0
1001
HATCH_TYPE
1070
     7
  0
LINE
  5
1954
  8
247
 10
-104.2124013825953
 20
-3.5905682805035619
 30
0.0
 11
-104.2124013825953
 21
-3.5905682805035619
 31
0.0
1001
HATCH_DISTANCE
1040
1.0
1001
HATCH_DISPLAY
1070
     0
1001
HATCH_TYPE
1070
     7
  0
LINE
  5
1955
  8
247
 10
-104.2124013825953
 20
-3.5905682805035619
 30
0.0
 11
-104.1422910310328
 21
-3.812905194566043
 31
0.0
1001
HATCH_DISTANCE
1040
1.0
1001
HATCH_DISPLAY
1070
     0
1001
HATCH_TYPE
1070
     7
  0
LINE
  5
1956
  8
247
 10
-104.1422910310328
 20
-3.812905194566043
 30
0.0
 11
-104.1422910310328
 21
-3.812905194566043
 31
0.0
1001
HATCH_DISTANCE
1040
1.0
1001
HATCH_DISPLAY
1070
     0
1001
HATCH_TYPE
1070
     7
  0
LINE
  5
1957
  8
247
 10
-106.31743458572031
 20
-3.5501825383160521
 30
0.0
 11
-106.3908672029078
 21
-3.8062606633160421
 31
0.0
  0
LINE
  5
1958
  8
247
 10
-106.3908672029078
 20
-3.8062606633160421
 30
0.0
 11
-106.30609669509531
 21
-3.8062606633160421
 31
0.0
  0
LINE
  5
1959
  8
247
 10
-106.30609669509531
 20
-3.8062606633160421
 30
0.0
 11
-106.83346681228289
 21
-5.6454074223492263
 31
0.0
  0
LINE
  5
195A
  8
247
 10
-106.83346681228289
 20
-5.6454074223492263
 30
0.0
 11
-106.3127675935328
 21
-5.6454074223492263
 31
0.0
  0
LINE
  5
195B
  8
247
 10
-106.3127675935328
 20
-5.6454074223492263
 30
0.0
 11
-105.71197364822029
 21
-3.5501825383160521
 31
0.0
  0
LINE
  5
195C
  8
247
 10
-105.71197364822029
 20
-3.5501825383160521
 30
0.0
 11
-106.31743458572031
 21
-3.5501825383160521
 31
0.0
  0
LINE
  5
195D
  8
247
 10
-106.31743458572031
 20
-3.5501825383160521
 30
0.0
 11
-106.3908672029078
 21
-3.8062606633160421
 31
0.0
1001
HATCH_DISTANCE
1040
1.0
1001
HATCH_DISPLAY
1070
     0
1001
HATCH_TYPE
1070
     7
  0
LINE
  5
195E
  8
247
 10
-106.3908672029078
 20
-3.8062606633160421
 30
0.0
 11
-106.30609669509531
 21
-3.8062606633160421
 31
0.0
1001
HATCH_DISTANCE
1040
1.0
1001
HATCH_DISPLAY
1070
     0
1001
HATCH_TYPE
1070
     7
  0
LINE
  5
195F
  8
247
 10
-106.30609669509531
 20
-3.8062606633160421
 30
0.0
 11
-106.83346681228289
 21
-5.6454074223492263
 31
0.0
1001
HATCH_DISTANCE
1040
1.0
1001
HATCH_DISPLAY
1070
     0
1001
HATCH_TYPE
1070
     7
  0
LINE
  5
1960
  8
247
 10
-106.83346681228289
 20
-5.6454074223492263
 30
0.0
 11
-106.3127675935328
 21
-5.6454074223492263
 31
0.0
1001
HATCH_DISTANCE
1040
1.0
1001
HATCH_DISPLAY
1070
     0
1001
HATCH_TYPE
1070
     7
  0
LINE
  5
1961
  8
247
 10
-106.3127675935328
 20
-5.6454074223492263
 30
0.0
 11
-105.71197364822029
 21
-3.5501825383160521
 31
0.0
1001
HATCH_DISTANCE
1040
1.0
1001
HATCH_DISPLAY
1070
     0
1001
HATCH_TYPE
1070
     7
  0
LINE
  5
1962
  8
247
 10
-105.71197364822029
 20
-3.5501825383160521
 30
0.0
 11
-106.31743458572031
 21
-3.5501825383160521
 31
0.0
1001
HATCH_DISTANCE
1040
1.0
1001
HATCH_DISPLAY
1070
     0
1001
HATCH_TYPE
1070
     7
  0
LINE
  5
1963
  8
247
 10
-104.653689895664
 20
-5.5244352890982409
 30
0.0
 11
-104.4354390149888
 21
-5.3061844084230563
 31
0.0
  0
LINE
  5
1964
  8
247
 10
-105.0297630169286
 20
-5.6418770340760691
 30
0.0
 11
-104.3314625355947
 21
-4.94357655274215
 31
0.0
  0
LINE
  5
1965
  8
247
 10
-104.9199271724116
 20
-5.2734098132721972
 30
0.0
 11
-104.2274860562006
 21
-4.58096869706125
 31
0.0
  0
LINE
  5
1966
  8
247
 10
-105.27263808274979
 20
-5.626120723610418
 30
0.0
 11
-104.9993215685767
 21
-5.3528042094373207
 31
0.0
  0
LINE
  5
1967
  8
247
 10
-104.8026106110195
 20
-4.8974618755933701
 30
0.0
 11
-104.3632590081172
 21
-4.4581102726910533
 31
0.0
  0
LINE
  5
1968
  8
247
 10
-105.46063084702151
 20
-5.5554821115952731
 30
0.0
 11
-105.25735148071929
 21
-5.352202745293118
 31
0.0
  0
LINE
  5
1969
  8
247
 10
-104.854695071904
 20
-4.6909149601910451
 30
0.0
 11
-104.621890384404
 21
-4.4581102726910427
 31
0.0
  0
LINE
  5
196A
  8
247
 10
-105.61213551240439
 20
-5.4483554006914749
 30
0.0
 11
-105.36557802018049
 21
-5.201797908467455
 31
0.0
  0
LINE
  5
196B
  8
247
 10
-104.2816240794219
 20
-3.8592125914221782
 30
0.0
 11
-104.25738548057529
 21
-3.8349739925755419
 31
0.0
  0
LINE
  5
196C
  8
247
 10
-105.731801206101
 20
-5.3093897181011442
 30
0.0
 11
-105.30771616057289
 21
-4.8853046725731986
 31
0.0
  0
LINE
  5
196D
  8
247
 10
-104.6050540574219
 20
-3.9240111931352351
 30
0.0
 11
-104.31938892135911
 21
-3.638346057072531
 31
0.0
  0
LINE
  5
196E
  8
247
 10
-105.8177168874641
 20
-5.1366740231776262
 30
0.0
 11
-105.203739327748
 21
-4.5226964634615152
 31
0.0
  0
LINE
  5
196F
  8
247
 10
-104.7535566863743
 20
-3.8138824458008771
 30
0.0
 11
-104.57923412289151
 21
-3.6395598823181872
 31
0.0
  0
LINE
  5
1970
  8
247
 10
-105.8588612778605
 20
-4.9191870372871822
 30
0.0
 11
-105.0997624949232
 21
-4.1600882543498372
 31
0.0
  0
LINE
  5
1971
  8
247
 10
-105.82221455106411
 20
-4.6239089342040041
 30
0.0
 11
-104.76748503060109
 21
-3.5691794137409389
 31
0.0
  0
LINE
  5
1972
  8
247
 10
-105.73635079065281
 20
-4.2794137975059439
 30
0.0
 11
-105.010831057853
 21
-3.5538940647060731
 31
0.0
  0
LINE
  5
1973
  8
247
 10
-106.3264502866358
 20
-5.6454074223492237
 30
0.0
 11
-106.3072668514385
 21
-5.6262239871518878
 31
0.0
  0
LINE
  5
1974
  8
247
 10
-106.5850816629226
 20
-5.6454074223492237
 30
0.0
 11
-106.2032913776211
 21
-5.2636171370476532
 31
0.0
  0
LINE
  5
1975
  8
247
 10
-106.8293475485892
 20
-5.631041931729059
 30
0.0
 11
-106.0993159038035
 21
-4.9010102869434036
 31
0.0
  0
LINE
  5
1976
  8
247
 10
-106.72537065582419
 20
-5.2684336626773369
 30
0.0
 11
-105.9953404299861
 21
-4.5384034368391619
 31
0.0
  0
LINE
  5
1977
  8
247
 10
-106.6213937630593
 20
-4.9058253936256193
 30
0.0
 11
-105.8913649561686
 21
-4.1757965867349203
 31
0.0
  0
LINE
  5
1978
  8
247
 10
-106.5174168702944
 20
-4.543217124573883
 30
0.0
 11
-105.7873894823512
 21
-3.8131897366306671
 31
0.0
  0
LINE
  5
1979
  8
247
 10
-106.41343997752951
 20
-4.1806088555221583
 30
0.0
 11
-105.78301366032341
 21
-3.550182538316049
 31
0.0
  0
LINE
  5
197A
  8
247
 10
-106.3094630847645
 20
-3.8180005864704252
 30
0.0
 11
-106.04164503661011
 21
-3.550182538316057
 31
0.0
  0
LINE
  5
197B
  8
247
 10
-106.32433302823701
 20
-3.5742391536561722
 30
0.0
 11
-106.30027641289691
 21
-3.550182538316049
 31
0.0
  0
LINE
  5
197C
  8
247
 10
-103.50685307984151
 20
-5.9293867309964643
 30
0.0
 11
-102.7438055883524
 21
-5.166339239507403
 31
0.0
  0
LINE
  5
197D
  8
247
 10
-102.9863937516603
 20
-5.1502960265284301
 30
0.0
 11
-102.6807135759751
 21
-4.8446158508431694
 31
0.0
  0
LINE
  5
197E
  8
247
 10
-103.8285764685058
 20
-5.9924787433739128
 30
0.0
 11
-103.5228962928205
 21
-5.6867985676886477
 31
0.0
  0
LINE
  5
197F
  8
247
 10
-102.91242005867581
 20
-4.8176909572571702
 30
0.0
 11
-102.69129257407489
 21
-4.5965634726562721
 31
0.0
  0
LINE
  5
1980
  8
247
 10
-104.08934354902649
 20
-5.9946144476077521
 30
0.0
 11
-103.8555013620917
 21
-5.7607722606731011
 31
0.0
  0
LINE
  5
1981
  8
247
 10
-102.9307840519178
 20
-4.577423574212359
 30
0.0
 11
-102.7407895735891
 21
-4.3874290958836539
 31
0.0
  0
LINE
  5
1982
  8
247
 10
-104.3479749253133
 20
-5.994614447607745
 30
0.0
 11
-104.1151702438046
 21
-5.7618097660992538
 31
0.0
  0
LINE
  5
1983
  8
247
 10
-102.9923621372651
 20
-4.380370283272887
 30
0.0
 11
-102.8178269395236
 21
-4.205835085531449
 31
0.0
  0
LINE
  5
1984
  8
247
 10
-104.6066063016001
 20
-5.994614447607745
 30
0.0
 11
-104.3738016200915
 21
-5.7618097660992538
 31
0.0
  0
LINE
  5
1985
  8
247
 10
-103.084262847581
 20
-4.2136396173020421
 30
0.0
 11
-102.91733530463161
 21
-4.0467120743525911
 31
0.0
  0
LINE
  5
1986
  8
247
 10
-104.8652376778868
 20
-5.9946144476077521
 30
0.0
 11
-104.6324329963783
 21
-5.7618097660992538
 31
0.0
  0
LINE
  5
1987
  8
247
 10
-103.2016042734017
 20
-4.0723496668359189
 30
0.0
 11
-103.0369864750663
 21
-3.9077318685005622
 31
0.0
  0
LINE
  5
1988
  8
247
 10
-105.1238690541735
 20
-5.9946144476077521
 30
0.0
 11
-104.891064372665
 21
-5.76180976609926
 31
0.0
  0
LINE
  5
1989
  8
247
 10
-103.3430557837093
 20
-3.955169800856758
 30
0.0
 11
-103.17609667715401
 21
-3.788210694301406
 31
0.0
  0
LINE
  5
198A
  8
247
 10
-105.3825004304604
 20
-5.9946144476077521
 30
0.0
 11
-105.1496957489518
 21
-5.761809766099244
 31
0.0
  0
LINE
  5
198B
  8
247
 10
-103.5099666518725
 20
-3.8634492927331641
 30
0.0
 11
-103.3353591043069
 21
-3.6888417451675992
 31
0.0
  0
LINE
  5
198C
  8
247
 10
-105.6411318067471
 20
-5.994614447607745
 30
0.0
 11
-105.4083271252386
 21
-5.7618097660992538
 31
0.0
  0
LINE
  5
198D
  8
247
 10
-103.7072505695493
 20
-3.8021018341231212
 30
0.0
 11
-103.5171152196699
 21
-3.6119664842437871
 31
0.0
  0
LINE
  5
198E
  8
247
 10
-105.899763183034
 20
-5.994614447607745
 30
0.0
 11
-105.6669585015255
 21
-5.7618097660992538
 31
0.0
  0
LINE
  5
198F
  8
247
 10
-103.9478888035365
 20
-3.7841086918236062
 30
0.0
 11
-103.7264598540242
 21
-3.5626797423112588
 31
0.0
  0
LINE
  5
1990
  8
247
 10
-106.1583945593207
 20
-5.9946144476077521
 30
0.0
 11
-105.9255898778122
 21
-5.7618097660992538
 31
0.0
  0
LINE
  5
1991
  8
247
 10
-104.16459269666611
 20
-3.742181208666266
 30
0.0
 11
-103.9748390100542
 21
-3.552427522054451
 31
0.0
  0
LINE
  5
1992
  8
247
 10
-106.4170259356076
 20
-5.994614447607745
 30
0.0
 11
-106.184221254099
 21
-5.7618097660992538
 31
0.0
  0
LINE
  5
1993
  8
247
 10
-106.6756573118944
 20
-5.994614447607745
 30
0.0
 11
-106.4428526303858
 21
-5.7618097660992538
 31
0.0
  0
LINE
  5
1994
  8
247
 10
-106.9342886881811
 20
-5.994614447607745
 30
0.0
 11
-106.7014840066726
 21
-5.7618097660992538
 31
0.0
  0
LINE
  5
1995
  8
247
 10
-107.1929200644679
 20
-5.994614447607745
 30
0.0
 11
-106.9601153829593
 21
-5.7618097660992538
 31
0.0
  0
LINE
  5
1996
  8
247
 10
-107.4515514407548
 20
-5.9946144476077521
 30
0.0
 11
-107.2187467592462
 21
-5.7618097660992538
 31
0.0
  0
LINE
  5
1997
  8
247
 10
-107.7101828170415
 20
-5.9946144476077521
 30
0.0
 11
-107.4773781355329
 21
-5.76180976609926
 31
0.0
  0
LINE
  5
1998
  8
247
 10
-107.9688141933283
 20
-5.994614447607745
 30
0.0
 11
-107.7360095118198
 21
-5.7618097660992538
 31
0.0
  0
LINE
  5
1999
  8
247
 10
-108.2274455696151
 20
-5.994614447607745
 30
0.0
 11
-107.9946408881065
 21
-5.7618097660992538
 31
0.0
  0
LINE
  5
199A
  8
247
 10
-108.4860769459018
 20
-5.994614447607745
 30
0.0
 11
-108.2532722643933
 21
-5.7618097660992538
 31
0.0
  0
LINE
  5
199B
  8
247
 10
-108.73949232750491
 20
-5.9893984529240871
 30
0.0
 11
-108.5119036406801
 21
-5.7618097660992538
 31
0.0
  0
LINE
  5
199C
  8
247
 10
-108.9576728041328
 20
-5.9489475532651959
 30
0.0
 11
-108.761331963798
 21
-5.7526067129303078
 31
0.0
  0
LINE
  5
199D
  8
247
 10
-109.14611078432731
 20
-5.8787541571728781
 30
0.0
 11
-108.9683186838332
 21
-5.7009620566788026
 31
0.0
  0
LINE
  5
199E
  8
247
 10
-109.3110464340615
 20
-5.7850584306202242
 30
0.0
 11
-109.14263092429449
 21
-5.6166429208532644
 31
0.0
  0
LINE
  5
199F
  8
247
 10
-109.4553930124904
 20
-5.6707736327623683
 30
0.0
 11
-109.2906097418213
 21
-5.5059903620932484
 31
0.0
  0
LINE
  5
19A0
  8
247
 10
-109.580231938103
 20
-5.5369811820880672
 30
0.0
 11
-109.41438531145251
 21
-5.3711345554376599
 31
0.0
  0
LINE
  5
19A1
  8
247
 10
-109.6852494149648
 20
-5.3833672826630723
 30
0.0
 11
-109.5133510467396
 21
-5.2114689144379627
 31
0.0
  0
LINE
  5
19A2
  8
247
 10
-108.3435007344045
 20
-3.7829872258160431
 30
0.0
 11
-108.16009228958841
 21
-3.599578781000047
 31
0.0
  0
LINE
  5
19A3
  8
247
 10
-109.76861584786791
 20
-5.2081023392794839
 30
0.0
 11
-109.5837783349199
 21
-5.0232648263314896
 31
0.0
  0
LINE
  5
19A4
  8
247
 10
-108.6021321106913
 20
-3.7829872258160422
 30
0.0
 11
-108.36932742319119
 21
-3.550182538316049
 31
0.0
  0
LINE
  5
19A5
  8
247
 10
-109.8261810446478
 20
-5.0070361597726301
 30
0.0
 11
-109.615812667882
 21
-4.7966677830068019
 31
0.0
  0
LINE
  5
19A6
  8
247
 10
-108.8989605801481
 20
-3.8211843189861181
 30
0.0
 11
-108.627959449176
 21
-3.5501831880140351
 31
0.0
  0
LINE
  5
19A7
  8
247
 10
-109.8489144047723
 20
-4.7711381436103286
 30
0.0
 11
-109.57791327380021
 21
-4.5001370126382483
 31
0.0
  0
LINE
  5
19A8
  8
247
 10
-109.8124386192589
 20
-4.4760309818101263
 30
0.0
 11
-108.92306661097621
 21
-3.5866589735274621
 31
0.0
  0
ENDBLK
  5
19AB
  8
0
  0
ENDSEC
  0
SECTION
  2
ENTITIES
  0
LINE
  5
1386
  8
250
 10
0.0000000000000853
 20
18.224585228336419
 30
0.0
 11
-2.2213979889021682
 21
18.028904429837748
 31
0.0
  0
LINE
  5
1387
  8
250
 10
-2.1887845224857179
 20
17.65867143168736
 30
0.0
 11
0.0000000000000853
 21
18.224585228336419
 31
0.0
  0
LINE
  5
1388
  8
250
 10
-2.2540114553185902
 20
18.399137427988109
 30
0.0
 11
0.0000000000000853
 21
18.224585228336419
 31
0.0
  0
LINE
  5
1389
  8
250
 10
-8.9849677105291903
 20
14.50288974515081
 30
0.0
 11
-7.2758349092958383
 21
15.935288107251321
 31
0.0
  0
LINE
  5
138A
  8
250
 10
-7.5145679696459231
 20
16.220143574123568
 30
0.0
 11
-8.9849677105291903
 21
14.50288974515081
 31
0.0
  0
LINE
  5
138B
  8
250
 10
-7.0371018489457517
 20
15.65043264037911
 30
0.0
 11
-8.9849677105291903
 21
14.50288974515081
 31
0.0
  0
TEXT
  5
138C
  8
250
 10
-8.8560630081010174
 20
17.05800783278664
 30
0.0
 40
3.0
  1
45üï
 50
17.937749785725671
  0
LINE
  5
138D
  8
250
 10
16.435489682866908
 20
11.174776284114159
 30
0.0
 11
16.435489682866908
 21
8.9447762841141696
 31
0.0
  0
LINE
  5
138E
  8
250
 10
16.807156349533582
 20
8.9447762841141696
 30
0.0
 11
16.435489682866908
 21
11.174776284114159
 31
0.0
  0
LINE
  5
138F
  8
250
 10
16.063823016200239
 20
8.9447762841141696
 30
0.0
 11
16.435489682866908
 21
11.174776284114159
 31
0.0
  0
TEXT
  5
1390
  8
250
 10
15.43548968286688
 20
-3.4999992213000151
 30
0.0
 40
3.0
  1
22.6
 50
90.0
  0
TEXT
  5
1391
  8
250
 10
15.43548968286688
 20
-6.2142849355857086
 30
0.0
 40
3.0
  1
\U+2205
 50
90.0
  0
LINE
  5
1392
  8
250
 10
-42.163961030678927
 20
-20.594142487430531
 30
0.0
 11
-39.93396103067893
 21
-20.594142487430531
 31
0.0
  0
LINE
  5
1393
  8
250
 10
-39.93396103067893
 20
-20.222475820763862
 30
0.0
 11
-42.163961030678927
 21
-20.594142487430531
 31
0.0
  0
LINE
  5
1394
  8
250
 10
-39.93396103067893
 20
-20.965809154097201
 30
0.0
 11
-42.163961030678927
 21
-20.594142487430531
 31
0.0
  0
LINE
  5
1395
  8
250
 10
0.0
 20
-20.594142487430531
 30
0.0
 11
-2.2299999999999889
 21
-20.594142487430531
 31
0.0
  0
LINE
  5
1396
  8
250
 10
-2.2299999999999889
 20
-20.965809154097201
 30
0.0
 11
0.0
 21
-20.594142487430531
 31
0.0
  0
LINE
  5
1397
  8
250
 10
-2.2299999999999889
 20
-20.222475820763862
 30
0.0
 11
0.0
 21
-20.594142487430531
 31
0.0
  0
TEXT
  5
1398
  8
250
 10
-26.081980515339438
 20
-19.594142487430531
 30
0.0
 40
3.0
  1
42.2
  0
LINE
  5
1399
  8
250
 10
-26.29518543609402
 20
-5.5
 30
0.0
 11
-26.29518543609402
 21
-3.2700000000000098
 31
0.0
  0
LINE
  5
139A
  8
250
 10
-26.666852102760689
 20
-3.2700000000000098
 30
0.0
 11
-26.29518543609402
 21
-5.5
 31
0.0
  0
LINE
  5
139B
  8
250
 10
-25.92351876942735
 20
-3.2700000000000098
 30
0.0
 11
-26.29518543609402
 21
-5.5
 31
0.0
  0
LINE
  5
139C
  8
250
 10
-26.29518543609402
 20
5.5
 30
0.0
 11
-26.29518543609402
 21
3.2700000000000098
 31
0.0
  0
LINE
  5
139D
  8
250
 10
-25.92351876942735
 20
3.2700000000000098
 30
0.0
 11
-26.29518543609402
 21
5.5
 31
0.0
  0
LINE
  5
139E
  8
250
 10
-26.666852102760689
 20
3.2700000000000098
 30
0.0
 11
-26.29518543609402
 21
5.5
 31
0.0
  0
TEXT
  5
139F
  8
250
 10
-27.295185436094052
 20
-0.9285714285714163
 30
0.0
 40
3.0
  1
11
 50
90.0
  0
TEXT
  5
13A0
  8
250
 10
-27.295185436094052
 20
-3.6428571428571099
 30
0.0
 40
3.0
  1
\U+2205
 50
90.0
  0
LINE
  5
13A1
  8
250
 10
-127.5645172039048
 20
-8.0
 30
0.0
 11
-127.5645172039048
 21
-5.7700000000000102
 31
0.0
  0
LINE
  5
13A2
  8
250
 10
-127.9361838705715
 20
-5.7700000000000102
 30
0.0
 11
-127.5645172039048
 21
-8.0
 31
0.0
  0
LINE
  5
13A3
  8
250
 10
-127.1928505372382
 20
-5.7700000000000102
 30
0.0
 11
-127.5645172039048
 21
-8.0
 31
0.0
  0
LINE
  5
13A4
  8
250
 10
-127.5645172039048
 20
7.9999999999999432
 30
0.0
 11
-127.5645172039048
 21
5.7699999999999534
 31
0.0
  0
LINE
  5
13A5
  8
250
 10
-127.1928505372382
 20
5.7699999999999534
 30
0.0
 11
-127.5645172039048
 21
7.9999999999999432
 31
0.0
  0
LINE
  5
13A6
  8
250
 10
-127.9361838705715
 20
5.7699999999999534
 30
0.0
 11
-127.5645172039048
 21
7.9999999999999432
 31
0.0
  0
TEXT
  5
13A7
  8
250
 10
-128.5645172039049
 20
-1.357142857142889
 30
0.0
 40
3.0
  1
16
 50
90.0
  0
TEXT
  5
13A8
  8
250
 10
-128.5645172039049
 20
-4.0714285714285827
 30
0.0
 40
3.0
  1
\U+2205
 50
90.0
  0
LINE
  5
13A9
  8
250
 10
-117.16396103067891
 20
-20.594142487430531
 30
0.0
 11
-114.9339610306789
 21
-20.594142487430531
 31
0.0
  0
LINE
  5
13AA
  8
250
 10
-114.9339610306789
 20
-20.222475820763862
 30
0.0
 11
-117.16396103067891
 21
-20.594142487430531
 31
0.0
  0
LINE
  5
13AB
  8
250
 10
-114.9339610306789
 20
-20.965809154097201
 30
0.0
 11
-117.16396103067891
 21
-20.594142487430531
 31
0.0
  0
LINE
  5
13AC
  8
250
 10
-42.163961030678927
 20
-20.594142487430531
 30
0.0
 11
-44.393961030678938
 21
-20.594142487430531
 31
0.0
  0
LINE
  5
13AD
  8
250
 10
-44.393961030678938
 20
-20.965809154097201
 30
0.0
 11
-42.163961030678927
 21
-20.594142487430531
 31
0.0
  0
LINE
  5
13AE
  8
250
 10
-44.393961030678938
 20
-20.222475820763862
 30
0.0
 11
-42.163961030678927
 21
-20.594142487430531
 31
0.0
  0
TEXT
  5
13AF
  8
250
 10
-82.521103887821809
 20
-19.594142487430531
 30
0.0
 40
3.0
  1
75
  0
LINE
  5
13B0
  8
250
 10
-117.16396103067891
 20
-27.594142487430531
 30
0.0
 11
-114.9339610306789
 21
-27.594142487430531
 31
0.0
  0
LINE
  5
13B1
  8
250
 10
-114.9339610306789
 20
-27.222475820763862
 30
0.0
 11
-117.16396103067891
 21
-27.594142487430531
 31
0.0
  0
LINE
  5
13B2
  8
250
 10
-114.9339610306789
 20
-27.965809154097201
 30
0.0
 11
-117.16396103067891
 21
-27.594142487430531
 31
0.0
  0
LINE
  5
13B3
  8
250
 10
0.0000000000000568
 20
-27.594142487430531
 30
0.0
 11
-2.229999999999932
 21
-27.594142487430531
 31
0.0
  0
LINE
  5
13B4
  8
250
 10
-2.229999999999932
 20
-27.965809154097201
 30
0.0
 11
0.0000000000000568
 21
-27.594142487430531
 31
0.0
  0
LINE
  5
13B5
  8
250
 10
-2.229999999999932
 20
-27.222475820763862
 30
0.0
 11
0.0000000000000568
 21
-27.594142487430531
 31
0.0
  0
TEXT
  5
13B6
  8
250
 10
-65.224837658196606
 20
-26.594142487430531
 30
0.0
 40
3.0
  1
117.2
  0
LINE
  5
13B7
  8
250
 10
-114.9339610306789
 20
-27.594142487430531
 30
0.0
 11
-2.229999999999932
 21
-27.594142487430531
 31
0.0
  0
LINE
  5
13B8
  8
250
 10
0.0000000000000568
 20
3.6861066460037639
 30
0.0
 11
0.0000000000000568
 21
-28.594142487430531
 31
0.0
  0
LINE
  5
13B9
  8
250
 10
-117.16396103067891
 20
-6.5
 30
0.0
 11
-117.16396103067891
 21
-28.594142487430531
 31
0.0
  0
LINE
  5
13BA
  8
250
 10
-114.9339610306789
 20
-20.594142487430531
 30
0.0
 11
-44.393961030678938
 21
-20.594142487430531
 31
0.0
  0
LINE
  5
13BB
  8
250
 10
-42.163961030678927
 20
-6.2559686919839796
 30
0.0
 11
-42.163961030678927
 21
-21.594142487430531
 31
0.0
  0
LINE
  5
13BC
  8
250
 10
-117.16396103067891
 20
-6.5
 30
0.0
 11
-117.16396103067891
 21
-21.594142487430531
 31
0.0
  0
LINE
  5
13BD
  8
250
 10
-127.5645172039048
 20
-5.7700000000000102
 30
0.0
 11
-127.5645172039048
 21
5.7699999999999534
 31
0.0
  0
LINE
  5
13BE
  8
250
 10
-115.66396103067891
 20
7.9999999999999432
 30
0.0
 11
-128.56451720390481
 21
7.9999999999999432
 31
0.0
  0
LINE
  5
13BF
  8
250
 10
-115.66396103067891
 20
-8.0
 30
0.0
 11
-128.56451720390481
 21
-8.0
 31
0.0
  0
LINE
  5
13C0
  8
250
 10
-26.29518543609402
 20
-3.2700000000000098
 30
0.0
 11
-26.29518543609402
 21
3.2700000000000098
 31
0.0
  0
LINE
  5
13C1
  8
250
  6
CONTINUOUS
 62
     3
 10
-39.788316683661101
 20
5.5
 30
0.0
 11
-25.29518543609402
 21
5.5
 31
0.0
  0
LINE
  5
13C2
  8
250
  6
CONTINUOUS
 62
     3
 10
-39.788316683661101
 20
-5.5
 30
0.0
 11
-25.29518543609402
 21
-5.5
 31
0.0
  0
LINE
  5
13C3
  8
250
 10
-39.93396103067893
 20
-20.594142487430531
 30
0.0
 11
-2.2299999999999889
 21
-20.594142487430531
 31
0.0
  0
LINE
  5
13C4
  8
250
 10
0.0
 20
3.6861066460037639
 30
0.0
 11
0.0
 21
-21.594142487430531
 31
0.0
  0
LINE
  5
13C5
  8
250
 10
-42.163961030678927
 20
-6.2559686919839796
 30
0.0
 11
-42.163961030678927
 21
-21.594142487430531
 31
0.0
  0
LINE
  5
13C6
  8
250
 10
16.435489682866908
 20
8.9447762841141696
 30
0.0
 11
16.435489682866908
 21
-6.9285706498714603
 31
0.0
  0
LINE
  5
13C7
  8
250
 10
-5.2392524232474784
 20
11.174776284114159
 30
0.0
 11
17.435489682866908
 21
11.174776284114159
 31
0.0
  0
ARC
  5
13C8
  8
250
 10
0.0000000000000568
 20
5.5179220346216757
 30
0.0
 40
12.70666319371478
 50
100.0682709993537
 51
124.9317290006464
  0
LINE
  5
13C9
  8
250
 10
-5.951929156195205
 20
11.469851190816851
 30
0.0
 11
-9.6920744917157702
 21
15.20999652633736
 31
0.0
  0
LINE
  5
13CA
  8
250
 10
0.0000000000000568
 20
6.0179220346216482
 30
0.0
 11
0.0000000000001137
 21
19.224585228336419
 31
0.0
  0
TEXT
  5
1416
  8
241
 10
-119.0
 20
28.0
 30
0.0
 40
5.0
  1
ST16-C1222-45B-40
  7
YOKO
 11
-119.0
 21
28.0
 31
0.0
 73
     1
  0
INSERT
  5
19AC
  8
240
  2
A$C5FBA6F41
 10
0.0
 20
0.0
 30
0.0
  0
VIEWPORT
  5
22
 67
     1
  8
0
 10
261.51769911504419
 20
148.5
 30
0.0
 40
523.0353982300885
 41
297.0
 68
     1
 69
     1
1001
ACAD
1000
MVIEW
1002
{
1070
    16
1010
0.0
1020
0.0
1030
0.0
1010
0.0
1020
0.0
1030
1.0
1040
0.0
1040
297.0
1040
261.51769911504419
1040
148.5
1040
50.0
1040
0.0
1040
0.0
1070
     0
1070
   100
1070
     1
1070
     1
1070
     0
1070
     0
1070
     0
1070
     0
1040
0.0
1040
0.0
1040
0.0
1040
1.0
1040
1.0
1040
10.0
1040
10.0
1070
     0
1002
{
1002
}
1002
}
1001
GENIUS_GENODEF_13
1002
{
1000
HIER
1070
     0
1002
}
1002
{
1000
MANEDIT
1070
     0
1002
}
1002
{
1000
NOSEL
1070
     0
1002
}
1002
{
1000
BEHIND
1070
     0
1002
}
1002
{
1000
OTHER
1070
     0
1002
}
1002
{
1000
REACTOR
1002
}
1001
GENIUS_GENOBJ-N-SDF_13
1002
{
1000
OWNER
1000
GEN
1002
}
1001
GENIUS_GENSCREG_15
1000
PF
1040
1.0
1000
DF
1040
1.0
1000
MIN
1011
0.0
1021
5.5610587702272942E+025
1031
2.0687277978201233E+049
1021
0.0
1031
0.0
1000
MAX
1011
523.0353982300885
1021
5.5610587702272942E+025
1031
2.0687277978201233E+049
1021
297.0
1031
0.0
1000
FLAGS
1070
     2
  0
ENDSEC
  0
EOF
