  0
SECTION
  2
HEADER
  9
$ACADVER
  1
AC1009
  9
$INSBASE
 10
0.0
 20
0.0
 30
0.0
  9
$EXTMIN
 10
-115.92399174962959
 20
-29.013030169286822
 30
-0.0000000349181948
  9
$EXTMAX
 10
15.47351574998015
 20
27.33216362327056
 30
0.0000000814935746
  9
$LIMMIN
 10
0.0
 20
0.0
  9
$LIMMAX
 10
297.0
 20
210.0
  9
$ORTHOMODE
 70
     1
  9
$REGENMODE
 70
     1
  9
$FILLMODE
 70
     1
  9
$QTEXTMODE
 70
     0
  9
$MIRRTEXT
 70
     1
  9
$DRAGMODE
 70
     2
  9
$LTSCALE
 40
10.0
  9
$OSMODE
 70
  2597
  9
$ATTMODE
 70
     1
  9
$TEXTSIZE
 40
3.0
  9
$TRACEWID
 40
1.0
  9
$TEXTSTYLE
  7
YOKO
  9
$CLAYER
  8
240
  9
$CELTYPE
  6
BYLAYER
  9
$CECOLOR
 62
   256
  9
$DIMSCALE
 40
1.0
  9
$DIMASZ
 40
2.2299999999999991
  9
$DIMEXO
 40
0.5
  9
$DIMDLI
 40
7.0
  9
$DIMRND
 40
0.0
  9
$DIMDLE
 40
0.0
  9
$DIMEXE
 40
1.0
  9
$DIMTP
 40
0.0
  9
$DIMTM
 40
0.01
  9
$DIMTXT
 40
2.7999999999999989
  9
$DIMCEN
 40
0.0
  9
$DIMTSZ
 40
0.0
  9
$DIMTOL
 70
     0
  9
$DIMLIM
 70
     0
  9
$DIMTIH
 70
     0
  9
$DIMTOH
 70
     0
  9
$DIMSE1
 70
     0
  9
$DIMSE2
 70
     0
  9
$DIMTAD
 70
     3
  9
$DIMZIN
 70
     9
  9
$DIMBLK
  1
OPEN
  9
$DIMASO
 70
     1
  9
$DIMSHO
 70
     1
  9
$DIMPOST
  1

  9
$DIMAPOST
  1

  9
$DIMALT
 70
     0
  9
$DIMALTD
 70
     2
  9
$DIMALTF
 40
25.399999999999999
  9
$DIMLFAC
 40
1.0
  9
$DIMTOFL
 70
     1
  9
$DIMTVP
 40
0.0
  9
$DIMTIX
 70
     1
  9
$DIMSOXD
 70
     0
  9
$DIMSAH
 70
     0
  9
$DIMBLK1
  1

  9
$DIMBLK2
  1

  9
$DIMSTYLE
  2
BIGT
  9
$DIMCLRD
 70
   256
  9
$DIMCLRE
 70
   256
  9
$DIMCLRT
 70
    40
  9
$DIMTFAC
 40
1.0
  9
$DIMGAP
 40
1.0
  9
$LUNITS
 70
     2
  9
$LUPREC
 70
     3
  9
$SKETCHINC
 40
1.0
  9
$FILLETRAD
 40
0.0
  9
$AUNITS
 70
     0
  9
$AUPREC
 70
     3
  9
$MENU
  1
.
  9
$ELEVATION
 40
0.0
  9
$PELEVATION
 40
0.0
  9
$THICKNESS
 40
0.0
  9
$LIMCHECK
 70
     0
  9
$BLIPMODE
 70
     0
  9
$CHAMFERA
 40
0.25
  9
$CHAMFERB
 40
0.25
  9
$SKPOLY
 70
     0
  9
$TDCREATE
 40
2454089.788305752
  9
$TDUPDATE
 40
2454090.3741778699
  9
$TDINDWG
 40
0.0220218403
  9
$TDUSRTIMER
 40
0.0220218403
  9
$USRTIMER
 70
     1
  9
$ANGBASE
 50
0.0
  9
$ANGDIR
 70
     0
  9
$PDMODE
 70
     1
  9
$PDSIZE
 40
0.0
  9
$PLINEWID
 40
0.0
  9
$COORDS
 70
     0
  9
$SPLFRAME
 70
     0
  9
$SPLINETYPE
 70
     6
  9
$SPLINESEGS
 70
     4
  9
$ATTDIA
 70
     1
  9
$ATTREQ
 70
     1
  9
$HANDLING
 70
     1
  9
$HANDSEED
  5
1C32
  9
$SURFTAB1
 70
     6
  9
$SURFTAB2
 70
     6
  9
$SURFTYPE
 70
     6
  9
$SURFU
 70
     6
  9
$SURFV
 70
     6
  9
$UCSNAME
  2

  9
$UCSORG
 10
0.0
 20
0.0
 30
0.0
  9
$UCSXDIR
 10
1.0
 20
0.0
 30
0.0
  9
$UCSYDIR
 10
0.0
 20
1.0
 30
0.0
  9
$PUCSNAME
  2

  9
$PUCSORG
 10
0.0
 20
0.0
 30
0.0
  9
$PUCSXDIR
 10
1.0
 20
0.0
 30
0.0
  9
$PUCSYDIR
 10
0.0
 20
1.0
 30
0.0
  9
$USERI1
 70
     1
  9
$USERI2
 70
     0
  9
$USERI3
 70
     0
  9
$USERI4
 70
     0
  9
$USERI5
 70
     0
  9
$USERR1
 40
0.0
  9
$USERR2
 40
0.0
  9
$USERR3
 40
0.0
  9
$USERR4
 40
0.0
  9
$USERR5
 40
0.0
  9
$WORLDVIEW
 70
     1
  9
$SHADEDGE
 70
     3
  9
$SHADEDIF
 70
    70
  9
$TILEMODE
 70
     1
  9
$MAXACTVP
 70
    16
  9
$PLIMCHECK
 70
     0
  9
$PEXTMIN
 10
1.0000000000000000E+020
 20
1.0000000000000000E+020
 30
1.0000000000000000E+020
  9
$PEXTMAX
 10
-1.0000000000000000E+020
 20
-1.0000000000000000E+020
 30
-1.0000000000000000E+020
  9
$PLIMMIN
 10
0.0
 20
0.0
  9
$PLIMMAX
 10
420.0
 20
297.0
  9
$UNITMODE
 70
     0
  9
$VISRETAIN
 70
     1
  9
$PLINEGEN
 70
     0
  9
$PSLTSCALE
 70
     1
  0
ENDSEC
  0
SECTION
  2
TABLES
  0
TABLE
  2
VPORT
 70
     3
  0
VPORT
  2
*ACTIVE
 70
     0
 10
0.0
 20
0.0
 11
1.0
 21
1.0
 12
-50.225237999824742
 22
-0.8404332730081308
 13
0.0
 23
0.0
 14
7.0
 24
7.0
 15
7.0
 25
7.0
 16
0.0
 26
0.0
 36
1.0
 17
0.0
 27
0.0
 37
0.0
 40
89.273161929001773
 41
1.4791666666666661
 42
50.0
 43
0.0
 44
0.0
 50
0.0
 51
0.0
 71
     0
 72
  2000
 73
     1
 74
     0
 75
     0
 76
     0
 77
     0
 78
     0
  0
ENDTAB
  0
TABLE
  2
LTYPE
 70
    15
  0
LTYPE
  2
CONTINUOUS
 70
     0
  3
Solid line
 72
    65
 73
     0
 40
0.0
  0
LTYPE
  2
CENTER2
 70
     0
  3
___ _ ___ _ ___ _ ___ _ ___ _ ___ _ ___ _ ___ _
 72
    65
 73
     4
 40
1.125
 49
0.75
 49
-0.125
 49
0.125
 49
-0.125
  0
LTYPE
  2
HIDDEN2
 70
     0
  3
_ _ _ _ _ _ _ _ _ _ _ _ _ _ _ _ _ _ _ _ _ _ _ _
 72
    65
 73
     2
 40
0.1875
 49
0.125
 49
-0.0625
  0
LTYPE
  2
PHANTOM2
 70
     0
  3
___ _ _ ___ _ _ ___ _ _ ___ _ _ ___ _ _ ___ _ _
 72
    65
 73
     6
 40
1.25
 49
0.625
 49
-0.125
 49
0.125
 49
-0.125
 49
0.125
 49
-0.125
  0
LTYPE
  2
CENTER
 70
     0
  3
____ _ ____ _ ____ _ ____ _ ____ _ ____ _ ____ 
 72
    65
 73
     4
 40
2.0
 49
1.25
 49
-0.25
 49
0.25
 49
-0.25
  0
LTYPE
  2
AM_ISO02W050
 70
     0
  3
__ __ __ __ __ __ __ __ __ __ __ __ __ __ __
 72
    65
 73
     2
 40
7.5
 49
6.0
 49
-1.5
  0
LTYPE
  2
AMCONSTR
 70
     0
  3
_______________________
 72
    65
 73
     2
 40
9999.0
 49
9999.0
 49
0.0
  0
LTYPE
  2
ACISOWELD
 70
     0
  3
_ _ _ _ _
 72
    65
 73
     2
 40
2.0
 49
2.0
 49
-1.0
  0
LTYPE
  2
ACISOTGB
 70
     0
  3
__ . . __ . .
 72
    65
 73
     6
 40
9.0
 49
4.0
 49
-1.0
 49
1.0
 49
-1.0
 49
1.0
 49
-1.0
  0
LTYPE
  2
ACISOTGL
 70
     0
  3
_ _ _ _ _
 72
    65
 73
     2
 40
3.0
 49
2.0
 49
-1.0
  0
LTYPE
  2
ACJISTGB
 70
     0
  3
__ . . __ . .
 72
    65
 73
     6
 40
9.0
 49
4.0
 49
-1.0
 49
1.0
 49
-1.0
 49
1.0
 49
-1.0
  0
LTYPE
  2
ACJISTGL
 70
     0
  3
_ _ _ _ _
 72
    65
 73
     2
 40
3.0
 49
2.0
 49
-1.0
  0
LTYPE
  2
HIDDEN
 70
     0
  3
Hidden __ __ __ __ __ __ __ __ __ __ __ __ __ _
 72
    65
 73
     2
 40
9.5249999999999986
 49
6.3499999999999988
 49
-3.1749999999999989
  0
ENDTAB
  0
TABLE
  2
LAYER
 70
     8
  0
LAYER
  2
0
 70
     0
 62
     7
  6
CONTINUOUS
  0
LAYER
  2
DEFPOINTS
 70
     0
 62
     7
  6
CONTINUOUS
  0
LAYER
  2
245
 70
     0
 62
     2
  6
CENTER2
  0
LAYER
  2
240
 70
     0
 62
     4
  6
CONTINUOUS
  0
LAYER
  2
241
 70
     0
 62
   211
  6
CONTINUOUS
  0
LAYER
  2
246
 70
     0
 62
     3
  6
PHANTOM2
  0
LAYER
  2
247
 70
     0
 62
    60
  6
CONTINUOUS
  0
LAYER
  2
250
 70
     0
 62
     3
  6
CONTINUOUS
  0
ENDTAB
  0
TABLE
  2
STYLE
 70
     8
  0
STYLE
  2
STANDARD
 70
     0
 40
0.0
 41
1.0
 50
0.0
 71
     0
 42
3.0
  3
romans.shx
  4
extfont.shx
  0
STYLE
  2
ACISOTS
 70
     0
 40
1.0
 41
1.0
 50
0.0
 71
     0
 42
3.0
  3
amgdt.shx
  4
extfont.shx
  0
STYLE
  2
ACISOGDT
 70
     0
 40
0.0
 41
1.0
 50
0.0
 71
     0
 42
3.0
  3
amgdt.shx
  4
extfont.shx
  0
STYLE
  2
ACJISTS
 70
     0
 40
1.0
 41
1.0
 50
0.0
 71
     0
 42
3.0
  3
amgdt.shx
  4
extfont.shx
  0
STYLE
  2
ACJISGDT
 70
     0
 40
0.0
 41
1.0
 50
0.0
 71
     0
 42
3.0
  3
amgdt.shx
  4
extfont.shx
  0
STYLE
  2
YOKO
 70
     0
 40
0.0
 41
1.0
 50
0.0
 71
     0
 42
3.0
  3
romans.shx
  4
extfont.shx
  0
ENDTAB
  0
TABLE
  2
VIEW
 70
     0
  0
ENDTAB
  0
TABLE
  2
UCS
 70
     0
  0
ENDTAB
  0
TABLE
  2
APPID
 70
    31
  0
APPID
  2
ACAD
 70
     0
  0
APPID
  2
GLOBAL
 70
     0
  0
APPID
  2
DETAIL
 70
     0
  0
APPID
  2
GRPNAME
 70
     0
  0
APPID
  2
GPARA
 70
     0
  0
APPID
  2
MCAD_NO_VIS
 70
     0
  0
APPID
  2
ACAD_TEMP_GRAPHIC
 70
     0
  0
APPID
  2
ACATTRIBSERVICES
 70
     0
  0
APPID
  2
GENIUS_GENSCREG_15
 70
     0
  0
APPID
  2
GENIUS_GENODEF_13
 70
     0
  0
APPID
  2
GENIUS_GENOBJ-N-SDF_13
 70
     0
  0
APPID
  2
GENIUS_GENREC_14
 70
     0
  0
APPID
  2
GENIUS_GENOBJ-N-REC_13
 70
     0
  0
APPID
  2
GENIUS_GENDIMSH_14
 70
     0
  0
APPID
  2
GENIUS_GENOBJ-N-DIM_13
 70
     0
  0
APPID
  2
GENIUS_GENDIM_13
 70
     0
  0
APPID
  2
GENIUS_GENDTOL_13
 70
     0
  0
APPID
  2
GENIUS_GENOLIS_13
 70
     0
  0
APPID
  2
GENIUS_GENOENT_13
 70
     0
  0
APPID
  2
GENIUS_GENOBJ-F-FEM_13
 70
     0
  0
APPID
  2
GENIUS_GENOREF_13
 70
     0
  0
APPID
  2
GENIUS_GEFFEM_13
 70
     0
  0
APPID
  2
GENIUS_GEFFEMP_13
 70
     0
  0
APPID
  2
AD_DRAW
 70
     0
  0
APPID
  2
DESIGNERASSEMBLIES
 70
     0
  0
APPID
  2
ACADM_DIM_EDIT
 70
     0
  0
APPID
  2
AMDT_DM_ADJ
 70
     0
  0
APPID
  2
GENIUS_GENOBJ-N-FIL_13
 70
     0
  0
APPID
  2
HATCH_TYPE
 70
     0
  0
APPID
  2
HATCH_DISPLAY
 70
     0
  0
APPID
  2
HATCH_DISTANCE
 70
     0
  0
ENDTAB
  0
TABLE
  2
DIMSTYLE
 70
    29
  0
DIMSTYLE
  2
BIGT
 70
     0
  3

  4

  5
OPEN
  6

  7

 40
1.0
 41
2.2299999999999991
 42
0.5
 43
7.0
 44
1.0
 45
0.0
 46
0.0
 47
0.0
 48
0.01
140
2.7999999999999989
141
0.0
142
0.0
143
25.399999999999999
144
1.0
145
0.0
146
1.0
147
1.0
 71
     0
 72
     0
 73
     0
 74
     0
 75
     0
 76
     0
 77
     3
 78
     9
170
     0
171
     2
172
     1
173
     0
174
     1
175
     0
176
   256
177
   256
178
    40
  0
DIMSTYLE
  2
AM_ISO
 70
     0
  3

  4
"
  5

  6

  7

 40
1.0
 41
2.5
 42
1.0
 43
10.0
 44
1.0
 45
0.0
 46
0.0
 47
0.1
 48
0.1
140
3.5
141
0.0
142
0.0
143
0.0393701
144
1.0
145
0.0
146
0.71
147
1.5
 71
     0
 72
     0
 73
     0
 74
     0
 75
     0
 76
     0
 77
     1
 78
     8
170
     0
171
     2
172
     1
173
     0
174
     0
175
     0
176
   256
177
   256
178
     2
  0
DIMSTYLE
  2
AM_ISO$3
 70
     0
  3

  4
"
  5

  6

  7

 40
1.0
 41
2.5
 42
1.0
 43
10.0
 44
1.0
 45
0.0
 46
0.0
 47
0.1
 48
0.1
140
3.5
141
0.0
142
0.0
143
0.0393701
144
1.0
145
0.0
146
0.71
147
1.5
 71
     0
 72
     0
 73
     0
 74
     1
 75
     0
 76
     0
 77
     1
 78
     8
170
     0
171
     2
172
     0
173
     0
174
     0
175
     0
176
   256
177
   256
178
     2
  0
DIMSTYLE
  2
AM_ISO$4
 70
     0
  3

  4
"
  5

  6

  7

 40
1.0
 41
2.5
 42
1.0
 43
10.0
 44
1.0
 45
0.0
 46
0.0
 47
0.1
 48
0.1
140
3.5
141
0.0
142
0.0
143
0.0393701
144
1.0
145
0.0
146
0.71
147
1.5
 71
     0
 72
     0
 73
     0
 74
     1
 75
     0
 76
     0
 77
     1
 78
     8
170
     0
171
     2
172
     0
173
     0
174
     0
175
     0
176
   256
177
   256
178
     2
  0
DIMSTYLE
  2
AM_ISO$6
 70
     0
  3

  4
"
  5

  6

  7

 40
1.0
 41
2.5
 42
1.0
 43
10.0
 44
1.0
 45
0.0
 46
0.0
 47
0.1
 48
0.1
140
3.5
141
0.0
142
0.0
143
0.0393701
144
1.0
145
0.0
146
0.71
147
1.5
 71
     0
 72
     0
 73
     0
 74
     0
 75
     0
 76
     0
 77
     0
 78
     8
170
     0
171
     2
172
     1
173
     0
174
     0
175
     0
176
   256
177
   256
178
     2
  0
DIMSTYLE
  2
AM_ISO$7
 70
     0
  3

  4
"
  5

  6

  7

 40
1.0
 41
2.5
 42
1.0
 43
10.0
 44
1.0
 45
0.0
 46
0.0
 47
0.1
 48
0.1
140
5.0
141
0.0
142
0.0
143
0.0393701
144
1.0
145
0.0
146
0.71
147
1.5
 71
     0
 72
     0
 73
     0
 74
     0
 75
     0
 76
     0
 77
     1
 78
     8
170
     0
171
     2
172
     1
173
     0
174
     0
175
     0
176
   256
177
   256
178
     2
  0
DIMSTYLE
  2
AM_ISO$SF
 70
     0
  3

  4
"
  5

  6

  7

 40
1.0
 41
2.5
 42
1.0
 43
10.0
 44
1.0
 45
0.0
 46
0.0
 47
0.1
 48
0.1
140
3.5
141
0.0
142
0.0
143
0.0393701
144
1.0
145
0.0
146
0.71
147
1.5
 71
     0
 72
     0
 73
     0
 74
     0
 75
     1
 76
     1
 77
     1
 78
     8
170
     0
171
     2
172
     1
173
     0
174
     0
175
     0
176
   256
177
   256
178
     2
  0
DIMSTYLE
  2
AM_ISO$SH
 70
     0
  3

  4
"
  5

  6
GENAXEH
  7

 40
1.0
 41
2.5
 42
1.0
 43
10.0
 44
1.0
 45
0.0
 46
0.0
 47
0.1
 48
0.1
140
3.5
141
0.0
142
0.0
143
0.0393701
144
2.0
145
0.0
146
0.71
147
1.5
 71
     0
 72
     0
 73
     0
 74
     0
 75
     1
 76
     1
 77
     1
 78
     8
170
     0
171
     2
172
     1
173
     1
174
     0
175
     0
176
   256
177
   256
178
     2
  0
DIMSTYLE
  2
BIGT$2
 70
     0
  3

  4

  5
OPEN
  6

  7

 40
1.0
 41
2.2299999999999991
 42
0.5
 43
7.0
 44
1.0
 45
0.0
 46
0.0
 47
0.0
 48
0.01
140
2.7999999999999989
141
0.0
142
0.0
143
25.399999999999999
144
1.0
145
0.0
146
1.0
147
1.0
 71
     0
 72
     0
 73
     0
 74
     0
 75
     0
 76
     0
 77
     3
 78
     9
170
     0
171
     2
172
     1
173
     0
174
     0
175
     0
176
   256
177
   256
178
    40
  0
DIMSTYLE
  2
BIGT$3
 70
     0
  3

  4

  5
OPEN
  6

  7

 40
1.0
 41
2.2299999999999991
 42
0.5
 43
2.5
 44
1.0
 45
0.0
 46
0.0
 47
0.0
 48
0.01
140
2.7999999999999989
141
0.0
142
0.0
143
25.399999999999999
144
1.0
145
0.0
146
1.0
147
1.0
 71
     0
 72
     0
 73
     0
 74
     0
 75
     0
 76
     0
 77
     3
 78
     9
170
     0
171
     2
172
     1
173
     0
174
     0
175
     0
176
   256
177
   256
178
    40
  0
DIMSTYLE
  2
BIGT$7
 70
     0
  3

  4

  5
OPEN
  6

  7

 40
0.0
 41
2.2299999999999991
 42
0.5
 43
7.0
 44
1.0
 45
0.0
 46
0.0
 47
0.0
 48
0.01
140
2.7999999999999989
141
0.0
142
0.0
143
25.399999999999999
144
1.0
145
0.0
146
1.0
147
1.0
 71
     0
 72
     0
 73
     0
 74
     0
 75
     0
 76
     0
 77
     3
 78
     9
170
     0
171
     2
172
     0
173
     0
174
     0
175
     0
176
   256
177
   256
178
    40
  0
DIMSTYLE
  2
BIGT$6
 70
     0
  3

  4

  5
OPEN
  6

  7

 40
1.0
 41
2.2299999999999991
 42
0.5
 43
2.5
 44
1.0
 45
0.0
 46
0.0
 47
0.0
 48
0.01
140
2.7999999999999989
141
0.0
142
0.0
143
25.399999999999999
144
1.0
145
0.0
146
1.0
147
1.0
 71
     0
 72
     0
 73
     0
 74
     0
 75
     0
 76
     0
 77
     3
 78
     9
170
     0
171
     2
172
     1
173
     0
174
     0
175
     0
176
   256
177
   256
178
    40
  0
DIMSTYLE
  2
BIGT$0
 70
     0
  3

  4

  5
OPEN
  6

  7

 40
1.0
 41
2.2299999999999991
 42
0.5
 43
7.0
 44
1.0
 45
0.0
 46
0.0
 47
0.0
 48
0.01
140
2.7999999999999989
141
0.0
142
0.0
143
25.399999999999999
144
1.0
145
0.0
146
1.0
147
1.0
 71
     0
 72
     0
 73
     0
 74
     0
 75
     0
 76
     0
 77
     3
 78
     9
170
     0
171
     2
172
     1
173
     0
174
     0
175
     0
176
   256
177
   256
178
    40
  0
DIMSTYLE
  2
BIGT$4
 70
     0
  3

  4

  5
OPEN
  6

  7

 40
1.0
 41
2.2299999999999991
 42
0.5
 43
2.5
 44
1.0
 45
0.0
 46
0.0
 47
0.0
 48
0.01
140
2.7999999999999989
141
0.0
142
0.0
143
25.399999999999999
144
1.0
145
0.0
146
1.0
147
1.0
 71
     0
 72
     0
 73
     0
 74
     0
 75
     0
 76
     0
 77
     3
 78
     9
170
     0
171
     2
172
     1
173
     0
174
     0
175
     0
176
   256
177
   256
178
    40
  0
DIMSTYLE
  2
BIGT$SH
 70
     0
  3

  4

  5
OPEN
  6

  7

 40
1.0
 41
2.2299999999999991
 42
0.5
 43
7.0
 44
1.0
 45
0.0
 46
0.0
 47
0.0
 48
0.0
140
2.7999999999999989
141
0.0
142
0.0
143
25.399999999999999
144
1.0
145
0.0
146
1.0
147
1.0
 71
     0
 72
     0
 73
     0
 74
     0
 75
     0
 76
     0
 77
     3
 78
     9
170
     0
171
     2
172
     1
173
     0
174
     0
175
     0
176
   256
177
   256
178
    40
  0
DIMSTYLE
  2
BIGT$SF
 70
     0
  3

  4

  5
OPEN
  6

  7

 40
1.0
 41
2.2299999999999991
 42
0.5
 43
7.0
 44
1.0
 45
0.0
 46
0.0
 47
0.0
 48
0.0
140
2.7999999999999989
141
0.0
142
0.0
143
25.399999999999999
144
1.0
145
0.0
146
1.0
147
1.0
 71
     0
 72
     0
 73
     0
 74
     0
 75
     0
 76
     0
 77
     3
 78
     9
170
     0
171
     2
172
     1
173
     0
174
     0
175
     0
176
   256
177
   256
178
    40
  0
DIMSTYLE
  2
TECHNICAL_OSAKA
 70
     0
  3

  4
"
  5
OPEN30
  6

  7

 40
1.0
 41
2.5
 42
1.0
 43
10.0
 44
1.0
 45
0.0
 46
0.0
 47
0.1
 48
0.1
140
2.7999999999999989
141
0.0
142
0.0
143
0.0393701
144
1.0
145
0.0
146
0.71
147
1.5
 71
     0
 72
     0
 73
     0
 74
     0
 75
     0
 76
     0
 77
     3
 78
     8
170
     0
171
     2
172
     1
173
     0
174
     0
175
     0
176
   256
177
   256
178
    40
  0
DIMSTYLE
  2
TECHNICAL_OSAKA$3
 70
     0
  3

  4
"
  5
OPEN30
  6

  7

 40
1.0
 41
2.5
 42
1.0
 43
10.0
 44
1.0
 45
0.0
 46
0.0
 47
0.1
 48
0.1
140
2.7999999999999989
141
0.0
142
0.0
143
0.0393701
144
1.0
145
0.0
146
0.71
147
1.5
 71
     0
 72
     0
 73
     0
 74
     1
 75
     0
 76
     0
 77
     3
 78
     8
170
     0
171
     2
172
     0
173
     0
174
     0
175
     0
176
   256
177
   256
178
    40
  0
DIMSTYLE
  2
TECHNICAL_OSAKA$4
 70
     0
  3

  4
"
  5
OPEN30
  6

  7

 40
1.0
 41
2.5
 42
1.0
 43
10.0
 44
1.0
 45
0.0
 46
0.0
 47
0.1
 48
0.1
140
2.7999999999999989
141
0.0
142
0.0
143
0.0393701
144
1.0
145
0.0
146
0.71
147
1.5
 71
     0
 72
     0
 73
     0
 74
     1
 75
     0
 76
     0
 77
     3
 78
     8
170
     0
171
     2
172
     0
173
     0
174
     0
175
     0
176
   256
177
   256
178
    40
  0
DIMSTYLE
  2
TECHNICAL_OSAKA$6
 70
     0
  3

  4
"
  5
OPEN30
  6

  7

 40
1.0
 41
2.5
 42
1.0
 43
10.0
 44
1.0
 45
0.0
 46
0.0
 47
0.1
 48
0.1
140
2.7999999999999989
141
0.0
142
0.0
143
0.0393701
144
1.0
145
0.0
146
0.71
147
1.5
 71
     0
 72
     0
 73
     0
 74
     0
 75
     0
 76
     0
 77
     0
 78
     8
170
     0
171
     2
172
     1
173
     0
174
     0
175
     0
176
   256
177
   256
178
    40
  0
DIMSTYLE
  2
TECHNICAL_OSAKA$7
 70
     0
  3

  4
"
  5
OPEN30
  6

  7

 40
1.0
 41
2.5
 42
1.0
 43
10.0
 44
1.0
 45
0.0
 46
0.0
 47
0.1
 48
0.1
140
2.7999999999999989
141
0.0
142
0.0
143
0.0393701
144
1.0
145
0.0
146
0.71
147
1.5
 71
     0
 72
     0
 73
     0
 74
     0
 75
     0
 76
     0
 77
     3
 78
     8
170
     0
171
     2
172
     1
173
     0
174
     0
175
     0
176
   256
177
   256
178
    40
  0
DIMSTYLE
  2
TECHNICAL_OSAKA$SF
 70
     0
  3

  4
"
  5
OPEN30
  6
OPEN30
  7
OPEN30
 40
1.0
 41
2.5
 42
1.0
 43
10.0
 44
1.0
 45
0.0
 46
0.0
 47
0.1
 48
0.1
140
3.5
141
0.0
142
0.0
143
0.0393701
144
1.0
145
0.0
146
0.71
147
1.5
 71
     0
 72
     0
 73
     0
 74
     0
 75
     1
 76
     1
 77
     3
 78
     8
170
     0
171
     2
172
     1
173
     0
174
     0
175
     0
176
   256
177
   256
178
    40
  0
DIMSTYLE
  2
TECHNICAL_OSAKA$SH
 70
     0
  3

  4
"
  5
OPEN30
  6
GENAXEH
  7
OPEN30
 40
1.0
 41
2.5
 42
1.0
 43
10.0
 44
1.0
 45
0.0
 46
0.0
 47
0.1
 48
0.1
140
3.5
141
0.0
142
0.0
143
0.0393701
144
2.0
145
0.0
146
0.71
147
1.5
 71
     0
 72
     0
 73
     0
 74
     0
 75
     1
 76
     1
 77
     3
 78
     8
170
     0
171
     2
172
     1
173
     1
174
     0
175
     0
176
   256
177
   256
178
    40
  0
ENDTAB
  0
ENDSEC
  0
SECTION
  2
BLOCKS
  0
BLOCK
  8
0
  2
$MODEL_SPACE
 70
     0
 10
0.0
 20
0.0
 30
0.0
  3
$MODEL_SPACE
  1

  0
ENDBLK
  5
1C
  8
0
  0
BLOCK
 67
     1
  8
0
  2
$PAPER_SPACE
 70
     0
 10
0.0
 20
0.0
 30
0.0
  3
$PAPER_SPACE
  1

  0
ENDBLK
  5
19
 67
     1
  8
0
  0
BLOCK
  8
0
  2
_OPEN
 70
     0
 10
0.0
 20
0.0
 30
0.0
  3
_OPEN
  1

  0
LINE
  5
17FE
  8
0
  6
BYBLOCK
 62
     0
 10
-1.0
 20
0.1666666666666666
 30
0.0
 11
0.0
 21
0.0
 31
0.0
  0
LINE
  5
17FF
  8
0
  6
BYBLOCK
 62
     0
 10
-1.0
 20
-0.1666666666666666
 30
0.0
 11
0.0
 21
0.0
 31
0.0
  0
LINE
  5
1800
  8
0
  6
BYBLOCK
 62
     0
 10
0.0
 20
0.0
 30
0.0
 11
-1.0
 21
0.0
 31
0.0
  0
ENDBLK
  5
1801
  8
0
  0
BLOCK
  8
0
  2
GENAXEH
 70
     0
 10
0.0
 20
0.0
 30
0.0
  3
GENAXEH
  1

  0
LINE
  5
1829
  8
0
 10
-1.0
 20
0.0
 30
0.0
 11
1.0
 21
0.0
 31
0.0
  0
ENDBLK
  5
182A
  8
0
  0
BLOCK
  8
0
  2
_OPEN30
 70
     0
 10
0.0
 20
0.0
 30
0.0
  3
_OPEN30
  1

  0
LINE
  5
184E
  8
0
  6
BYBLOCK
 62
     0
 10
-1.0
 20
0.26794919
 30
0.0
 11
0.0
 21
0.0
 31
0.0
  0
LINE
  5
184F
  8
0
  6
BYBLOCK
 62
     0
 10
0.0
 20
0.0
 30
0.0
 11
-1.0
 21
-0.26794919
 31
0.0
  0
LINE
  5
1850
  8
0
  6
BYBLOCK
 62
     0
 10
0.0
 20
0.0
 30
0.0
 11
-1.0
 21
0.0
 31
0.0
  0
ENDBLK
  5
1851
  8
0
  0
BLOCK
  8
0
  2
*X3
 70
     1
 10
0.0
 20
0.0
 30
0.0
  3
*X3
  1

  0
LINE
  5
168A
  8
0
 62
     0
 10
4.2731626460786947
 20
-5.8571670211471272
 30
0.0
 11
3.510115154589633
 21
-5.094119529658065
 31
0.0
  0
LINE
  5
168B
  8
0
 62
     0
 10
3.4940719416106631
 20
-5.336707692965879
 30
0.0
 11
3.1883917659254011
 21
-5.03102751728062
 31
0.0
  0
LINE
  5
168C
  8
0
 62
     0
 10
4.3362546584561468
 20
-6.1788904098113662
 30
0.0
 11
4.0305744827708789
 21
-5.8732102341260974
 31
0.0
  0
LINE
  5
168D
  8
0
 62
     0
 10
3.1614668723394019
 20
-5.2627339999814282
 30
0.0
 11
2.9403393877385029
 21
-5.0416065153805292
 31
0.0
  0
LINE
  5
168E
  8
0
 62
     0
 10
4.3383903626899851
 20
-6.4396574903320092
 30
0.0
 11
4.1045481757553324
 21
-6.2058153033973582
 31
0.0
  0
LINE
  5
168F
  8
0
 62
     0
 10
2.9211994892945921
 20
-5.281097993223403
 30
0.0
 11
2.7312050109658861
 21
-5.091103514894697
 31
0.0
  0
LINE
  5
1690
  8
0
 62
     0
 10
4.338390362689978
 20
-6.6982888666187881
 30
0.0
 11
4.1055856811814859
 21
-6.4654841851102969
 31
0.0
  0
LINE
  5
1691
  8
0
 62
     0
 10
2.7241461983551201
 20
-5.342676078570725
 30
0.0
 11
2.549611000613679
 21
-5.1681408808292844
 31
0.0
  0
LINE
  5
1692
  8
0
 62
     0
 10
4.338390362689978
 20
-6.9569202429055821
 30
0.0
 11
4.1055856811814859
 21
-6.7241155613970891
 31
0.0
  0
LINE
  5
1693
  8
0
 62
     0
 10
2.5574155323842751
 20
-5.4345767888866652
 30
0.0
 11
2.3904879894348241
 21
-5.2676492459372142
 31
0.0
  0
LINE
  5
1694
  8
0
 62
     0
 10
4.3383903626899851
 20
-7.2155516191923743
 30
0.0
 11
4.1055856811814859
 21
-6.982746937683876
 31
0.0
  0
LINE
  5
1695
  8
0
 62
     0
 10
2.4161255819181511
 20
-5.5519182147073352
 30
0.0
 11
2.2515077835827939
 21
-5.3873004163719713
 31
0.0
  0
LINE
  5
1696
  8
0
 62
     0
 10
4.3383903626899851
 20
-7.4741829954791612
 30
0.0
 11
4.105585681181493
 21
-7.2413783139706691
 31
0.0
  0
LINE
  5
1697
  8
0
 62
     0
 10
2.2989457159389901
 20
-5.6933697250149731
 30
0.0
 11
2.1319866093836382
 21
-5.5264106184596198
 31
0.0
  0
LINE
  5
1698
  8
0
 62
     0
 10
4.3383903626899851
 20
-7.7328143717659659
 30
0.0
 11
4.1055856811814788
 21
-7.5000096902574631
 31
0.0
  0
LINE
  5
1699
  8
0
 62
     0
 10
2.2072252078153962
 20
-5.8602805931781683
 30
0.0
 11
2.0326176602498318
 21
-5.6856730456126021
 31
0.0
  0
LINE
  5
169A
  8
0
 62
     0
 10
4.338390362689978
 20
-7.9914457480527474
 30
0.0
 11
4.1055856811814859
 21
-7.758641066544258
 31
0.0
  0
LINE
  5
169B
  8
0
 62
     0
 10
2.1458777492053529
 20
-6.0575645108549079
 30
0.0
 11
1.955742399326019
 21
-5.8674291609755747
 31
0.0
  0
LINE
  5
169C
  8
0
 62
     0
 10
4.338390362689978
 20
-8.2500771243395334
 30
0.0
 11
4.1055856811814859
 21
-8.0172724428310431
 31
0.0
  0
LINE
  5
169D
  8
0
 62
     0
 10
2.127884606905837
 20
-6.298202744842186
 30
0.0
 11
1.9064556573934921
 21
-6.0767737953298484
 31
0.0
  0
LINE
  5
169E
  8
0
 62
     0
 10
4.3383903626899851
 20
-8.5087085006263337
 30
0.0
 11
4.1055856811814859
 21
-8.2759038191178362
 31
0.0
  0
LINE
  5
169F
  8
0
 62
     0
 10
2.0859571237484991
 20
-6.5149066379716469
 30
0.0
 11
1.896203437136684
 21
-6.325152951359831
 31
0.0
  0
LINE
  5
16A0
  8
0
 62
     0
 10
4.338390362689978
 20
-8.7673398769131268
 30
0.0
 11
4.1055856811814859
 21
-8.5345351954046365
 31
0.0
  0
LINE
  5
16A1
  8
0
 62
     0
 10
4.338390362689978
 20
-9.0259712531999217
 30
0.0
 11
4.1055856811814859
 21
-8.7931665716914225
 31
0.0
  0
LINE
  5
16A2
  8
0
 62
     0
 10
4.338390362689978
 20
-9.2846026294867041
 30
0.0
 11
4.1055856811814859
 21
-9.0517979479782156
 31
0.0
  0
LINE
  5
16A3
  8
0
 62
     0
 10
4.338390362689978
 20
-9.5432340057735008
 30
0.0
 11
4.1055856811814859
 21
-9.3104293242649998
 31
0.0
  0
LINE
  5
16A4
  8
0
 62
     0
 10
4.3383903626899851
 20
-9.8018653820602903
 30
0.0
 11
4.1055856811814859
 21
-9.5690607005517911
 31
0.0
  0
LINE
  5
16A5
  8
0
 62
     0
 10
4.3383903626899851
 20
-10.06049675834708
 30
0.0
 11
4.105585681181493
 21
-9.8276920768385896
 31
0.0
  0
LINE
  5
16A6
  8
0
 62
     0
 10
4.338390362689978
 20
-10.31912813463388
 30
0.0
 11
4.1055856811814859
 21
-10.086323453125379
 31
0.0
  0
LINE
  5
16A7
  8
0
 62
     0
 10
4.338390362689978
 20
-10.577759510920661
 30
0.0
 11
4.1055856811814859
 21
-10.34495482941217
 31
0.0
  0
LINE
  5
16A8
  8
0
 62
     0
 10
4.338390362689978
 20
-10.836390887207459
 30
0.0
 11
4.1055856811814859
 21
-10.60358620569896
 31
0.0
  0
LINE
  5
16A9
  8
0
 62
     0
 10
4.3331743680063184
 20
-11.08980626881058
 30
0.0
 11
4.1055856811814859
 21
-10.862217581985741
 31
0.0
  0
LINE
  5
16AA
  8
0
 62
     0
 10
4.2927234683474307
 20
-11.30798674543848
 30
0.0
 11
4.0963826280125399
 21
-11.11164590510359
 31
0.0
  0
LINE
  5
16AB
  8
0
 62
     0
 10
4.2225300722551111
 20
-11.496424725632959
 30
0.0
 11
4.0447379717610357
 21
-11.31863262513888
 31
0.0
  0
LINE
  5
16AC
  8
0
 62
     0
 10
4.1288343457024572
 20
-11.661360375367099
 30
0.0
 11
3.9604188359354979
 21
-11.492944865600141
 31
0.0
  0
LINE
  5
16AD
  8
0
 62
     0
 10
4.0145495478446014
 20
-11.80570695379603
 30
0.0
 11
3.8497662771754819
 21
-11.640923683126911
 31
0.0
  0
LINE
  5
16AE
  8
0
 62
     0
 10
3.8807570971703012
 20
-11.93054587940852
 30
0.0
 11
3.7149104705198961
 21
-11.76469925275811
 31
0.0
  0
LINE
  5
16AF
  8
0
 62
     0
 10
3.7271431977453049
 20
-12.03556335627032
 30
0.0
 11
3.555244829520197
 21
-11.86366498804521
 31
0.0
  0
LINE
  5
16B0
  8
0
 62
     0
 10
2.1267631408982761
 20
-10.69381467571009
 30
0.0
 11
1.9433546960822801
 21
-10.51040623089408
 31
0.0
  0
LINE
  5
16B1
  8
0
 62
     0
 10
3.551878254361716
 20
-12.11892978917353
 30
0.0
 11
3.367040741413724
 21
-11.93409227622552
 31
0.0
  0
LINE
  5
16B2
  8
0
 62
     0
 10
2.1267631408982761
 20
-10.95244605199688
 30
0.0
 11
1.8939584533982821
 21
-10.719641364496891
 31
0.0
  0
LINE
  5
16B3
  8
0
 62
     0
 10
3.3508120748548631
 20
-12.17649498595347
 30
0.0
 11
3.1404436980890349
 21
-11.96612660918764
 31
0.0
  0
LINE
  5
16B4
  8
0
 62
     0
 10
2.1649602340683511
 20
-11.24927452145374
 30
0.0
 11
1.8939591030962699
 21
-10.978273390481659
 31
0.0
  0
LINE
  5
16B5
  8
0
 62
     0
 10
3.1149140586925621
 20
-12.19922834607795
 30
0.0
 11
2.84391292772048
 21
-11.928227215105871
 31
0.0
  0
LINE
  5
16B6
  8
0
 62
     0
 10
2.819806896892358
 20
-12.162752560564529
 30
0.0
 11
1.930434888609696
 21
-11.27338055228187
 31
0.0
  0
ENDBLK
  5
16B7
  8
0
  0
BLOCK
  8
0
  2
*X4
 70
     1
 10
0.0
 20
0.0
 30
0.0
  3
*X4
  1

  0
LINE
  5
16BA
  8
0
 62
     0
 10
3.9891833374314549
 20
-8.6767642279413906
 30
0.0
 11
3.9699999022341199
 21
-8.6575807927440565
 31
0.0
  0
LINE
  5
16BB
  8
0
 62
     0
 10
3.9891833374314549
 20
-8.9353956042281801
 30
0.0
 11
3.6073930521298849
 21
-8.5536053189266141
 31
0.0
  0
LINE
  5
16BC
  8
0
 62
     0
 10
3.9748178468112911
 20
-9.179661489894805
 30
0.0
 11
3.2447862020256362
 21
-8.4496298451091505
 31
0.0
  0
LINE
  5
16BD
  8
0
 62
     0
 10
3.61220957775957
 20
-9.0756845971298841
 30
0.0
 11
2.8821793519213941
 21
-8.3456543712917011
 31
0.0
  0
LINE
  5
16BE
  8
0
 62
     0
 10
3.249601308707851
 20
-8.9717077043649454
 30
0.0
 11
2.5195725018171511
 21
-8.2416788974742428
 31
0.0
  0
LINE
  5
16BF
  8
0
 62
     0
 10
2.886993039656117
 20
-8.8677308116000102
 30
0.0
 11
2.1569656517129001
 21
-8.1377034236567951
 31
0.0
  0
LINE
  5
16C0
  8
0
 62
     0
 10
2.5243847706043909
 20
-8.7637539188350786
 30
0.0
 11
1.8939584533982821
 21
-8.1333276016289702
 31
0.0
  0
LINE
  5
16C1
  8
0
 62
     0
 10
2.1617765015526582
 20
-8.659777026070131
 30
0.0
 11
1.8939584533982901
 21
-8.3919589779157633
 31
0.0
  0
LINE
  5
16C2
  8
0
 62
     0
 10
1.918015068738405
 20
-8.674646969542664
 30
0.0
 11
1.8939584533982821
 21
-8.6505903542025422
 31
0.0
  0
ENDBLK
  5
16C3
  8
0
  0
BLOCK
  8
0
  2
*X5
 70
     1
 10
0.0
 20
0.0
 30
0.0
  3
*X5
  1

  0
LINE
  5
16C6
  8
0
 62
     0
 10
3.8682112041804739
 20
-7.0040038369696571
 30
0.0
 11
3.6499603235052889
 21
-6.7857529562944654
 31
0.0
  0
LINE
  5
16C7
  8
0
 62
     0
 10
3.9856529491582999
 20
-7.380076958234282
 30
0.0
 11
3.2873524678243831
 21
-6.6817764769003682
 31
0.0
  0
LINE
  5
16C8
  8
0
 62
     0
 10
3.617185728354428
 20
-7.2702411137172032
 30
0.0
 11
2.924744612143483
 21
-6.5777999975062542
 31
0.0
  0
LINE
  5
16C9
  8
0
 62
     0
 10
3.9698966386926511
 20
-7.6229520240554223
 30
0.0
 11
3.6965801245195551
 21
-7.3496355098823241
 31
0.0
  0
LINE
  5
16CA
  8
0
 62
     0
 10
3.2412377906756031
 20
-7.1529245523251603
 30
0.0
 11
2.8018861877732841
 21
-6.7135729494228391
 31
0.0
  0
LINE
  5
16CB
  8
0
 62
     0
 10
3.8992580266775061
 20
-7.8109447883270624
 30
0.0
 11
3.6959786603753511
 21
-7.6076654220249154
 31
0.0
  0
LINE
  5
16CC
  8
0
 62
     0
 10
3.034690875273276
 20
-7.2050090132096241
 30
0.0
 11
2.8018861877732761
 21
-6.9722043257096251
 31
0.0
  0
LINE
  5
16CD
  8
0
 62
     0
 10
3.792131315773708
 20
-7.9624494537100619
 30
0.0
 11
3.5455738235496881
 21
-7.715891961486034
 31
0.0
  0
LINE
  5
16CE
  8
0
 62
     0
 10
2.2029885065044099
 20
-6.6319380207275591
 30
0.0
 11
2.1787499076577741
 21
-6.6076994218809233
 31
0.0
  0
LINE
  5
16CF
  8
0
 62
     0
 10
3.6531656331833759
 20
-8.082115147406526
 30
0.0
 11
3.2290805876554312
 21
-7.6580301018785786
 31
0.0
  0
LINE
  5
16D0
  8
0
 62
     0
 10
2.2677871082174681
 20
-6.9553679987274011
 30
0.0
 11
1.982121972154764
 21
-6.6697028626646979
 31
0.0
  0
LINE
  5
16D1
  8
0
 62
     0
 10
3.4804499382598579
 20
-8.168030828769794
 30
0.0
 11
2.8664723785437469
 21
-7.5540532690536812
 31
0.0
  0
LINE
  5
16D2
  8
0
 62
     0
 10
2.1576583608831101
 20
-7.1038706276798393
 30
0.0
 11
1.98333579740042
 21
-6.9295480641971476
 31
0.0
  0
LINE
  5
16D3
  8
0
 62
     0
 10
3.262962952369413
 20
-8.2091752191661413
 30
0.0
 11
2.5038641694320689
 21
-7.4500764362287981
 31
0.0
  0
LINE
  5
16D4
  8
0
 62
     0
 10
2.9676848492862362
 20
-8.1725284923697501
 30
0.0
 11
1.912955328823172
 21
-7.1177989719066872
 31
0.0
  0
LINE
  5
16D5
  8
0
 62
     0
 10
2.6231897125881769
 20
-8.0866647319584857
 30
0.0
 11
1.8976699797883041
 21
-7.3611449991586113
 31
0.0
  0
ENDBLK
  5
16D6
  8
0
  0
BLOCK
  8
0
  2
A$C0E46036D
 70
     0
 10
0.0
 20
0.0
 30
0.0
  3
A$C0E46036D
  1

  0
TEXT
  5
16D8
  8
247
 10
-92.669192974150363
 20
-5.6834403717862569
 30
0.0
 40
2.0
  1
ST16-C0214-30-40
 41
0.7
  7
YOKO
 11
-92.669192974150363
 21
-5.6834403717862569
 31
0.0
 73
     1
  0
INSERT
  5
16D9
  8
247
  6
CONTINUOUS
  2
*X3
 10
-88.669192974150178
 20
-1.6418387330205171
 30
0.0
 50
270.0
1001
ACAD
1000
HATCH
1002
{
1070
    19
1000
ANSI31
1040
0.0576
1040
6.2831853071795853
1002
}
  0
INSERT
  5
16DA
  8
247
  6
CONTINUOUS
  2
*X4
 10
-88.669192974150178
 20
-1.6418387330205171
 30
0.0
 50
270.0
1001
ACAD
1000
HATCH
1002
{
1070
    19
1000
ANSI31
1040
0.0576
1040
6.2831853071795853
1002
}
  0
INSERT
  5
16DB
  8
247
  6
CONTINUOUS
  2
*X5
 10
-88.669192974150178
 20
-1.6418387330205171
 30
0.0
 50
270.0
1001
ACAD
1000
HATCH
1002
{
1070
    19
1000
ANSI31
1040
0.0576
1040
6.2831853071795853
1002
}
  0
LINE
  5
16DC
  8
247
 10
-97.336941501176156
 20
-3.535797186418804
 30
0.0
 11
-96.731480563676143
 21
-3.535797186418804
 31
0.0
  0
POLYLINE
  5
16DD
  8
247
 66
     1
 10
0.0
 20
0.0
 30
0.0
 70
     1
1001
HATCH_DISTANCE
1040
1.0
1001
HATCH_DISPLAY
1070
     0
1001
HATCH_TYPE
1070
     7
  0
VERTEX
  5
16DE
  8
247
 10
-97.336941501176142
 20
-3.5357971864188
 30
0.0
  0
VERTEX
  5
16DF
  8
247
 10
-97.410374118363663
 20
-3.7918753114187882
 30
0.0
  0
VERTEX
  5
16E0
  8
247
 10
-97.325603610551155
 20
-3.7918753114187882
 30
0.0
  0
VERTEX
  5
16E1
  8
247
 10
-97.852973727738657
 20
-5.631022070451972
 30
0.0
  0
VERTEX
  5
16E2
  8
247
 10
-97.332274508988661
 20
-5.631022070451972
 30
0.0
  0
VERTEX
  5
16E3
  8
247
 10
-96.731480563676143
 20
-3.5357971864188
 30
0.0
  0
SEQEND
  5
16E4
  8
247
  0
POLYLINE
  5
16E5
  8
247
 66
     1
 10
0.0
 20
0.0
 30
0.0
 70
     1
  0
VERTEX
  5
16E6
  8
247
 10
-97.336941501176142
 20
-3.5357971864188
 30
0.0
  0
VERTEX
  5
16E7
  8
247
 10
-97.410374118363663
 20
-3.7918753114187882
 30
0.0
  0
VERTEX
  5
16E8
  8
247
 10
-97.325603610551155
 20
-3.7918753114187882
 30
0.0
  0
VERTEX
  5
16E9
  8
247
 10
-97.852973727738657
 20
-5.631022070451972
 30
0.0
  0
VERTEX
  5
16EA
  8
247
 10
-97.332274508988661
 20
-5.631022070451972
 30
0.0
  0
VERTEX
  5
16EB
  8
247
 10
-96.731480563676143
 20
-3.5357971864188
 30
0.0
  0
SEQEND
  5
16EC
  8
247
  0
LINE
  5
16ED
  8
247
 10
-97.332274508988661
 20
-5.6310220704519756
 30
0.0
 11
-96.731480563676143
 21
-3.535797186418804
 31
0.0
  0
LINE
  5
16EE
  8
247
 10
-99.646206149613633
 20
-5.9802290957104978
 30
0.0
 11
-94.920300876176157
 21
-5.9802290957104978
 31
0.0
  0
LINE
  5
16EF
  8
247
 10
-99.646206149613633
 20
-5.7474244142020012
 30
0.0
 11
-94.920300876176157
 21
-5.7474244142020012
 31
0.0
  0
ARC
  5
16F0
  8
247
 10
-96.122363376176139
 20
-4.8744153504812964
 30
0.0
 40
0.756615234375
 50
163.9997507017292
 51
304.96387329163008
  0
ARC
  5
16F1
  8
247
 10
-99.646206149613604
 20
-4.7580130067313
 30
0.0
 40
0.9894111328124999
 50
89.999999999999986
 51
270.0
  0
ARC
  5
16F2
  8
247
 10
-99.646206149613604
 20
-4.7580130067313
 30
0.0
 40
1.2222158203124971
 50
89.999999999999986
 51
270.0
  0
LINE
  5
16F3
  8
247
 10
-97.852973727738686
 20
-5.6310220704519756
 30
0.0
 11
-97.332274508988661
 21
-5.6310220704519756
 31
0.0
  0
LINE
  5
16F4
  8
247
 10
-98.336846823069365
 20
-5.5873861862826431
 30
0.0
 11
-98.019585899749814
 21
-5.2701252629630773
 31
0.0
  0
LINE
  5
16F5
  8
247
 10
-99.415008212385857
 20
-5.6310220704519756
 30
0.0
 11
-98.752967324052875
 21
-4.9689811821190091
 31
0.0
  0
LINE
  5
16F6
  8
247
 10
-99.156376836099128
 20
-5.6310220704519756
 30
0.0
 11
-98.856938124005666
 21
-5.3315833583585706
 31
0.0
  0
LINE
  5
16F7
  8
247
 10
-98.639114083525527
 20
-5.631022070452004
 30
0.0
 11
-97.980954428593819
 21
-4.9728624155202823
 31
0.0
  0
LINE
  5
16F8
  8
247
 10
-98.677528986860835
 20
-4.7058870705977682
 30
0.0
 11
-98.868312949650004
 21
-5.371253501656966
 31
0.0
  0
ARC
  5
16F9
  8
247
 10
-98.817678805863665
 20
-5.0257366395437764
 30
0.0
 40
0.3492072715759277
 50
261.66285421114787
 51
66.338192159113575
  0
LINE
  5
16FA
  8
247
 10
-98.897745459812342
 20
-5.6310220704519756
 30
0.0
 11
-98.043532130001623
 21
-4.7768087406413278
 31
0.0
  0
LINE
  5
16FB
  8
247
 10
-99.524046969926147
 20
-5.6310220704519756
 30
0.0
 11
-98.557953219926162
 21
-5.6310220704519756
 31
0.0
  0
LINE
  5
16FC
  8
247
 10
-99.46390706771021
 20
-5.4212895494895426
 30
0.0
 11
-98.478886033657773
 21
-4.4362685154371064
 31
0.0
  0
LINE
  5
16FD
  8
247
 10
-99.359930910262264
 20
-5.0586820157548544
 30
0.0
 11
-98.545014401390759
 21
-4.2437655068832347
 31
0.0
  0
ARC
  5
16FE
  8
247
 10
-98.557953219926134
 20
-5.0490188661063193
 30
0.0
 40
0.5820029296875
 50
270.0
 51
40.329840654167477
  0
LINE
  5
16FF
  8
247
 10
-98.476525420375523
 20
-4.951170654728414
 30
0.0
 11
-97.713149029260194
 21
-4.1877942636130712
 31
0.0
  0
LINE
  5
1700
  8
247
 10
-97.410374118363663
 20
-3.7918753114187922
 30
0.0
 11
-97.336941501176156
 21
-3.535797186418804
 31
0.0
  0
LINE
  5
1701
  8
247
 10
-97.410374118363663
 20
-3.7918753114187922
 30
0.0
 11
-97.325603610551155
 21
-3.7918753114187922
 31
0.0
  0
LINE
  5
1702
  8
247
 10
-98.361123376131445
 20
-3.801243105337178
 30
0.0
 11
-98.121025471772285
 21
-3.5611452009780029
 31
0.0
  0
LINE
  5
1703
  8
247
 10
-99.104376273573465
 20
-3.768601873918854
 30
0.0
 11
-98.871571586073458
 21
-3.5357971864188609
 31
0.0
  0
LINE
  5
1704
  8
247
 10
-99.165435641801125
 20
-3.535797186418804
 30
0.0
 11
-99.232188571488606
 21
-3.7686018739187972
 31
0.0
  0
LINE
  5
1705
  8
247
 10
-99.04434872773848
 20
-3.535797186418804
 30
0.0
 11
-99.111101657426417
 21
-3.7686018739187972
 31
0.0
  0
LINE
  5
1706
  8
247
 10
-99.04434872773848
 20
-3.535797186418804
 30
0.0
 11
-98.293331606060761
 21
-3.5357971864188888
 31
0.0
  0
LINE
  5
1707
  8
247
 10
-99.646206149613633
 20
-3.535797186418804
 30
0.0
 11
-99.165435641801125
 21
-3.535797186418804
 31
0.0
  0
LINE
  5
1708
  8
247
 10
-98.238755412369557
 20
-3.9375065178621318
 30
0.0
 11
-97.948465172208515
 21
-3.6472162777009909
 31
0.0
  0
LINE
  5
1709
  8
247
 10
-99.111101657426417
 20
-3.7686018739187972
 30
0.0
 11
-98.990005954301381
 21
-3.7686018739195362
 31
0.0
  0
LINE
  5
170A
  8
247
 10
-99.646206149613633
 20
-3.7686018739187972
 30
0.0
 11
-99.232188571488606
 21
-3.7686018739187972
 31
0.0
  0
LINE
  5
170B
  8
247
 10
-99.048002437918555
 20
-3.9708594145506728
 30
0.0
 11
-98.6129402097867
 21
-3.5357971864188609
 31
0.0
  0
LINE
  5
170C
  8
247
 10
-98.208916461220383
 20
-4.1662989429996884
 30
0.0
 11
-97.819340291569688
 21
-3.7767227733489639
 31
0.0
  0
ARC
  5
170D
  8
247
 10
-98.290932712113658
 20
-4.1178001161062907
 30
0.0
 40
0.5820078735351563
 50
287.669577547399
 51
90.236159842671427
  0
LINE
  5
170E
  8
247
 10
-99.151978595366444
 20
-4.3334669482854187
 30
0.0
 11
-98.354308833499942
 21
-3.5357971864188888
 31
0.0
  0
LINE
  5
170F
  8
247
 10
-98.5668060090361
 20
-4.7828198671022468
 30
0.0
 11
-97.733719385599542
 21
-3.949733243665619
 31
0.0
  0
LINE
  5
1710
  8
247
 10
-97.852973727738686
 20
-5.6310220704519756
 30
0.0
 11
-97.325603610551155
 21
-3.7918753114187922
 31
0.0
  0
LINE
  5
1711
  8
247
 10
-98.410511257614885
 20
-3.7746867998645111
 30
0.0
 11
-98.601292081818343
 21
-4.4400334960760537
 31
0.0
  0
ARC
  5
1712
  8
247
 10
-98.550658298051161
 20
-4.094526678606325
 30
0.0
 40
0.349197280883789
 50
261.66260168792923
 51
66.338155095189919
  0
LINE
  5
1713
  8
247
 10
-99.255954752814375
 20
-4.6960744820201077
 30
0.0
 11
-98.441041675909872
 21
-3.881161405115634
 31
0.0
  0
LINE
  5
1714
  8
247
 10
-99.524046969926147
 20
-5.6310220704519756
 30
0.0
 11
-98.990005954301381
 21
-3.7686018739195362
 31
0.0
  0
ARC
  5
1715
  8
247
 10
-94.920300876176157
 20
-4.7580130067313
 30
0.0
 40
1.2222158203124971
 50
270.0
 51
104.77079396609309
  0
ARC
  5
1716
  8
247
 10
-94.920300876176157
 20
-4.7580130067313
 30
0.0
 40
0.9894111328124999
 50
270.0
 51
104.12743649641099
  0
LINE
  5
1717
  8
247
 10
-95.912383883988667
 20
-5.1978704286062927
 30
0.0
 11
-95.762890719926176
 21
-4.6765296082937899
 31
0.0
  0
LINE
  5
1718
  8
247
 10
-95.956636813676155
 20
-4.6765296082937899
 30
0.0
 11
-95.762890719926176
 21
-4.6765296082937899
 31
0.0
  0
LINE
  5
1719
  8
247
 10
-95.688781344926156
 20
-5.4944664063895203
 30
0.0
 11
-95.552216891801152
 21
-5.6310220704519756
 31
0.0
  0
LINE
  5
171A
  8
247
 10
-95.956636813676155
 20
-4.6765296082937899
 30
0.0
 11
-95.889883883988674
 21
-4.4437249207937981
 31
0.0
  0
LINE
  5
171B
  8
247
 10
-95.889883883988674
 20
-4.4437249207937981
 30
0.0
 11
-95.211763766801155
 21
-4.4437249207937981
 31
0.0
  0
LINE
  5
171C
  8
247
 10
-95.552216891801152
 20
-5.6310220704519756
 30
0.0
 11
-95.211763766801155
 21
-4.4437249207937981
 31
0.0
  0
POLYLINE
  5
171D
  8
247
 66
     1
 10
0.0
 20
0.0
 30
0.0
 70
     1
1001
HATCH_DISTANCE
1040
1.0
1001
HATCH_DISPLAY
1070
     0
1001
HATCH_TYPE
1070
     7
  0
VERTEX
  5
171E
  8
247
 10
-95.161797946488662
 20
-3.7985198426687918
 30
0.0
  0
VERTEX
  5
171F
  8
247
 10
-95.231908298051138
 20
-3.5761829286063112
 30
0.0
  0
VERTEX
  5
1720
  8
247
 10
-95.231908298051138
 20
-3.5761829286063112
 30
0.0
  0
VERTEX
  5
1721
  8
247
 10
-95.161797946488662
 20
-3.7985198426687918
 30
0.0
  0
SEQEND
  5
1722
  8
247
  0
POLYLINE
  5
1723
  8
247
 66
     1
 10
0.0
 20
0.0
 30
0.0
 70
     1
  0
VERTEX
  5
1724
  8
247
 10
-95.161797946488662
 20
-3.7985198426687918
 30
0.0
  0
VERTEX
  5
1725
  8
247
 10
-95.231908298051138
 20
-3.5761829286063112
 30
0.0
  0
VERTEX
  5
1726
  8
247
 10
-95.231908298051138
 20
-3.5761829286063112
 30
0.0
  0
VERTEX
  5
1727
  8
247
 10
-95.161797946488662
 20
-3.7985198426687918
 30
0.0
  0
SEQEND
  5
1728
  8
247
  0
LINE
  5
1729
  8
247
 10
-95.161797946488662
 20
-3.7985198426687949
 30
0.0
 11
-95.231908298051167
 21
-3.5761829286063138
 31
0.0
  0
POLYLINE
  5
172A
  8
247
 66
     1
 10
0.0
 20
0.0
 30
0.0
 70
     1
1001
HATCH_DISTANCE
1040
1.0
1001
HATCH_DISPLAY
1070
     0
1001
HATCH_TYPE
1070
     7
  0
VERTEX
  5
172B
  8
247
 10
-95.161797946488662
 20
-3.7985198426687918
 30
0.0
  0
VERTEX
  5
172C
  8
247
 10
-95.231908298051138
 20
-3.5761829286063112
 30
0.0
  0
VERTEX
  5
172D
  8
247
 10
-95.231908298051138
 20
-3.5761829286063112
 30
0.0
  0
VERTEX
  5
172E
  8
247
 10
-95.161797946488662
 20
-3.7985198426687918
 30
0.0
  0
SEQEND
  5
172F
  8
247
  0
POLYLINE
  5
1730
  8
247
 66
     1
 10
0.0
 20
0.0
 30
0.0
 70
     1
  0
VERTEX
  5
1731
  8
247
 10
-95.161797946488662
 20
-3.7985198426687918
 30
0.0
  0
VERTEX
  5
1732
  8
247
 10
-95.231908298051138
 20
-3.5761829286063112
 30
0.0
  0
VERTEX
  5
1733
  8
247
 10
-95.231908298051138
 20
-3.5761829286063112
 30
0.0
  0
VERTEX
  5
1734
  8
247
 10
-95.161797946488662
 20
-3.7985198426687918
 30
0.0
  0
SEQEND
  5
1735
  8
247
  0
LINE
  5
1736
  8
247
 10
-95.272812594926165
 20
-3.833526678606304
 30
0.0
 11
-95.342922946488656
 21
-3.6111897645437661
 31
0.0
  0
ARC
  5
1737
  8
247
 10
-94.920300876176157
 20
-4.7580130067313
 30
0.0
 40
1.222216369628905
 50
110.22964506332001
 51
118.57168892371639
  0
ARC
  5
1738
  8
247
 10
-95.833607516801166
 20
-4.0363255067312984
 30
0.0
 40
0.2444448051452637
 50
1.7101213820627339
 51
163.998398354447
  0
ARC
  5
1739
  8
247
 10
-94.920300876176157
 20
-4.7580130067313
 30
0.0
 40
0.9894138793945311
 50
110.8721834020735
 51
132.54194893738719
  0
ARC
  5
173A
  8
247
 10
-94.885337985551146
 20
-4.9141946473562932
 30
0.0
 40
1.9799648437499999
 50
155.20517736984061
 51
172.7948259620521
  0
ARC
  5
173B
  8
247
 10
-96.147359469926172
 20
-5.1304934754813116
 30
0.0
 40
0.2444446334838867
 50
164.00027305718231
 51
344.00027305718243
  0
LINE
  5
173C
  8
247
 10
-96.382335055863663
 20
-5.0631165223563102
 30
0.0
 11
-96.068583102738657
 21
-3.968939764543804
 31
0.0
  0
ARC
  5
173D
  8
247
 10
-95.955476657426146
 20
-4.2924036317312861
 30
0.0
 40
0.7566075439453125
 50
53.444012197057731
 51
164.00018438768549
  0
LINE
  5
173E
  8
245
 10
-107.4746473366104
 20
0.0000000000000142
 30
0.0
 11
2.3694943608761321
 21
0.0
 31
0.0
  0
LINE
  5
173F
  8
240
 10
-104.5023503878475
 20
-7.9999999999999849
 30
0.0
 11
-40.802350387847547
 21
-7.9999999999999849
 31
0.0
  0
LINE
  5
1740
  8
240
 10
-104.5023503878475
 20
8.0000000000000142
 30
0.0
 11
-40.802350387847547
 21
8.0000000000000142
 31
0.0
  0
LINE
  5
1741
  8
240
 10
-105.5023503878475
 20
0.0000000000000142
 30
0.0
 11
-105.5023503878475
 21
7.0000000000000142
 31
0.0
  0
ARC
  5
1742
  8
240
 10
-104.5023503878475
 20
-6.9999999999999574
 30
0.0
 40
1.0
 50
180.0
 51
270.0
  0
LINE
  5
1743
  8
240
 10
-105.5023503878475
 20
-6.9999999999999849
 30
0.0
 11
-105.5023503878475
 21
0.0000000000000142
 31
0.0
  0
ARC
  5
1744
  8
240
 10
-104.5023503878475
 20
7.0000000000000417
 30
0.0
 40
1.0
 50
90.0
 51
180.0
  0
LINE
  5
1745
  8
240
 10
-40.170979537949037
 20
-7.6999999999999744
 30
0.0
 11
-5.6682051036783028
 21
-7.6999999999999744
 31
0.0
  0
LINE
  5
1746
  8
241
 10
-40.802350387847547
 20
-7.9999999999999574
 30
0.0
 11
-40.802350387847547
 21
8.0000000000000142
 31
0.0
  0
ARC
  5
1747
  8
240
 10
-40.170979537949037
 20
8.5000000000000071
 30
0.0
 40
0.7999999999999984
 50
224.99999999999969
 51
270.0
  0
LINE
  5
1748
  8
240
 10
-11.54251673673067
 20
7.7000000000000313
 30
0.0
 11
-40.170979537949037
 21
7.7000000000000313
 31
0.0
  0
LINE
  5
1749
  8
240
 10
-40.736664962894586
 20
7.9343145750478206
 30
0.0
 11
-40.802350387847547
 21
8.0000000000000142
 31
0.0
  0
LINE
  5
174A
  8
241
 10
-40.170979537949037
 20
7.7000000000000313
 30
0.0
 11
-40.170979537949037
 21
-7.6999999999999744
 31
0.0
  0
LINE
  5
174B
  8
240
 10
-40.736664962894608
 20
-7.9343145750478143
 30
0.0
 11
-40.802350387847561
 21
-8.0000000000000071
 31
0.0
  0
ARC
  5
174C
  8
240
 10
-40.170979537949059
 20
-8.5
 30
0.0
 40
0.7999999999999984
 50
90.0
 51
135.00000000000031
  0
POLYLINE
  5
174D
  8
240
 10
-6.0551506129666839
 20
7.5583142328521884
 30
0.0
 66
     1
 70
     8
  0
VERTEX
  8
240
  5
1868
 10
-6.05515
 20
7.55831
 30
0.000000
  70
    32
  0
VERTEX
  8
240
  5
1869
 10
-6.09750
 20
7.56051
 30
0.000000
  70
    32
  0
VERTEX
  8
240
  5
186A
 10
-6.13986
 20
7.56269
 30
0.000000
  70
    32
  0
VERTEX
  8
240
  5
186B
 10
-6.18223
 20
7.56486
 30
0.000000
  70
    32
  0
VERTEX
  8
240
  5
186C
 10
-6.22461
 20
7.56701
 30
0.000000
  70
    32
  0
VERTEX
  8
240
  5
186D
 10
-6.26701
 20
7.56914
 30
0.000000
  70
    32
  0
VERTEX
  8
240
  5
186E
 10
-6.30942
 20
7.57125
 30
0.000000
  70
    32
  0
VERTEX
  8
240
  5
186F
 10
-6.35184
 20
7.57335
 30
0.000000
  70
    32
  0
VERTEX
  8
240
  5
1870
 10
-6.39427
 20
7.57543
 30
0.000000
  70
    32
  0
VERTEX
  8
240
  5
1871
 10
-6.43671
 20
7.57749
 30
0.000000
  70
    32
  0
VERTEX
  8
240
  5
1872
 10
-6.47917
 20
7.57953
 30
0.000000
  70
    32
  0
VERTEX
  8
240
  5
1873
 10
-6.52163
 20
7.58156
 30
0.000000
  70
    32
  0
VERTEX
  8
240
  5
1874
 10
-6.56411
 20
7.58357
 30
0.000000
  70
    32
  0
VERTEX
  8
240
  5
1875
 10
-6.60660
 20
7.58556
 30
0.000000
  70
    32
  0
VERTEX
  8
240
  5
1876
 10
-6.64910
 20
7.58754
 30
0.000000
  70
    32
  0
VERTEX
  8
240
  5
1877
 10
-6.69161
 20
7.58950
 30
0.000000
  70
    32
  0
VERTEX
  8
240
  5
1878
 10
-6.73413
 20
7.59144
 30
0.000000
  70
    32
  0
VERTEX
  8
240
  5
1879
 10
-6.77666
 20
7.59337
 30
0.000000
  70
    32
  0
VERTEX
  8
240
  5
187A
 10
-6.81920
 20
7.59528
 30
0.000000
  70
    32
  0
VERTEX
  8
240
  5
187B
 10
-6.86176
 20
7.59717
 30
0.000000
  70
    32
  0
VERTEX
  8
240
  5
187C
 10
-6.90432
 20
7.59904
 30
0.000000
  70
    32
  0
VERTEX
  8
240
  5
187D
 10
-6.94690
 20
7.60090
 30
0.000000
  70
    32
  0
VERTEX
  8
240
  5
187E
 10
-6.98948
 20
7.60274
 30
0.000000
  70
    32
  0
VERTEX
  8
240
  5
187F
 10
-7.03208
 20
7.60456
 30
0.000000
  70
    32
  0
VERTEX
  8
240
  5
1880
 10
-7.07468
 20
7.60637
 30
0.000000
  70
    32
  0
VERTEX
  8
240
  5
1881
 10
-7.11730
 20
7.60816
 30
0.000000
  70
    32
  0
VERTEX
  8
240
  5
1882
 10
-7.15992
 20
7.60993
 30
0.000000
  70
    32
  0
VERTEX
  8
240
  5
1883
 10
-7.20256
 20
7.61168
 30
0.000000
  70
    32
  0
VERTEX
  8
240
  5
1884
 10
-7.24520
 20
7.61342
 30
0.000000
  70
    32
  0
VERTEX
  8
240
  5
1885
 10
-7.28786
 20
7.61514
 30
0.000000
  70
    32
  0
VERTEX
  8
240
  5
1886
 10
-7.33052
 20
7.61684
 30
0.000000
  70
    32
  0
VERTEX
  8
240
  5
1887
 10
-7.37319
 20
7.61853
 30
0.000000
  70
    32
  0
VERTEX
  8
240
  5
1888
 10
-7.41588
 20
7.62019
 30
0.000000
  70
    32
  0
VERTEX
  8
240
  5
1889
 10
-7.45857
 20
7.62185
 30
0.000000
  70
    32
  0
VERTEX
  8
240
  5
188A
 10
-7.50127
 20
7.62348
 30
0.000000
  70
    32
  0
VERTEX
  8
240
  5
188B
 10
-7.54398
 20
7.62510
 30
0.000000
  70
    32
  0
VERTEX
  8
240
  5
188C
 10
-7.58670
 20
7.62670
 30
0.000000
  70
    32
  0
VERTEX
  8
240
  5
188D
 10
-7.62943
 20
7.62828
 30
0.000000
  70
    32
  0
VERTEX
  8
240
  5
188E
 10
-7.67217
 20
7.62984
 30
0.000000
  70
    32
  0
VERTEX
  8
240
  5
188F
 10
-7.71492
 20
7.63139
 30
0.000000
  70
    32
  0
VERTEX
  8
240
  5
1890
 10
-7.75767
 20
7.63292
 30
0.000000
  70
    32
  0
VERTEX
  8
240
  5
1891
 10
-7.80043
 20
7.63444
 30
0.000000
  70
    32
  0
VERTEX
  8
240
  5
1892
 10
-7.84321
 20
7.63593
 30
0.000000
  70
    32
  0
VERTEX
  8
240
  5
1893
 10
-7.88599
 20
7.63741
 30
0.000000
  70
    32
  0
VERTEX
  8
240
  5
1894
 10
-7.92877
 20
7.63887
 30
0.000000
  70
    32
  0
VERTEX
  8
240
  5
1895
 10
-7.97157
 20
7.64032
 30
0.000000
  70
    32
  0
VERTEX
  8
240
  5
1896
 10
-8.01438
 20
7.64175
 30
0.000000
  70
    32
  0
VERTEX
  8
240
  5
1897
 10
-8.05719
 20
7.64316
 30
0.000000
  70
    32
  0
VERTEX
  8
240
  5
1898
 10
-8.10001
 20
7.64455
 30
0.000000
  70
    32
  0
VERTEX
  8
240
  5
1899
 10
-8.14284
 20
7.64593
 30
0.000000
  70
    32
  0
VERTEX
  8
240
  5
189A
 10
-8.18567
 20
7.64728
 30
0.000000
  70
    32
  0
VERTEX
  8
240
  5
189B
 10
-8.22852
 20
7.64863
 30
0.000000
  70
    32
  0
VERTEX
  8
240
  5
189C
 10
-8.27137
 20
7.64995
 30
0.000000
  70
    32
  0
VERTEX
  8
240
  5
189D
 10
-8.31422
 20
7.65126
 30
0.000000
  70
    32
  0
VERTEX
  8
240
  5
189E
 10
-8.35709
 20
7.65255
 30
0.000000
  70
    32
  0
VERTEX
  8
240
  5
189F
 10
-8.39996
 20
7.65382
 30
0.000000
  70
    32
  0
VERTEX
  8
240
  5
18A0
 10
-8.44284
 20
7.65508
 30
0.000000
  70
    32
  0
VERTEX
  8
240
  5
18A1
 10
-8.48573
 20
7.65631
 30
0.000000
  70
    32
  0
VERTEX
  8
240
  5
18A2
 10
-8.52862
 20
7.65753
 30
0.000000
  70
    32
  0
VERTEX
  8
240
  5
18A3
 10
-8.57152
 20
7.65874
 30
0.000000
  70
    32
  0
VERTEX
  8
240
  5
18A4
 10
-8.61443
 20
7.65992
 30
0.000000
  70
    32
  0
VERTEX
  8
240
  5
18A5
 10
-8.65734
 20
7.66109
 30
0.000000
  70
    32
  0
VERTEX
  8
240
  5
18A6
 10
-8.70026
 20
7.66224
 30
0.000000
  70
    32
  0
VERTEX
  8
240
  5
18A7
 10
-8.74319
 20
7.66338
 30
0.000000
  70
    32
  0
VERTEX
  8
240
  5
18A8
 10
-8.78612
 20
7.66450
 30
0.000000
  70
    32
  0
VERTEX
  8
240
  5
18A9
 10
-8.82906
 20
7.66560
 30
0.000000
  70
    32
  0
VERTEX
  8
240
  5
18AA
 10
-8.87201
 20
7.66668
 30
0.000000
  70
    32
  0
VERTEX
  8
240
  5
18AB
 10
-8.91496
 20
7.66774
 30
0.000000
  70
    32
  0
VERTEX
  8
240
  5
18AC
 10
-8.95792
 20
7.66879
 30
0.000000
  70
    32
  0
VERTEX
  8
240
  5
18AD
 10
-9.00088
 20
7.66982
 30
0.000000
  70
    32
  0
VERTEX
  8
240
  5
18AE
 10
-9.04385
 20
7.67084
 30
0.000000
  70
    32
  0
VERTEX
  8
240
  5
18AF
 10
-9.08682
 20
7.67183
 30
0.000000
  70
    32
  0
VERTEX
  8
240
  5
18B0
 10
-9.12980
 20
7.67281
 30
0.000000
  70
    32
  0
VERTEX
  8
240
  5
18B1
 10
-9.17279
 20
7.67377
 30
0.000000
  70
    32
  0
VERTEX
  8
240
  5
18B2
 10
-9.21578
 20
7.67472
 30
0.000000
  70
    32
  0
VERTEX
  8
240
  5
18B3
 10
-9.25878
 20
7.67565
 30
0.000000
  70
    32
  0
VERTEX
  8
240
  5
18B4
 10
-9.30178
 20
7.67656
 30
0.000000
  70
    32
  0
VERTEX
  8
240
  5
18B5
 10
-9.34478
 20
7.67745
 30
0.000000
  70
    32
  0
VERTEX
  8
240
  5
18B6
 10
-9.38779
 20
7.67832
 30
0.000000
  70
    32
  0
VERTEX
  8
240
  5
18B7
 10
-9.43081
 20
7.67918
 30
0.000000
  70
    32
  0
VERTEX
  8
240
  5
18B8
 10
-9.47383
 20
7.68002
 30
0.000000
  70
    32
  0
VERTEX
  8
240
  5
18B9
 10
-9.51686
 20
7.68085
 30
0.000000
  70
    32
  0
VERTEX
  8
240
  5
18BA
 10
-9.55989
 20
7.68165
 30
0.000000
  70
    32
  0
VERTEX
  8
240
  5
18BB
 10
-9.60292
 20
7.68244
 30
0.000000
  70
    32
  0
VERTEX
  8
240
  5
18BC
 10
-9.64596
 20
7.68321
 30
0.000000
  70
    32
  0
VERTEX
  8
240
  5
18BD
 10
-9.68900
 20
7.68397
 30
0.000000
  70
    32
  0
VERTEX
  8
240
  5
18BE
 10
-9.73205
 20
7.68470
 30
0.000000
  70
    32
  0
VERTEX
  8
240
  5
18BF
 10
-9.77510
 20
7.68542
 30
0.000000
  70
    32
  0
VERTEX
  8
240
  5
18C0
 10
-9.81816
 20
7.68613
 30
0.000000
  70
    32
  0
VERTEX
  8
240
  5
18C1
 10
-9.86121
 20
7.68681
 30
0.000000
  70
    32
  0
VERTEX
  8
240
  5
18C2
 10
-9.90428
 20
7.68748
 30
0.000000
  70
    32
  0
VERTEX
  8
240
  5
18C3
 10
-9.94734
 20
7.68813
 30
0.000000
  70
    32
  0
VERTEX
  8
240
  5
18C4
 10
-9.99041
 20
7.68876
 30
0.000000
  70
    32
  0
VERTEX
  8
240
  5
18C5
 10
-10.0335
 20
7.68938
 30
0.000000
  70
    32
  0
VERTEX
  8
240
  5
18C6
 10
-10.0766
 20
7.68997
 30
0.000000
  70
    32
  0
VERTEX
  8
240
  5
18C7
 10
-10.1196
 20
7.69056
 30
0.000000
  70
    32
  0
VERTEX
  8
240
  5
18C8
 10
-10.1627
 20
7.69112
 30
0.000000
  70
    32
  0
VERTEX
  8
240
  5
18C9
 10
-10.2058
 20
7.69167
 30
0.000000
  70
    32
  0
VERTEX
  8
240
  5
18CA
 10
-10.2489
 20
7.69219
 30
0.000000
  70
    32
  0
VERTEX
  8
240
  5
18CB
 10
-10.2920
 20
7.69271
 30
0.000000
  70
    32
  0
VERTEX
  8
240
  5
18CC
 10
-10.3351
 20
7.69320
 30
0.000000
  70
    32
  0
VERTEX
  8
240
  5
18CD
 10
-10.3782
 20
7.69368
 30
0.000000
  70
    32
  0
VERTEX
  8
240
  5
18CE
 10
-10.4213
 20
7.69414
 30
0.000000
  70
    32
  0
VERTEX
  8
240
  5
18CF
 10
-10.4644
 20
7.69458
 30
0.000000
  70
    32
  0
VERTEX
  8
240
  5
18D0
 10
-10.5075
 20
7.69500
 30
0.000000
  70
    32
  0
VERTEX
  8
240
  5
18D1
 10
-10.5506
 20
7.69541
 30
0.000000
  70
    32
  0
VERTEX
  8
240
  5
18D2
 10
-10.5937
 20
7.69580
 30
0.000000
  70
    32
  0
VERTEX
  8
240
  5
18D3
 10
-10.6368
 20
7.69617
 30
0.000000
  70
    32
  0
VERTEX
  8
240
  5
18D4
 10
-10.6799
 20
7.69653
 30
0.000000
  70
    32
  0
VERTEX
  8
240
  5
18D5
 10
-10.7231
 20
7.69687
 30
0.000000
  70
    32
  0
VERTEX
  8
240
  5
18D6
 10
-10.7662
 20
7.69719
 30
0.000000
  70
    32
  0
VERTEX
  8
240
  5
18D7
 10
-10.8093
 20
7.69749
 30
0.000000
  70
    32
  0
VERTEX
  8
240
  5
18D8
 10
-10.8524
 20
7.69778
 30
0.000000
  70
    32
  0
VERTEX
  8
240
  5
18D9
 10
-10.8955
 20
7.69805
 30
0.000000
  70
    32
  0
VERTEX
  8
240
  5
18DA
 10
-10.9387
 20
7.69830
 30
0.000000
  70
    32
  0
VERTEX
  8
240
  5
18DB
 10
-10.9818
 20
7.69853
 30
0.000000
  70
    32
  0
VERTEX
  8
240
  5
18DC
 10
-11.0249
 20
7.69875
 30
0.000000
  70
    32
  0
VERTEX
  8
240
  5
18DD
 10
-11.0681
 20
7.69895
 30
0.000000
  70
    32
  0
VERTEX
  8
240
  5
18DE
 10
-11.1112
 20
7.69913
 30
0.000000
  70
    32
  0
VERTEX
  8
240
  5
18DF
 10
-11.1543
 20
7.69930
 30
0.000000
  70
    32
  0
VERTEX
  8
240
  5
18E0
 10
-11.1974
 20
7.69944
 30
0.000000
  70
    32
  0
VERTEX
  8
240
  5
18E1
 10
-11.2406
 20
7.69957
 30
0.000000
  70
    32
  0
VERTEX
  8
240
  5
18E2
 10
-11.2837
 20
7.69969
 30
0.000000
  70
    32
  0
VERTEX
  8
240
  5
18E3
 10
-11.3268
 20
7.69978
 30
0.000000
  70
    32
  0
VERTEX
  8
240
  5
18E4
 10
-11.3700
 20
7.69986
 30
0.000000
  70
    32
  0
VERTEX
  8
240
  5
18E5
 10
-11.4131
 20
7.69992
 30
0.000000
  70
    32
  0
VERTEX
  8
240
  5
18E6
 10
-11.4562
 20
7.69997
 30
0.000000
  70
    32
  0
VERTEX
  8
240
  5
18E7
 10
-11.4994
 20
7.69999
 30
0.000000
  70
    32
  0
VERTEX
  8
240
  5
18E8
 10
-11.5425
 20
7.70000
 30
0.000000
  70
    32
  0
SEQEND
  8
240
  5
18E9
  0
ARC
  5
174E
  8
240
 10
-5.6682051036783028
 20
-7.2000000000000171
 30
0.0
 40
0.5000000000000233
 50
270.0
 51
326.00000000000068
  0
LINE
  5
174F
  8
240
 10
-5.4231411938008023
 20
7.9232050765541109
 30
0.0
 11
-6.0551506129667132
 21
7.5583142328521902
 31
0.0
  0
LINE
  5
1750
  8
241
 10
-12.604206101053901
 20
2.5268568265227032
 30
0.0
 11
-8.6870480530563157
 21
-4.25785993388613
 31
0.0
  0
LINE
  5
1751
  8
241
 10
-12.6241861855554
 20
2.678620635541221
 30
0.0
 11
-12.30104362654305
 21
3.8846050838628439
 31
0.0
  0
LINE
  5
1752
  8
240
 10
-0.0267949155656595
 20
0.7421403909691833
 30
0.0
 11
-3.943953003173589
 21
7.5268577961910799
 31
0.0
  0
LINE
  5
1753
  8
241
 10
-7.2078593522174108
 20
-4.6542073538329873
 30
0.0
 11
-1.5023503878475131
 21
-1.360130326703028
 31
0.0
  0
LINE
  5
1754
  8
240
 10
-1.5023503436577239
 20
-1.360131044923051
 30
0.0
 11
-0.4231425624053884
 21
-0.7370494189364081
 31
0.0
  0
LINE
  5
1755
  8
240
 10
-0.3299574841710751
 20
-0.6156081974430592
 30
0.0
 11
-0.0068148347421868
 21
0.5903765883181933
 31
0.0
  0
LINE
  5
1756
  8
240
 10
-4.0653942785874051
 20
7.6200429678183923
 30
0.0
 11
-5.2713773775008121
 21
7.9431851652578302
 31
0.0
  0
LINE
  5
1757
  8
241
 10
-7.3596231587491161
 20
-4.6741874368969709
 30
0.0
 11
-8.565606781319957
 21
-4.3510450991439242
 31
0.0
  0
ARC
  5
1758
  8
240
 10
-5.3231411865213261
 20
7.7500000000000284
 30
0.0
 40
0.2
 50
75.000000000000512
 51
120.00000240802559
1001
GENIUS_GENOBJ-N-FIL_13
1002
{
1000
OWNER
1000
GEN
1002
}
1001
GENIUS_GENODEF_13
1002
{
1000
HIER
1070
     0
1002
}
1002
{
1000
MANEDIT
1070
     0
1002
}
1002
{
1000
NOSEL
1070
     0
1002
}
1002
{
1000
BEHIND
1070
     0
1002
}
1002
{
1000
OTHER
1070
     0
1002
}
1002
{
1000
REACTOR
1002
}
  0
ARC
  5
1759
  8
240
 10
-4.117158087607919
 20
7.4268578025605896
 30
0.0
 40
0.2
 50
29.99999789297835
 51
75.000000000000512
1001
GENIUS_GENOBJ-N-FIL_13
1002
{
1000
OWNER
1000
GEN
1002
}
1001
GENIUS_GENODEF_13
1002
{
1000
HIER
1070
     0
1002
}
1002
{
1000
MANEDIT
1070
     0
1002
}
1002
{
1000
NOSEL
1070
     0
1002
}
1002
{
1000
BEHIND
1070
     0
1002
}
1002
{
1000
OTHER
1070
     0
1002
}
1002
{
1000
REACTOR
1002
}
  0
ARC
  5
175A
  8
240
 10
-0.1999999999999886
 20
0.6421403973387072
 30
0.0
 40
0.2
 50
344.9999999999996
 51
29.99999789297835
1001
GENIUS_GENODEF_13
1002
{
1000
HIER
1070
     0
1002
}
1002
{
1000
MANEDIT
1070
     0
1002
}
1002
{
1000
NOSEL
1070
     0
1002
}
1002
{
1000
BEHIND
1070
     0
1002
}
1002
{
1000
OTHER
1070
     0
1002
}
1002
{
1000
REACTOR
1002
}
1001
GENIUS_GENOBJ-N-FIL_13
1002
{
1000
OWNER
1000
GEN
1002
}
  0
ARC
  5
175B
  8
240
 10
-0.5231426494288769
 20
-0.5638443884225524
 30
0.0
 40
0.2
 50
300.00002878713502
 51
344.9999999999996
1001
GENIUS_GENODEF_13
1002
{
1000
HIER
1070
     0
1002
}
1002
{
1000
MANEDIT
1070
     0
1002
}
1002
{
1000
NOSEL
1070
     0
1002
}
1002
{
1000
BEHIND
1070
     0
1002
}
1002
{
1000
OTHER
1070
     0
1002
}
1002
{
1000
REACTOR
1002
}
1001
GENIUS_GENOBJ-N-FIL_13
1002
{
1000
OWNER
1000
GEN
1002
}
  0
ARC
  5
175C
  8
241
 10
-7.3078593497285729
 20
-4.481002271639162
 30
0.0
 40
0.2
 50
255.00000000000051
 51
299.99999917669339
1001
GENIUS_GENOBJ-N-FIL_13
1002
{
1000
OWNER
1000
GEN
1002
}
1001
GENIUS_GENODEF_13
1002
{
1000
HIER
1070
     0
1002
}
1002
{
1000
MANEDIT
1070
     0
1002
}
1002
{
1000
NOSEL
1070
     0
1002
}
1002
{
1000
BEHIND
1070
     0
1002
}
1002
{
1000
OTHER
1070
     0
1002
}
1002
{
1000
REACTOR
1002
}
  0
ARC
  5
175D
  8
241
 10
-8.5138429722994431
 20
-4.1578599338861153
 30
0.0
 40
0.2
 50
209.9999999999994
 51
255.00000000000051
1001
GENIUS_GENOBJ-N-FIL_13
1002
{
1000
OWNER
1000
GEN
1002
}
1001
GENIUS_GENODEF_13
1002
{
1000
HIER
1070
     0
1002
}
1002
{
1000
MANEDIT
1070
     0
1002
}
1002
{
1000
NOSEL
1070
     0
1002
}
1002
{
1000
BEHIND
1070
     0
1002
}
1002
{
1000
OTHER
1070
     0
1002
}
1002
{
1000
REACTOR
1002
}
  0
ARC
  5
175E
  8
241
 10
-12.43100102029703
 20
2.626856826522725
 30
0.0
 40
0.2
 50
165.00000000059131
 51
209.9999999999994
1001
GENIUS_GENOBJ-N-FIL_13
1002
{
1000
OWNER
1000
GEN
1002
}
1001
GENIUS_GENODEF_13
1002
{
1000
HIER
1070
     0
1002
}
1002
{
1000
MANEDIT
1070
     0
1002
}
1002
{
1000
NOSEL
1070
     0
1002
}
1002
{
1000
BEHIND
1070
     0
1002
}
1002
{
1000
OTHER
1070
     0
1002
}
1002
{
1000
REACTOR
1002
}
  0
ARC
  5
175F
  8
241
 10
-12.10785846128525
 20
3.8328412748423371
 30
0.0
 40
0.2
 50
120.00000240802559
 51
164.9999999999996
1001
GENIUS_GENOBJ-N-FIL_13
1002
{
1000
OWNER
1000
GEN
1002
}
1001
GENIUS_GENODEF_13
1002
{
1000
HIER
1070
     0
1002
}
1002
{
1000
MANEDIT
1070
     0
1002
}
1002
{
1000
NOSEL
1070
     0
1002
}
1002
{
1000
BEHIND
1070
     0
1002
}
1002
{
1000
OTHER
1070
     0
1002
}
1002
{
1000
REACTOR
1002
}
  0
CIRCLE
  5
1760
  8
246
 10
-6.3155003850844764
 20
1.6344988955196409
 30
0.0
 40
4.9999995494399716
  0
POLYLINE
  8
241
  5
18EA
  66
     1
 10
0.000000
 20
0.000000
 30
0.000000
  70
     8
  0
VERTEX
  8
241
  5
18EB
 10
-16.1431
 20
7.70000
 30
0.000000
  70
    32
  0
VERTEX
  8
241
  5
18EC
 10
-16.1149
 20
7.68426
 30
0.000000
  70
    32
  0
VERTEX
  8
241
  5
18ED
 10
-16.0867
 20
7.66851
 30
0.000000
  70
    32
  0
VERTEX
  8
241
  5
18EE
 10
-16.0585
 20
7.65275
 30
0.000000
  70
    32
  0
VERTEX
  8
241
  5
18EF
 10
-16.0303
 20
7.63695
 30
0.000000
  70
    32
  0
VERTEX
  8
241
  5
18F0
 10
-16.0022
 20
7.62111
 30
0.000000
  70
    32
  0
VERTEX
  8
241
  5
18F1
 10
-15.9741
 20
7.60521
 30
0.000000
  70
    32
  0
VERTEX
  8
241
  5
18F2
 10
-15.9461
 20
7.58926
 30
0.000000
  70
    32
  0
VERTEX
  8
241
  5
18F3
 10
-15.9181
 20
7.57323
 30
0.000000
  70
    32
  0
VERTEX
  8
241
  5
18F4
 10
-15.8902
 20
7.55713
 30
0.000000
  70
    32
  0
VERTEX
  8
241
  5
18F5
 10
-15.8623
 20
7.54093
 30
0.000000
  70
    32
  0
VERTEX
  8
241
  5
18F6
 10
-15.8346
 20
7.52462
 30
0.000000
  70
    32
  0
VERTEX
  8
241
  5
18F7
 10
-15.8069
 20
7.50821
 30
0.000000
  70
    32
  0
VERTEX
  8
241
  5
18F8
 10
-15.7793
 20
7.49167
 30
0.000000
  70
    32
  0
VERTEX
  8
241
  5
18F9
 10
-15.7518
 20
7.47499
 30
0.000000
  70
    32
  0
VERTEX
  8
241
  5
18FA
 10
-15.7244
 20
7.45818
 30
0.000000
  70
    32
  0
VERTEX
  8
241
  5
18FB
 10
-15.6972
 20
7.44121
 30
0.000000
  70
    32
  0
VERTEX
  8
241
  5
18FC
 10
-15.6701
 20
7.42407
 30
0.000000
  70
    32
  0
VERTEX
  8
241
  5
18FD
 10
-15.6431
 20
7.40676
 30
0.000000
  70
    32
  0
VERTEX
  8
241
  5
18FE
 10
-15.6163
 20
7.38926
 30
0.000000
  70
    32
  0
VERTEX
  8
241
  5
18FF
 10
-15.5896
 20
7.37157
 30
0.000000
  70
    32
  0
VERTEX
  8
241
  5
1900
 10
-15.5631
 20
7.35368
 30
0.000000
  70
    32
  0
VERTEX
  8
241
  5
1901
 10
-15.5367
 20
7.33556
 30
0.000000
  70
    32
  0
VERTEX
  8
241
  5
1902
 10
-15.5106
 20
7.31723
 30
0.000000
  70
    32
  0
VERTEX
  8
241
  5
1903
 10
-15.4846
 20
7.29865
 30
0.000000
  70
    32
  0
VERTEX
  8
241
  5
1904
 10
-15.4588
 20
7.27983
 30
0.000000
  70
    32
  0
VERTEX
  8
241
  5
1905
 10
-15.4332
 20
7.26075
 30
0.000000
  70
    32
  0
VERTEX
  8
241
  5
1906
 10
-15.4078
 20
7.24141
 30
0.000000
  70
    32
  0
VERTEX
  8
241
  5
1907
 10
-15.3826
 20
7.22178
 30
0.000000
  70
    32
  0
VERTEX
  8
241
  5
1908
 10
-15.3577
 20
7.20189
 30
0.000000
  70
    32
  0
VERTEX
  8
241
  5
1909
 10
-15.3329
 20
7.18172
 30
0.000000
  70
    32
  0
VERTEX
  8
241
  5
190A
 10
-15.3084
 20
7.16129
 30
0.000000
  70
    32
  0
VERTEX
  8
241
  5
190B
 10
-15.2841
 20
7.14060
 30
0.000000
  70
    32
  0
VERTEX
  8
241
  5
190C
 10
-15.2600
 20
7.11966
 30
0.000000
  70
    32
  0
VERTEX
  8
241
  5
190D
 10
-15.2361
 20
7.09847
 30
0.000000
  70
    32
  0
VERTEX
  8
241
  5
190E
 10
-15.2123
 20
7.07704
 30
0.000000
  70
    32
  0
VERTEX
  8
241
  5
190F
 10
-15.1888
 20
7.05538
 30
0.000000
  70
    32
  0
VERTEX
  8
241
  5
1910
 10
-15.1655
 20
7.03349
 30
0.000000
  70
    32
  0
VERTEX
  8
241
  5
1911
 10
-15.1423
 20
7.01137
 30
0.000000
  70
    32
  0
VERTEX
  8
241
  5
1912
 10
-15.1194
 20
6.98904
 30
0.000000
  70
    32
  0
VERTEX
  8
241
  5
1913
 10
-15.0966
 20
6.96649
 30
0.000000
  70
    32
  0
VERTEX
  8
241
  5
1914
 10
-15.0740
 20
6.94374
 30
0.000000
  70
    32
  0
VERTEX
  8
241
  5
1915
 10
-15.0515
 20
6.92079
 30
0.000000
  70
    32
  0
VERTEX
  8
241
  5
1916
 10
-15.0293
 20
6.89764
 30
0.000000
  70
    32
  0
VERTEX
  8
241
  5
1917
 10
-15.0071
 20
6.87430
 30
0.000000
  70
    32
  0
VERTEX
  8
241
  5
1918
 10
-14.9852
 20
6.85078
 30
0.000000
  70
    32
  0
VERTEX
  8
241
  5
1919
 10
-14.9634
 20
6.82708
 30
0.000000
  70
    32
  0
VERTEX
  8
241
  5
191A
 10
-14.9418
 20
6.80321
 30
0.000000
  70
    32
  0
VERTEX
  8
241
  5
191B
 10
-14.9203
 20
6.77918
 30
0.000000
  70
    32
  0
VERTEX
  8
241
  5
191C
 10
-14.8990
 20
6.75498
 30
0.000000
  70
    32
  0
VERTEX
  8
241
  5
191D
 10
-14.8778
 20
6.73063
 30
0.000000
  70
    32
  0
VERTEX
  8
241
  5
191E
 10
-14.8568
 20
6.70613
 30
0.000000
  70
    32
  0
VERTEX
  8
241
  5
191F
 10
-14.8359
 20
6.68149
 30
0.000000
  70
    32
  0
VERTEX
  8
241
  5
1920
 10
-14.8151
 20
6.65671
 30
0.000000
  70
    32
  0
VERTEX
  8
241
  5
1921
 10
-14.7945
 20
6.63180
 30
0.000000
  70
    32
  0
VERTEX
  8
241
  5
1922
 10
-14.7740
 20
6.60676
 30
0.000000
  70
    32
  0
VERTEX
  8
241
  5
1923
 10
-14.7537
 20
6.58161
 30
0.000000
  70
    32
  0
VERTEX
  8
241
  5
1924
 10
-14.7334
 20
6.55634
 30
0.000000
  70
    32
  0
VERTEX
  8
241
  5
1925
 10
-14.7133
 20
6.53096
 30
0.000000
  70
    32
  0
VERTEX
  8
241
  5
1926
 10
-14.6933
 20
6.50548
 30
0.000000
  70
    32
  0
VERTEX
  8
241
  5
1927
 10
-14.6734
 20
6.47990
 30
0.000000
  70
    32
  0
VERTEX
  8
241
  5
1928
 10
-14.6536
 20
6.45423
 30
0.000000
  70
    32
  0
VERTEX
  8
241
  5
1929
 10
-14.6339
 20
6.42847
 30
0.000000
  70
    32
  0
VERTEX
  8
241
  5
192A
 10
-14.6143
 20
6.40264
 30
0.000000
  70
    32
  0
VERTEX
  8
241
  5
192B
 10
-14.5948
 20
6.37673
 30
0.000000
  70
    32
  0
VERTEX
  8
241
  5
192C
 10
-14.5754
 20
6.35075
 30
0.000000
  70
    32
  0
VERTEX
  8
241
  5
192D
 10
-14.5561
 20
6.32471
 30
0.000000
  70
    32
  0
VERTEX
  8
241
  5
192E
 10
-14.5369
 20
6.29861
 30
0.000000
  70
    32
  0
VERTEX
  8
241
  5
192F
 10
-14.5178
 20
6.27246
 30
0.000000
  70
    32
  0
VERTEX
  8
241
  5
1930
 10
-14.4988
 20
6.24627
 30
0.000000
  70
    32
  0
VERTEX
  8
241
  5
1931
 10
-14.4798
 20
6.22003
 30
0.000000
  70
    32
  0
VERTEX
  8
241
  5
1932
 10
-14.4609
 20
6.19375
 30
0.000000
  70
    32
  0
VERTEX
  8
241
  5
1933
 10
-14.4422
 20
6.16743
 30
0.000000
  70
    32
  0
VERTEX
  8
241
  5
1934
 10
-14.4234
 20
6.14107
 30
0.000000
  70
    32
  0
VERTEX
  8
241
  5
1935
 10
-14.4048
 20
6.11466
 30
0.000000
  70
    32
  0
VERTEX
  8
241
  5
1936
 10
-14.3862
 20
6.08821
 30
0.000000
  70
    32
  0
VERTEX
  8
241
  5
1937
 10
-14.3677
 20
6.06172
 30
0.000000
  70
    32
  0
VERTEX
  8
241
  5
1938
 10
-14.3493
 20
6.03519
 30
0.000000
  70
    32
  0
VERTEX
  8
241
  5
1939
 10
-14.3310
 20
6.00861
 30
0.000000
  70
    32
  0
VERTEX
  8
241
  5
193A
 10
-14.3128
 20
5.98200
 30
0.000000
  70
    32
  0
VERTEX
  8
241
  5
193B
 10
-14.2946
 20
5.95535
 30
0.000000
  70
    32
  0
VERTEX
  8
241
  5
193C
 10
-14.2765
 20
5.92865
 30
0.000000
  70
    32
  0
VERTEX
  8
241
  5
193D
 10
-14.2584
 20
5.90192
 30
0.000000
  70
    32
  0
VERTEX
  8
241
  5
193E
 10
-14.2405
 20
5.87515
 30
0.000000
  70
    32
  0
VERTEX
  8
241
  5
193F
 10
-14.2226
 20
5.84834
 30
0.000000
  70
    32
  0
VERTEX
  8
241
  5
1940
 10
-14.2047
 20
5.82149
 30
0.000000
  70
    32
  0
VERTEX
  8
241
  5
1941
 10
-14.1870
 20
5.79461
 30
0.000000
  70
    32
  0
VERTEX
  8
241
  5
1942
 10
-14.1693
 20
5.76768
 30
0.000000
  70
    32
  0
VERTEX
  8
241
  5
1943
 10
-14.1517
 20
5.74072
 30
0.000000
  70
    32
  0
VERTEX
  8
241
  5
1944
 10
-14.1342
 20
5.71372
 30
0.000000
  70
    32
  0
VERTEX
  8
241
  5
1945
 10
-14.1167
 20
5.68669
 30
0.000000
  70
    32
  0
VERTEX
  8
241
  5
1946
 10
-14.0993
 20
5.65962
 30
0.000000
  70
    32
  0
VERTEX
  8
241
  5
1947
 10
-14.0819
 20
5.63251
 30
0.000000
  70
    32
  0
VERTEX
  8
241
  5
1948
 10
-14.0647
 20
5.60537
 30
0.000000
  70
    32
  0
VERTEX
  8
241
  5
1949
 10
-14.0474
 20
5.57819
 30
0.000000
  70
    32
  0
VERTEX
  8
241
  5
194A
 10
-14.0303
 20
5.55098
 30
0.000000
  70
    32
  0
VERTEX
  8
241
  5
194B
 10
-14.0132
 20
5.52374
 30
0.000000
  70
    32
  0
VERTEX
  8
241
  5
194C
 10
-13.9962
 20
5.49646
 30
0.000000
  70
    32
  0
VERTEX
  8
241
  5
194D
 10
-13.9792
 20
5.46915
 30
0.000000
  70
    32
  0
VERTEX
  8
241
  5
194E
 10
-13.9623
 20
5.44180
 30
0.000000
  70
    32
  0
VERTEX
  8
241
  5
194F
 10
-13.9455
 20
5.41442
 30
0.000000
  70
    32
  0
VERTEX
  8
241
  5
1950
 10
-13.9287
 20
5.38701
 30
0.000000
  70
    32
  0
VERTEX
  8
241
  5
1951
 10
-13.9120
 20
5.35956
 30
0.000000
  70
    32
  0
VERTEX
  8
241
  5
1952
 10
-13.8954
 20
5.33209
 30
0.000000
  70
    32
  0
VERTEX
  8
241
  5
1953
 10
-13.8788
 20
5.30458
 30
0.000000
  70
    32
  0
VERTEX
  8
241
  5
1954
 10
-13.8622
 20
5.27704
 30
0.000000
  70
    32
  0
VERTEX
  8
241
  5
1955
 10
-13.8458
 20
5.24947
 30
0.000000
  70
    32
  0
VERTEX
  8
241
  5
1956
 10
-13.8293
 20
5.22188
 30
0.000000
  70
    32
  0
VERTEX
  8
241
  5
1957
 10
-13.8130
 20
5.19425
 30
0.000000
  70
    32
  0
VERTEX
  8
241
  5
1958
 10
-13.7966
 20
5.16659
 30
0.000000
  70
    32
  0
VERTEX
  8
241
  5
1959
 10
-13.7804
 20
5.13890
 30
0.000000
  70
    32
  0
VERTEX
  8
241
  5
195A
 10
-13.7642
 20
5.11118
 30
0.000000
  70
    32
  0
VERTEX
  8
241
  5
195B
 10
-13.7480
 20
5.08343
 30
0.000000
  70
    32
  0
VERTEX
  8
241
  5
195C
 10
-13.7319
 20
5.05566
 30
0.000000
  70
    32
  0
VERTEX
  8
241
  5
195D
 10
-13.7159
 20
5.02786
 30
0.000000
  70
    32
  0
VERTEX
  8
241
  5
195E
 10
-13.6999
 20
5.00003
 30
0.000000
  70
    32
  0
VERTEX
  8
241
  5
195F
 10
-13.6839
 20
4.97217
 30
0.000000
  70
    32
  0
VERTEX
  8
241
  5
1960
 10
-13.6680
 20
4.94429
 30
0.000000
  70
    32
  0
VERTEX
  8
241
  5
1961
 10
-13.6522
 20
4.91638
 30
0.000000
  70
    32
  0
VERTEX
  8
241
  5
1962
 10
-13.6364
 20
4.88844
 30
0.000000
  70
    32
  0
VERTEX
  8
241
  5
1963
 10
-13.6206
 20
4.86048
 30
0.000000
  70
    32
  0
VERTEX
  8
241
  5
1964
 10
-13.6049
 20
4.83249
 30
0.000000
  70
    32
  0
VERTEX
  8
241
  5
1965
 10
-13.5893
 20
4.80448
 30
0.000000
  70
    32
  0
VERTEX
  8
241
  5
1966
 10
-13.5737
 20
4.77644
 30
0.000000
  70
    32
  0
VERTEX
  8
241
  5
1967
 10
-13.5581
 20
4.74838
 30
0.000000
  70
    32
  0
VERTEX
  8
241
  5
1968
 10
-13.5426
 20
4.72030
 30
0.000000
  70
    32
  0
VERTEX
  8
241
  5
1969
 10
-13.5271
 20
4.69219
 30
0.000000
  70
    32
  0
VERTEX
  8
241
  5
196A
 10
-13.5117
 20
4.66405
 30
0.000000
  70
    32
  0
VERTEX
  8
241
  5
196B
 10
-13.4963
 20
4.63590
 30
0.000000
  70
    32
  0
VERTEX
  8
241
  5
196C
 10
-13.4809
 20
4.60772
 30
0.000000
  70
    32
  0
VERTEX
  8
241
  5
196D
 10
-13.4656
 20
4.57952
 30
0.000000
  70
    32
  0
VERTEX
  8
241
  5
196E
 10
-13.4503
 20
4.55130
 30
0.000000
  70
    32
  0
VERTEX
  8
241
  5
196F
 10
-13.4351
 20
4.52306
 30
0.000000
  70
    32
  0
VERTEX
  8
241
  5
1970
 10
-13.4199
 20
4.49479
 30
0.000000
  70
    32
  0
VERTEX
  8
241
  5
1971
 10
-13.4048
 20
4.46651
 30
0.000000
  70
    32
  0
VERTEX
  8
241
  5
1972
 10
-13.3896
 20
4.43820
 30
0.000000
  70
    32
  0
VERTEX
  8
241
  5
1973
 10
-13.3746
 20
4.40988
 30
0.000000
  70
    32
  0
VERTEX
  8
241
  5
1974
 10
-13.3595
 20
4.38153
 30
0.000000
  70
    32
  0
VERTEX
  8
241
  5
1975
 10
-13.3445
 20
4.35317
 30
0.000000
  70
    32
  0
VERTEX
  8
241
  5
1976
 10
-13.3296
 20
4.32479
 30
0.000000
  70
    32
  0
VERTEX
  8
241
  5
1977
 10
-13.3146
 20
4.29638
 30
0.000000
  70
    32
  0
VERTEX
  8
241
  5
1978
 10
-13.2997
 20
4.26796
 30
0.000000
  70
    32
  0
VERTEX
  8
241
  5
1979
 10
-13.2849
 20
4.23953
 30
0.000000
  70
    32
  0
VERTEX
  8
241
  5
197A
 10
-13.2700
 20
4.21107
 30
0.000000
  70
    32
  0
VERTEX
  8
241
  5
197B
 10
-13.2552
 20
4.18260
 30
0.000000
  70
    32
  0
VERTEX
  8
241
  5
197C
 10
-13.2404
 20
4.15411
 30
0.000000
  70
    32
  0
VERTEX
  8
241
  5
197D
 10
-13.2257
 20
4.12560
 30
0.000000
  70
    32
  0
VERTEX
  8
241
  5
197E
 10
-13.2110
 20
4.09708
 30
0.000000
  70
    32
  0
VERTEX
  8
241
  5
197F
 10
-13.1963
 20
4.06854
 30
0.000000
  70
    32
  0
VERTEX
  8
241
  5
1980
 10
-13.1817
 20
4.03999
 30
0.000000
  70
    32
  0
VERTEX
  8
241
  5
1981
 10
-13.1670
 20
4.01142
 30
0.000000
  70
    32
  0
VERTEX
  8
241
  5
1982
 10
-13.1524
 20
3.98284
 30
0.000000
  70
    32
  0
VERTEX
  8
241
  5
1983
 10
-13.1379
 20
3.95424
 30
0.000000
  70
    32
  0
VERTEX
  8
241
  5
1984
 10
-13.1233
 20
3.92563
 30
0.000000
  70
    32
  0
VERTEX
  8
241
  5
1985
 10
-13.1088
 20
3.89701
 30
0.000000
  70
    32
  0
VERTEX
  8
241
  5
1986
 10
-13.0943
 20
3.86837
 30
0.000000
  70
    32
  0
VERTEX
  8
241
  5
1987
 10
-13.0798
 20
3.83972
 30
0.000000
  70
    32
  0
VERTEX
  8
241
  5
1988
 10
-13.0654
 20
3.81106
 30
0.000000
  70
    32
  0
VERTEX
  8
241
  5
1989
 10
-13.0509
 20
3.78238
 30
0.000000
  70
    32
  0
VERTEX
  8
241
  5
198A
 10
-13.0365
 20
3.75369
 30
0.000000
  70
    32
  0
VERTEX
  8
241
  5
198B
 10
-13.0222
 20
3.72499
 30
0.000000
  70
    32
  0
VERTEX
  8
241
  5
198C
 10
-13.0078
 20
3.69628
 30
0.000000
  70
    32
  0
VERTEX
  8
241
  5
198D
 10
-12.9935
 20
3.66756
 30
0.000000
  70
    32
  0
VERTEX
  8
241
  5
198E
 10
-12.9791
 20
3.63883
 30
0.000000
  70
    32
  0
VERTEX
  8
241
  5
198F
 10
-12.9648
 20
3.61009
 30
0.000000
  70
    32
  0
VERTEX
  8
241
  5
1990
 10
-12.9505
 20
3.58134
 30
0.000000
  70
    32
  0
VERTEX
  8
241
  5
1991
 10
-12.9363
 20
3.55258
 30
0.000000
  70
    32
  0
VERTEX
  8
241
  5
1992
 10
-12.9220
 20
3.52381
 30
0.000000
  70
    32
  0
VERTEX
  8
241
  5
1993
 10
-12.9078
 20
3.49504
 30
0.000000
  70
    32
  0
VERTEX
  8
241
  5
1994
 10
-12.8936
 20
3.46625
 30
0.000000
  70
    32
  0
VERTEX
  8
241
  5
1995
 10
-12.8793
 20
3.43746
 30
0.000000
  70
    32
  0
VERTEX
  8
241
  5
1996
 10
-12.8652
 20
3.40866
 30
0.000000
  70
    32
  0
VERTEX
  8
241
  5
1997
 10
-12.8510
 20
3.37985
 30
0.000000
  70
    32
  0
VERTEX
  8
241
  5
1998
 10
-12.8368
 20
3.35103
 30
0.000000
  70
    32
  0
VERTEX
  8
241
  5
1999
 10
-12.8226
 20
3.32221
 30
0.000000
  70
    32
  0
VERTEX
  8
241
  5
199A
 10
-12.8085
 20
3.29339
 30
0.000000
  70
    32
  0
VERTEX
  8
241
  5
199B
 10
-12.7944
 20
3.26455
 30
0.000000
  70
    32
  0
VERTEX
  8
241
  5
199C
 10
-12.7802
 20
3.23571
 30
0.000000
  70
    32
  0
VERTEX
  8
241
  5
199D
 10
-12.7661
 20
3.20687
 30
0.000000
  70
    32
  0
VERTEX
  8
241
  5
199E
 10
-12.7520
 20
3.17802
 30
0.000000
  70
    32
  0
VERTEX
  8
241
  5
199F
 10
-12.7379
 20
3.14917
 30
0.000000
  70
    32
  0
VERTEX
  8
241
  5
19A0
 10
-12.7238
 20
3.12031
 30
0.000000
  70
    32
  0
VERTEX
  8
241
  5
19A1
 10
-12.7098
 20
3.09146
 30
0.000000
  70
    32
  0
VERTEX
  8
241
  5
19A2
 10
-12.6957
 20
3.06259
 30
0.000000
  70
    32
  0
VERTEX
  8
241
  5
19A3
 10
-12.6816
 20
3.03373
 30
0.000000
  70
    32
  0
VERTEX
  8
241
  5
19A4
 10
-12.6675
 20
3.00486
 30
0.000000
  70
    32
  0
VERTEX
  8
241
  5
19A5
 10
-12.6535
 20
2.97599
 30
0.000000
  70
    32
  0
VERTEX
  8
241
  5
19A6
 10
-12.6394
 20
2.94711
 30
0.000000
  70
    32
  0
VERTEX
  8
241
  5
19A7
 10
-12.6254
 20
2.91824
 30
0.000000
  70
    32
  0
VERTEX
  8
241
  5
19A8
 10
-12.6113
 20
2.88937
 30
0.000000
  70
    32
  0
VERTEX
  8
241
  5
19A9
 10
-12.5972
 20
2.86049
 30
0.000000
  70
    32
  0
VERTEX
  8
241
  5
19AA
 10
-12.5832
 20
2.83161
 30
0.000000
  70
    32
  0
SEQEND
  8
241
  5
19AB
  0
POLYLINE
  8
241
  5
19AC
  66
     1
 10
0.000000
 20
0.000000
 30
0.000000
  70
     8
  0
VERTEX
  8
241
  5
19AD
 10
-14.5136
 20
6.26662
 30
0.000000
  70
    32
  0
VERTEX
  8
241
  5
19AE
 10
-14.5914
 20
6.21933
 30
0.000000
  70
    32
  0
VERTEX
  8
241
  5
19AF
 10
-14.6691
 20
6.17190
 30
0.000000
  70
    32
  0
VERTEX
  8
241
  5
19B0
 10
-14.7465
 20
6.12420
 30
0.000000
  70
    32
  0
VERTEX
  8
241
  5
19B1
 10
-14.8234
 20
6.07609
 30
0.000000
  70
    32
  0
VERTEX
  8
241
  5
19B2
 10
-14.8997
 20
6.02745
 30
0.000000
  70
    32
  0
VERTEX
  8
241
  5
19B3
 10
-14.9753
 20
5.97813
 30
0.000000
  70
    32
  0
VERTEX
  8
241
  5
19B4
 10
-15.0500
 20
5.92800
 30
0.000000
  70
    32
  0
VERTEX
  8
241
  5
19B5
 10
-15.1236
 20
5.87692
 30
0.000000
  70
    32
  0
VERTEX
  8
241
  5
19B6
 10
-15.1960
 20
5.82476
 30
0.000000
  70
    32
  0
VERTEX
  8
241
  5
19B7
 10
-15.2671
 20
5.77139
 30
0.000000
  70
    32
  0
VERTEX
  8
241
  5
19B8
 10
-15.3366
 20
5.71667
 30
0.000000
  70
    32
  0
VERTEX
  8
241
  5
19B9
 10
-15.4046
 20
5.66058
 30
0.000000
  70
    32
  0
VERTEX
  8
241
  5
19BA
 10
-15.4711
 20
5.60312
 30
0.000000
  70
    32
  0
VERTEX
  8
241
  5
19BB
 10
-15.5360
 20
5.54433
 30
0.000000
  70
    32
  0
VERTEX
  8
241
  5
19BC
 10
-15.5995
 20
5.48422
 30
0.000000
  70
    32
  0
VERTEX
  8
241
  5
19BD
 10
-15.6614
 20
5.42281
 30
0.000000
  70
    32
  0
VERTEX
  8
241
  5
19BE
 10
-15.7219
 20
5.36012
 30
0.000000
  70
    32
  0
VERTEX
  8
241
  5
19BF
 10
-15.7809
 20
5.29618
 30
0.000000
  70
    32
  0
VERTEX
  8
241
  5
19C0
 10
-15.8384
 20
5.23101
 30
0.000000
  70
    32
  0
VERTEX
  8
241
  5
19C1
 10
-15.8945
 20
5.16462
 30
0.000000
  70
    32
  0
VERTEX
  8
241
  5
19C2
 10
-15.9492
 20
5.09704
 30
0.000000
  70
    32
  0
VERTEX
  8
241
  5
19C3
 10
-16.0025
 20
5.02829
 30
0.000000
  70
    32
  0
VERTEX
  8
241
  5
19C4
 10
-16.0544
 20
4.95838
 30
0.000000
  70
    32
  0
VERTEX
  8
241
  5
19C5
 10
-16.1049
 20
4.88735
 30
0.000000
  70
    32
  0
VERTEX
  8
241
  5
19C6
 10
-16.1541
 20
4.81521
 30
0.000000
  70
    32
  0
VERTEX
  8
241
  5
19C7
 10
-16.2019
 20
4.74198
 30
0.000000
  70
    32
  0
VERTEX
  8
241
  5
19C8
 10
-16.2483
 20
4.66768
 30
0.000000
  70
    32
  0
VERTEX
  8
241
  5
19C9
 10
-16.2935
 20
4.59234
 30
0.000000
  70
    32
  0
VERTEX
  8
241
  5
19CA
 10
-16.3373
 20
4.51597
 30
0.000000
  70
    32
  0
VERTEX
  8
241
  5
19CB
 10
-16.3798
 20
4.43859
 30
0.000000
  70
    32
  0
VERTEX
  8
241
  5
19CC
 10
-16.4211
 20
4.36023
 30
0.000000
  70
    32
  0
VERTEX
  8
241
  5
19CD
 10
-16.4610
 20
4.28091
 30
0.000000
  70
    32
  0
VERTEX
  8
241
  5
19CE
 10
-16.4997
 20
4.20065
 30
0.000000
  70
    32
  0
VERTEX
  8
241
  5
19CF
 10
-16.5372
 20
4.11947
 30
0.000000
  70
    32
  0
VERTEX
  8
241
  5
19D0
 10
-16.5735
 20
4.03738
 30
0.000000
  70
    32
  0
VERTEX
  8
241
  5
19D1
 10
-16.6085
 20
3.95442
 30
0.000000
  70
    32
  0
VERTEX
  8
241
  5
19D2
 10
-16.6424
 20
3.87060
 30
0.000000
  70
    32
  0
VERTEX
  8
241
  5
19D3
 10
-16.6750
 20
3.78594
 30
0.000000
  70
    32
  0
VERTEX
  8
241
  5
19D4
 10
-16.7065
 20
3.70046
 30
0.000000
  70
    32
  0
VERTEX
  8
241
  5
19D5
 10
-16.7369
 20
3.61419
 30
0.000000
  70
    32
  0
VERTEX
  8
241
  5
19D6
 10
-16.7660
 20
3.52714
 30
0.000000
  70
    32
  0
VERTEX
  8
241
  5
19D7
 10
-16.7941
 20
3.43934
 30
0.000000
  70
    32
  0
VERTEX
  8
241
  5
19D8
 10
-16.8211
 20
3.35081
 30
0.000000
  70
    32
  0
VERTEX
  8
241
  5
19D9
 10
-16.8469
 20
3.26156
 30
0.000000
  70
    32
  0
VERTEX
  8
241
  5
19DA
 10
-16.8717
 20
3.17163
 30
0.000000
  70
    32
  0
VERTEX
  8
241
  5
19DB
 10
-16.8954
 20
3.08102
 30
0.000000
  70
    32
  0
VERTEX
  8
241
  5
19DC
 10
-16.9180
 20
2.98976
 30
0.000000
  70
    32
  0
VERTEX
  8
241
  5
19DD
 10
-16.9396
 20
2.89788
 30
0.000000
  70
    32
  0
VERTEX
  8
241
  5
19DE
 10
-16.9602
 20
2.80538
 30
0.000000
  70
    32
  0
VERTEX
  8
241
  5
19DF
 10
-16.9797
 20
2.71230
 30
0.000000
  70
    32
  0
VERTEX
  8
241
  5
19E0
 10
-16.9983
 20
2.61866
 30
0.000000
  70
    32
  0
VERTEX
  8
241
  5
19E1
 10
-17.0158
 20
2.52447
 30
0.000000
  70
    32
  0
VERTEX
  8
241
  5
19E2
 10
-17.0324
 20
2.42975
 30
0.000000
  70
    32
  0
VERTEX
  8
241
  5
19E3
 10
-17.0480
 20
2.33453
 30
0.000000
  70
    32
  0
VERTEX
  8
241
  5
19E4
 10
-17.0627
 20
2.23883
 30
0.000000
  70
    32
  0
VERTEX
  8
241
  5
19E5
 10
-17.0764
 20
2.14267
 30
0.000000
  70
    32
  0
VERTEX
  8
241
  5
19E6
 10
-17.0893
 20
2.04607
 30
0.000000
  70
    32
  0
VERTEX
  8
241
  5
19E7
 10
-17.1012
 20
1.94904
 30
0.000000
  70
    32
  0
VERTEX
  8
241
  5
19E8
 10
-17.1122
 20
1.85162
 30
0.000000
  70
    32
  0
VERTEX
  8
241
  5
19E9
 10
-17.1224
 20
1.75382
 30
0.000000
  70
    32
  0
VERTEX
  8
241
  5
19EA
 10
-17.1317
 20
1.65567
 30
0.000000
  70
    32
  0
VERTEX
  8
241
  5
19EB
 10
-17.1401
 20
1.55717
 30
0.000000
  70
    32
  0
VERTEX
  8
241
  5
19EC
 10
-17.1478
 20
1.45836
 30
0.000000
  70
    32
  0
VERTEX
  8
241
  5
19ED
 10
-17.1546
 20
1.35926
 30
0.000000
  70
    32
  0
VERTEX
  8
241
  5
19EE
 10
-17.1606
 20
1.25989
 30
0.000000
  70
    32
  0
VERTEX
  8
241
  5
19EF
 10
-17.1658
 20
1.16026
 30
0.000000
  70
    32
  0
VERTEX
  8
241
  5
19F0
 10
-17.1702
 20
1.06040
 30
0.000000
  70
    32
  0
VERTEX
  8
241
  5
19F1
 10
-17.1738
 20
0.960326
 30
0.000000
  70
    32
  0
VERTEX
  8
241
  5
19F2
 10
-17.1768
 20
0.860065
 30
0.000000
  70
    32
  0
VERTEX
  8
241
  5
19F3
 10
-17.1789
 20
0.759634
 30
0.000000
  70
    32
  0
VERTEX
  8
241
  5
19F4
 10
-17.1804
 20
0.659056
 30
0.000000
  70
    32
  0
VERTEX
  8
241
  5
19F5
 10
-17.1811
 20
0.558350
 30
0.000000
  70
    32
  0
VERTEX
  8
241
  5
19F6
 10
-17.1812
 20
0.457538
 30
0.000000
  70
    32
  0
VERTEX
  8
241
  5
19F7
 10
-17.1806
 20
0.356640
 30
0.000000
  70
    32
  0
VERTEX
  8
241
  5
19F8
 10
-17.1793
 20
0.255678
 30
0.000000
  70
    32
  0
VERTEX
  8
241
  5
19F9
 10
-17.1773
 20
0.154672
 30
0.000000
  70
    32
  0
VERTEX
  8
241
  5
19FA
 10
-17.1747
 20
0.0536426
 30
0.000000
  70
    32
  0
VERTEX
  8
241
  5
19FB
 10
-17.1715
 20
-0.0473883
 30
0.000000
  70
    32
  0
VERTEX
  8
241
  5
19FC
 10
-17.1677
 20
-0.148401
 30
0.000000
  70
    32
  0
VERTEX
  8
241
  5
19FD
 10
-17.1633
 20
-0.249375
 30
0.000000
  70
    32
  0
VERTEX
  8
241
  5
19FE
 10
-17.1582
 20
-0.350291
 30
0.000000
  70
    32
  0
VERTEX
  8
241
  5
19FF
 10
-17.1525
 20
-0.451130
 30
0.000000
  70
    32
  0
VERTEX
  8
241
  5
1A00
 10
-17.1462
 20
-0.551872
 30
0.000000
  70
    32
  0
VERTEX
  8
241
  5
1A01
 10
-17.1392
 20
-0.652498
 30
0.000000
  70
    32
  0
VERTEX
  8
241
  5
1A02
 10
-17.1316
 20
-0.752988
 30
0.000000
  70
    32
  0
VERTEX
  8
241
  5
1A03
 10
-17.1233
 20
-0.853323
 30
0.000000
  70
    32
  0
VERTEX
  8
241
  5
1A04
 10
-17.1143
 20
-0.953482
 30
0.000000
  70
    32
  0
VERTEX
  8
241
  5
1A05
 10
-17.1047
 20
-1.05345
 30
0.000000
  70
    32
  0
VERTEX
  8
241
  5
1A06
 10
-17.0943
 20
-1.15320
 30
0.000000
  70
    32
  0
VERTEX
  8
241
  5
1A07
 10
-17.0833
 20
-1.25272
 30
0.000000
  70
    32
  0
VERTEX
  8
241
  5
1A08
 10
-17.0716
 20
-1.35198
 30
0.000000
  70
    32
  0
VERTEX
  8
241
  5
1A09
 10
-17.0592
 20
-1.45098
 30
0.000000
  70
    32
  0
VERTEX
  8
241
  5
1A0A
 10
-17.0460
 20
-1.54968
 30
0.000000
  70
    32
  0
VERTEX
  8
241
  5
1A0B
 10
-17.0322
 20
-1.64807
 30
0.000000
  70
    32
  0
VERTEX
  8
241
  5
1A0C
 10
-17.0176
 20
-1.74613
 30
0.000000
  70
    32
  0
VERTEX
  8
241
  5
1A0D
 10
-17.0023
 20
-1.84384
 30
0.000000
  70
    32
  0
VERTEX
  8
241
  5
1A0E
 10
-16.9862
 20
-1.94117
 30
0.000000
  70
    32
  0
VERTEX
  8
241
  5
1A0F
 10
-16.9694
 20
-2.03812
 30
0.000000
  70
    32
  0
VERTEX
  8
241
  5
1A10
 10
-16.9518
 20
-2.13466
 30
0.000000
  70
    32
  0
VERTEX
  8
241
  5
1A11
 10
-16.9335
 20
-2.23078
 30
0.000000
  70
    32
  0
VERTEX
  8
241
  5
1A12
 10
-16.9144
 20
-2.32644
 30
0.000000
  70
    32
  0
VERTEX
  8
241
  5
1A13
 10
-16.8945
 20
-2.42164
 30
0.000000
  70
    32
  0
VERTEX
  8
241
  5
1A14
 10
-16.8738
 20
-2.51635
 30
0.000000
  70
    32
  0
VERTEX
  8
241
  5
1A15
 10
-16.8523
 20
-2.61055
 30
0.000000
  70
    32
  0
VERTEX
  8
241
  5
1A16
 10
-16.8301
 20
-2.70423
 30
0.000000
  70
    32
  0
VERTEX
  8
241
  5
1A17
 10
-16.8070
 20
-2.79736
 30
0.000000
  70
    32
  0
VERTEX
  8
241
  5
1A18
 10
-16.7831
 20
-2.88992
 30
0.000000
  70
    32
  0
VERTEX
  8
241
  5
1A19
 10
-16.7584
 20
-2.98191
 30
0.000000
  70
    32
  0
VERTEX
  8
241
  5
1A1A
 10
-16.7329
 20
-3.07328
 30
0.000000
  70
    32
  0
VERTEX
  8
241
  5
1A1B
 10
-16.7065
 20
-3.16404
 30
0.000000
  70
    32
  0
VERTEX
  8
241
  5
1A1C
 10
-16.6793
 20
-3.25415
 30
0.000000
  70
    32
  0
VERTEX
  8
241
  5
1A1D
 10
-16.6512
 20
-3.34360
 30
0.000000
  70
    32
  0
VERTEX
  8
241
  5
1A1E
 10
-16.6223
 20
-3.43237
 30
0.000000
  70
    32
  0
VERTEX
  8
241
  5
1A1F
 10
-16.5925
 20
-3.52043
 30
0.000000
  70
    32
  0
VERTEX
  8
241
  5
1A20
 10
-16.5618
 20
-3.60778
 30
0.000000
  70
    32
  0
VERTEX
  8
241
  5
1A21
 10
-16.5303
 20
-3.69438
 30
0.000000
  70
    32
  0
VERTEX
  8
241
  5
1A22
 10
-16.4978
 20
-3.78023
 30
0.000000
  70
    32
  0
VERTEX
  8
241
  5
1A23
 10
-16.4645
 20
-3.86529
 30
0.000000
  70
    32
  0
VERTEX
  8
241
  5
1A24
 10
-16.4303
 20
-3.94956
 30
0.000000
  70
    32
  0
VERTEX
  8
241
  5
1A25
 10
-16.3951
 20
-4.03300
 30
0.000000
  70
    32
  0
VERTEX
  8
241
  5
1A26
 10
-16.3591
 20
-4.11561
 30
0.000000
  70
    32
  0
VERTEX
  8
241
  5
1A27
 10
-16.3221
 20
-4.19736
 30
0.000000
  70
    32
  0
VERTEX
  8
241
  5
1A28
 10
-16.2842
 20
-4.27824
 30
0.000000
  70
    32
  0
VERTEX
  8
241
  5
1A29
 10
-16.2453
 20
-4.35822
 30
0.000000
  70
    32
  0
VERTEX
  8
241
  5
1A2A
 10
-16.2055
 20
-4.43728
 30
0.000000
  70
    32
  0
VERTEX
  8
241
  5
1A2B
 10
-16.1648
 20
-4.51540
 30
0.000000
  70
    32
  0
VERTEX
  8
241
  5
1A2C
 10
-16.1231
 20
-4.59257
 30
0.000000
  70
    32
  0
VERTEX
  8
241
  5
1A2D
 10
-16.0804
 20
-4.66877
 30
0.000000
  70
    32
  0
VERTEX
  8
241
  5
1A2E
 10
-16.0367
 20
-4.74397
 30
0.000000
  70
    32
  0
VERTEX
  8
241
  5
1A2F
 10
-15.9921
 20
-4.81816
 30
0.000000
  70
    32
  0
VERTEX
  8
241
  5
1A30
 10
-15.9465
 20
-4.89132
 30
0.000000
  70
    32
  0
VERTEX
  8
241
  5
1A31
 10
-15.8999
 20
-4.96342
 30
0.000000
  70
    32
  0
VERTEX
  8
241
  5
1A32
 10
-15.8522
 20
-5.03445
 30
0.000000
  70
    32
  0
VERTEX
  8
241
  5
1A33
 10
-15.8036
 20
-5.10439
 30
0.000000
  70
    32
  0
VERTEX
  8
241
  5
1A34
 10
-15.7539
 20
-5.17322
 30
0.000000
  70
    32
  0
VERTEX
  8
241
  5
1A35
 10
-15.7033
 20
-5.24091
 30
0.000000
  70
    32
  0
VERTEX
  8
241
  5
1A36
 10
-15.6515
 20
-5.30746
 30
0.000000
  70
    32
  0
VERTEX
  8
241
  5
1A37
 10
-15.5988
 20
-5.37284
 30
0.000000
  70
    32
  0
VERTEX
  8
241
  5
1A38
 10
-15.5450
 20
-5.43702
 30
0.000000
  70
    32
  0
VERTEX
  8
241
  5
1A39
 10
-15.4901
 20
-5.50000
 30
0.000000
  70
    32
  0
VERTEX
  8
241
  5
1A3A
 10
-15.4342
 20
-5.56175
 30
0.000000
  70
    32
  0
VERTEX
  8
241
  5
1A3B
 10
-15.3772
 20
-5.62226
 30
0.000000
  70
    32
  0
VERTEX
  8
241
  5
1A3C
 10
-15.3192
 20
-5.68149
 30
0.000000
  70
    32
  0
VERTEX
  8
241
  5
1A3D
 10
-15.2600
 20
-5.73944
 30
0.000000
  70
    32
  0
VERTEX
  8
241
  5
1A3E
 10
-15.1998
 20
-5.79609
 30
0.000000
  70
    32
  0
VERTEX
  8
241
  5
1A3F
 10
-15.1384
 20
-5.85140
 30
0.000000
  70
    32
  0
VERTEX
  8
241
  5
1A40
 10
-15.0760
 20
-5.90537
 30
0.000000
  70
    32
  0
VERTEX
  8
241
  5
1A41
 10
-15.0124
 20
-5.95798
 30
0.000000
  70
    32
  0
VERTEX
  8
241
  5
1A42
 10
-14.9478
 20
-6.00924
 30
0.000000
  70
    32
  0
VERTEX
  8
241
  5
1A43
 10
-14.8821
 20
-6.05916
 30
0.000000
  70
    32
  0
VERTEX
  8
241
  5
1A44
 10
-14.8153
 20
-6.10776
 30
0.000000
  70
    32
  0
VERTEX
  8
241
  5
1A45
 10
-14.7474
 20
-6.15506
 30
0.000000
  70
    32
  0
VERTEX
  8
241
  5
1A46
 10
-14.6785
 20
-6.20108
 30
0.000000
  70
    32
  0
VERTEX
  8
241
  5
1A47
 10
-14.6087
 20
-6.24584
 30
0.000000
  70
    32
  0
VERTEX
  8
241
  5
1A48
 10
-14.5378
 20
-6.28936
 30
0.000000
  70
    32
  0
VERTEX
  8
241
  5
1A49
 10
-14.4659
 20
-6.33165
 30
0.000000
  70
    32
  0
VERTEX
  8
241
  5
1A4A
 10
-14.3931
 20
-6.37274
 30
0.000000
  70
    32
  0
VERTEX
  8
241
  5
1A4B
 10
-14.3194
 20
-6.41264
 30
0.000000
  70
    32
  0
VERTEX
  8
241
  5
1A4C
 10
-14.2448
 20
-6.45138
 30
0.000000
  70
    32
  0
VERTEX
  8
241
  5
1A4D
 10
-14.1692
 20
-6.48897
 30
0.000000
  70
    32
  0
VERTEX
  8
241
  5
1A4E
 10
-14.0928
 20
-6.52542
 30
0.000000
  70
    32
  0
VERTEX
  8
241
  5
1A4F
 10
-14.0155
 20
-6.56077
 30
0.000000
  70
    32
  0
VERTEX
  8
241
  5
1A50
 10
-13.9374
 20
-6.59503
 30
0.000000
  70
    32
  0
VERTEX
  8
241
  5
1A51
 10
-13.8584
 20
-6.62821
 30
0.000000
  70
    32
  0
VERTEX
  8
241
  5
1A52
 10
-13.7787
 20
-6.66034
 30
0.000000
  70
    32
  0
VERTEX
  8
241
  5
1A53
 10
-13.6981
 20
-6.69143
 30
0.000000
  70
    32
  0
VERTEX
  8
241
  5
1A54
 10
-13.6168
 20
-6.72150
 30
0.000000
  70
    32
  0
VERTEX
  8
241
  5
1A55
 10
-13.5347
 20
-6.75058
 30
0.000000
  70
    32
  0
VERTEX
  8
241
  5
1A56
 10
-13.4519
 20
-6.77868
 30
0.000000
  70
    32
  0
VERTEX
  8
241
  5
1A57
 10
-13.3684
 20
-6.80581
 30
0.000000
  70
    32
  0
VERTEX
  8
241
  5
1A58
 10
-13.2842
 20
-6.83201
 30
0.000000
  70
    32
  0
VERTEX
  8
241
  5
1A59
 10
-13.1993
 20
-6.85728
 30
0.000000
  70
    32
  0
VERTEX
  8
241
  5
1A5A
 10
-13.1137
 20
-6.88165
 30
0.000000
  70
    32
  0
VERTEX
  8
241
  5
1A5B
 10
-13.0275
 20
-6.90513
 30
0.000000
  70
    32
  0
VERTEX
  8
241
  5
1A5C
 10
-12.9407
 20
-6.92775
 30
0.000000
  70
    32
  0
VERTEX
  8
241
  5
1A5D
 10
-12.8533
 20
-6.94952
 30
0.000000
  70
    32
  0
VERTEX
  8
241
  5
1A5E
 10
-12.7653
 20
-6.97046
 30
0.000000
  70
    32
  0
VERTEX
  8
241
  5
1A5F
 10
-12.6767
 20
-6.99060
 30
0.000000
  70
    32
  0
VERTEX
  8
241
  5
1A60
 10
-12.5876
 20
-7.00994
 30
0.000000
  70
    32
  0
VERTEX
  8
241
  5
1A61
 10
-12.4980
 20
-7.02850
 30
0.000000
  70
    32
  0
VERTEX
  8
241
  5
1A62
 10
-12.4078
 20
-7.04632
 30
0.000000
  70
    32
  0
VERTEX
  8
241
  5
1A63
 10
-12.3172
 20
-7.06340
 30
0.000000
  70
    32
  0
VERTEX
  8
241
  5
1A64
 10
-12.2260
 20
-7.07976
 30
0.000000
  70
    32
  0
VERTEX
  8
241
  5
1A65
 10
-12.1344
 20
-7.09543
 30
0.000000
  70
    32
  0
VERTEX
  8
241
  5
1A66
 10
-12.0424
 20
-7.11042
 30
0.000000
  70
    32
  0
VERTEX
  8
241
  5
1A67
 10
-11.9500
 20
-7.12475
 30
0.000000
  70
    32
  0
VERTEX
  8
241
  5
1A68
 10
-11.8571
 20
-7.13844
 30
0.000000
  70
    32
  0
VERTEX
  8
241
  5
1A69
 10
-11.7639
 20
-7.15150
 30
0.000000
  70
    32
  0
VERTEX
  8
241
  5
1A6A
 10
-11.6703
 20
-7.16397
 30
0.000000
  70
    32
  0
VERTEX
  8
241
  5
1A6B
 10
-11.5764
 20
-7.17585
 30
0.000000
  70
    32
  0
VERTEX
  8
241
  5
1A6C
 10
-11.4821
 20
-7.18716
 30
0.000000
  70
    32
  0
VERTEX
  8
241
  5
1A6D
 10
-11.3875
 20
-7.19793
 30
0.000000
  70
    32
  0
VERTEX
  8
241
  5
1A6E
 10
-11.2927
 20
-7.20817
 30
0.000000
  70
    32
  0
VERTEX
  8
241
  5
1A6F
 10
-11.1975
 20
-7.21790
 30
0.000000
  70
    32
  0
VERTEX
  8
241
  5
1A70
 10
-11.1021
 20
-7.22714
 30
0.000000
  70
    32
  0
VERTEX
  8
241
  5
1A71
 10
-11.0065
 20
-7.23591
 30
0.000000
  70
    32
  0
VERTEX
  8
241
  5
1A72
 10
-10.9106
 20
-7.24423
 30
0.000000
  70
    32
  0
VERTEX
  8
241
  5
1A73
 10
-10.8146
 20
-7.25212
 30
0.000000
  70
    32
  0
VERTEX
  8
241
  5
1A74
 10
-10.7184
 20
-7.25958
 30
0.000000
  70
    32
  0
VERTEX
  8
241
  5
1A75
 10
-10.6220
 20
-7.26666
 30
0.000000
  70
    32
  0
VERTEX
  8
241
  5
1A76
 10
-10.5254
 20
-7.27335
 30
0.000000
  70
    32
  0
VERTEX
  8
241
  5
1A77
 10
-10.4288
 20
-7.27969
 30
0.000000
  70
    32
  0
VERTEX
  8
241
  5
1A78
 10
-10.3320
 20
-7.28569
 30
0.000000
  70
    32
  0
VERTEX
  8
241
  5
1A79
 10
-10.2352
 20
-7.29136
 30
0.000000
  70
    32
  0
VERTEX
  8
241
  5
1A7A
 10
-10.1382
 20
-7.29674
 30
0.000000
  70
    32
  0
VERTEX
  8
241
  5
1A7B
 10
-10.0413
 20
-7.30183
 30
0.000000
  70
    32
  0
VERTEX
  8
241
  5
1A7C
 10
-9.94425
 20
-7.30665
 30
0.000000
  70
    32
  0
VERTEX
  8
241
  5
1A7D
 10
-9.84723
 20
-7.31124
 30
0.000000
  70
    32
  0
VERTEX
  8
241
  5
1A7E
 10
-9.75020
 20
-7.31559
 30
0.000000
  70
    32
  0
VERTEX
  8
241
  5
1A7F
 10
-9.65320
 20
-7.31974
 30
0.000000
  70
    32
  0
VERTEX
  8
241
  5
1A80
 10
-9.55624
 20
-7.32369
 30
0.000000
  70
    32
  0
VERTEX
  8
241
  5
1A81
 10
-9.45934
 20
-7.32748
 30
0.000000
  70
    32
  0
VERTEX
  8
241
  5
1A82
 10
-9.36252
 20
-7.33112
 30
0.000000
  70
    32
  0
VERTEX
  8
241
  5
1A83
 10
-9.26579
 20
-7.33462
 30
0.000000
  70
    32
  0
VERTEX
  8
241
  5
1A84
 10
-9.16917
 20
-7.33801
 30
0.000000
  70
    32
  0
VERTEX
  8
241
  5
1A85
 10
-9.07269
 20
-7.34130
 30
0.000000
  70
    32
  0
VERTEX
  8
241
  5
1A86
 10
-8.97636
 20
-7.34452
 30
0.000000
  70
    32
  0
VERTEX
  8
241
  5
1A87
 10
-8.88019
 20
-7.34768
 30
0.000000
  70
    32
  0
VERTEX
  8
241
  5
1A88
 10
-8.78422
 20
-7.35080
 30
0.000000
  70
    32
  0
VERTEX
  8
241
  5
1A89
 10
-8.68845
 20
-7.35390
 30
0.000000
  70
    32
  0
VERTEX
  8
241
  5
1A8A
 10
-8.59290
 20
-7.35700
 30
0.000000
  70
    32
  0
VERTEX
  8
241
  5
1A8B
 10
-8.49760
 20
-7.36011
 30
0.000000
  70
    32
  0
VERTEX
  8
241
  5
1A8C
 10
-8.40255
 20
-7.36327
 30
0.000000
  70
    32
  0
VERTEX
  8
241
  5
1A8D
 10
-8.30779
 20
-7.36648
 30
0.000000
  70
    32
  0
VERTEX
  8
241
  5
1A8E
 10
-8.21333
 20
-7.36976
 30
0.000000
  70
    32
  0
VERTEX
  8
241
  5
1A8F
 10
-8.11918
 20
-7.37314
 30
0.000000
  70
    32
  0
VERTEX
  8
241
  5
1A90
 10
-8.02536
 20
-7.37663
 30
0.000000
  70
    32
  0
VERTEX
  8
241
  5
1A91
 10
-7.93190
 20
-7.38024
 30
0.000000
  70
    32
  0
VERTEX
  8
241
  5
1A92
 10
-7.83880
 20
-7.38401
 30
0.000000
  70
    32
  0
VERTEX
  8
241
  5
1A93
 10
-7.74606
 20
-7.38791
 30
0.000000
  70
    32
  0
VERTEX
  8
241
  5
1A94
 10
-7.65366
 20
-7.39195
 30
0.000000
  70
    32
  0
VERTEX
  8
241
  5
1A95
 10
-7.56159
 20
-7.39613
 30
0.000000
  70
    32
  0
VERTEX
  8
241
  5
1A96
 10
-7.46983
 20
-7.40042
 30
0.000000
  70
    32
  0
VERTEX
  8
241
  5
1A97
 10
-7.37837
 20
-7.40484
 30
0.000000
  70
    32
  0
VERTEX
  8
241
  5
1A98
 10
-7.28720
 20
-7.40937
 30
0.000000
  70
    32
  0
VERTEX
  8
241
  5
1A99
 10
-7.19630
 20
-7.41402
 30
0.000000
  70
    32
  0
VERTEX
  8
241
  5
1A9A
 10
-7.10566
 20
-7.41876
 30
0.000000
  70
    32
  0
VERTEX
  8
241
  5
1A9B
 10
-7.01527
 20
-7.42360
 30
0.000000
  70
    32
  0
VERTEX
  8
241
  5
1A9C
 10
-6.92511
 20
-7.42854
 30
0.000000
  70
    32
  0
VERTEX
  8
241
  5
1A9D
 10
-6.83517
 20
-7.43356
 30
0.000000
  70
    32
  0
VERTEX
  8
241
  5
1A9E
 10
-6.74543
 20
-7.43867
 30
0.000000
  70
    32
  0
VERTEX
  8
241
  5
1A9F
 10
-6.65589
 20
-7.44385
 30
0.000000
  70
    32
  0
VERTEX
  8
241
  5
1AA0
 10
-6.56652
 20
-7.44911
 30
0.000000
  70
    32
  0
VERTEX
  8
241
  5
1AA1
 10
-6.47731
 20
-7.45442
 30
0.000000
  70
    32
  0
VERTEX
  8
241
  5
1AA2
 10
-6.38826
 20
-7.45980
 30
0.000000
  70
    32
  0
VERTEX
  8
241
  5
1AA3
 10
-6.29934
 20
-7.46524
 30
0.000000
  70
    32
  0
VERTEX
  8
241
  5
1AA4
 10
-6.21055
 20
-7.47072
 30
0.000000
  70
    32
  0
VERTEX
  8
241
  5
1AA5
 10
-6.12186
 20
-7.47624
 30
0.000000
  70
    32
  0
VERTEX
  8
241
  5
1AA6
 10
-6.03327
 20
-7.48181
 30
0.000000
  70
    32
  0
VERTEX
  8
241
  5
1AA7
 10
-5.94476
 20
-7.48740
 30
0.000000
  70
    32
  0
VERTEX
  8
241
  5
1AA8
 10
-5.85632
 20
-7.49303
 30
0.000000
  70
    32
  0
VERTEX
  8
241
  5
1AA9
 10
-5.76794
 20
-7.49867
 30
0.000000
  70
    32
  0
VERTEX
  8
241
  5
1AAA
 10
-5.67959
 20
-7.50434
 30
0.000000
  70
    32
  0
VERTEX
  8
241
  5
1AAB
 10
-5.59128
 20
-7.51001
 30
0.000000
  70
    32
  0
VERTEX
  8
241
  5
1AAC
 10
-5.50298
 20
-7.51569
 30
0.000000
  70
    32
  0
SEQEND
  8
241
  5
1AAD
  0
POLYLINE
  8
241
  5
1AAE
  66
     1
 10
0.000000
 20
0.000000
 30
0.000000
  70
     8
  0
VERTEX
  8
241
  5
1AAF
 10
-5.50298
 20
-7.51569
 30
0.000000
  70
    32
  0
VERTEX
  8
241
  5
1AB0
 10
-5.50077
 20
-7.51502
 30
0.000000
  70
    32
  0
VERTEX
  8
241
  5
1AB1
 10
-5.49856
 20
-7.51434
 30
0.000000
  70
    32
  0
VERTEX
  8
241
  5
1AB2
 10
-5.49635
 20
-7.51367
 30
0.000000
  70
    32
  0
VERTEX
  8
241
  5
1AB3
 10
-5.49414
 20
-7.51299
 30
0.000000
  70
    32
  0
VERTEX
  8
241
  5
1AB4
 10
-5.49193
 20
-7.51232
 30
0.000000
  70
    32
  0
VERTEX
  8
241
  5
1AB5
 10
-5.48972
 20
-7.51165
 30
0.000000
  70
    32
  0
VERTEX
  8
241
  5
1AB6
 10
-5.48752
 20
-7.51097
 30
0.000000
  70
    32
  0
VERTEX
  8
241
  5
1AB7
 10
-5.48531
 20
-7.51030
 30
0.000000
  70
    32
  0
VERTEX
  8
241
  5
1AB8
 10
-5.48310
 20
-7.50963
 30
0.000000
  70
    32
  0
VERTEX
  8
241
  5
1AB9
 10
-5.48089
 20
-7.50895
 30
0.000000
  70
    32
  0
VERTEX
  8
241
  5
1ABA
 10
-5.47868
 20
-7.50828
 30
0.000000
  70
    32
  0
VERTEX
  8
241
  5
1ABB
 10
-5.47647
 20
-7.50760
 30
0.000000
  70
    32
  0
VERTEX
  8
241
  5
1ABC
 10
-5.47426
 20
-7.50693
 30
0.000000
  70
    32
  0
VERTEX
  8
241
  5
1ABD
 10
-5.47206
 20
-7.50626
 30
0.000000
  70
    32
  0
VERTEX
  8
241
  5
1ABE
 10
-5.46985
 20
-7.50558
 30
0.000000
  70
    32
  0
VERTEX
  8
241
  5
1ABF
 10
-5.46764
 20
-7.50491
 30
0.000000
  70
    32
  0
VERTEX
  8
241
  5
1AC0
 10
-5.46543
 20
-7.50424
 30
0.000000
  70
    32
  0
VERTEX
  8
241
  5
1AC1
 10
-5.46322
 20
-7.50356
 30
0.000000
  70
    32
  0
VERTEX
  8
241
  5
1AC2
 10
-5.46101
 20
-7.50289
 30
0.000000
  70
    32
  0
VERTEX
  8
241
  5
1AC3
 10
-5.45880
 20
-7.50222
 30
0.000000
  70
    32
  0
VERTEX
  8
241
  5
1AC4
 10
-5.45660
 20
-7.50154
 30
0.000000
  70
    32
  0
VERTEX
  8
241
  5
1AC5
 10
-5.45439
 20
-7.50087
 30
0.000000
  70
    32
  0
VERTEX
  8
241
  5
1AC6
 10
-5.45218
 20
-7.50019
 30
0.000000
  70
    32
  0
VERTEX
  8
241
  5
1AC7
 10
-5.44997
 20
-7.49952
 30
0.000000
  70
    32
  0
VERTEX
  8
241
  5
1AC8
 10
-5.44776
 20
-7.49885
 30
0.000000
  70
    32
  0
VERTEX
  8
241
  5
1AC9
 10
-5.44555
 20
-7.49817
 30
0.000000
  70
    32
  0
VERTEX
  8
241
  5
1ACA
 10
-5.44334
 20
-7.49750
 30
0.000000
  70
    32
  0
VERTEX
  8
241
  5
1ACB
 10
-5.44114
 20
-7.49683
 30
0.000000
  70
    32
  0
VERTEX
  8
241
  5
1ACC
 10
-5.43893
 20
-7.49615
 30
0.000000
  70
    32
  0
VERTEX
  8
241
  5
1ACD
 10
-5.43672
 20
-7.49548
 30
0.000000
  70
    32
  0
VERTEX
  8
241
  5
1ACE
 10
-5.43451
 20
-7.49480
 30
0.000000
  70
    32
  0
VERTEX
  8
241
  5
1ACF
 10
-5.43230
 20
-7.49413
 30
0.000000
  70
    32
  0
VERTEX
  8
241
  5
1AD0
 10
-5.43009
 20
-7.49346
 30
0.000000
  70
    32
  0
VERTEX
  8
241
  5
1AD1
 10
-5.42788
 20
-7.49278
 30
0.000000
  70
    32
  0
VERTEX
  8
241
  5
1AD2
 10
-5.42568
 20
-7.49211
 30
0.000000
  70
    32
  0
VERTEX
  8
241
  5
1AD3
 10
-5.42347
 20
-7.49144
 30
0.000000
  70
    32
  0
VERTEX
  8
241
  5
1AD4
 10
-5.42126
 20
-7.49076
 30
0.000000
  70
    32
  0
VERTEX
  8
241
  5
1AD5
 10
-5.41905
 20
-7.49009
 30
0.000000
  70
    32
  0
VERTEX
  8
241
  5
1AD6
 10
-5.41684
 20
-7.48941
 30
0.000000
  70
    32
  0
VERTEX
  8
241
  5
1AD7
 10
-5.41463
 20
-7.48874
 30
0.000000
  70
    32
  0
VERTEX
  8
241
  5
1AD8
 10
-5.41243
 20
-7.48807
 30
0.000000
  70
    32
  0
VERTEX
  8
241
  5
1AD9
 10
-5.41022
 20
-7.48739
 30
0.000000
  70
    32
  0
VERTEX
  8
241
  5
1ADA
 10
-5.40801
 20
-7.48672
 30
0.000000
  70
    32
  0
VERTEX
  8
241
  5
1ADB
 10
-5.40580
 20
-7.48605
 30
0.000000
  70
    32
  0
VERTEX
  8
241
  5
1ADC
 10
-5.40359
 20
-7.48537
 30
0.000000
  70
    32
  0
VERTEX
  8
241
  5
1ADD
 10
-5.40138
 20
-7.48470
 30
0.000000
  70
    32
  0
VERTEX
  8
241
  5
1ADE
 10
-5.39917
 20
-7.48402
 30
0.000000
  70
    32
  0
VERTEX
  8
241
  5
1ADF
 10
-5.39697
 20
-7.48335
 30
0.000000
  70
    32
  0
VERTEX
  8
241
  5
1AE0
 10
-5.39476
 20
-7.48268
 30
0.000000
  70
    32
  0
VERTEX
  8
241
  5
1AE1
 10
-5.39255
 20
-7.48200
 30
0.000000
  70
    32
  0
VERTEX
  8
241
  5
1AE2
 10
-5.39034
 20
-7.48133
 30
0.000000
  70
    32
  0
VERTEX
  8
241
  5
1AE3
 10
-5.38813
 20
-7.48066
 30
0.000000
  70
    32
  0
VERTEX
  8
241
  5
1AE4
 10
-5.38592
 20
-7.47998
 30
0.000000
  70
    32
  0
VERTEX
  8
241
  5
1AE5
 10
-5.38371
 20
-7.47931
 30
0.000000
  70
    32
  0
VERTEX
  8
241
  5
1AE6
 10
-5.38151
 20
-7.47864
 30
0.000000
  70
    32
  0
VERTEX
  8
241
  5
1AE7
 10
-5.37930
 20
-7.47796
 30
0.000000
  70
    32
  0
VERTEX
  8
241
  5
1AE8
 10
-5.37709
 20
-7.47729
 30
0.000000
  70
    32
  0
VERTEX
  8
241
  5
1AE9
 10
-5.37488
 20
-7.47661
 30
0.000000
  70
    32
  0
VERTEX
  8
241
  5
1AEA
 10
-5.37267
 20
-7.47594
 30
0.000000
  70
    32
  0
VERTEX
  8
241
  5
1AEB
 10
-5.37046
 20
-7.47527
 30
0.000000
  70
    32
  0
VERTEX
  8
241
  5
1AEC
 10
-5.36825
 20
-7.47459
 30
0.000000
  70
    32
  0
VERTEX
  8
241
  5
1AED
 10
-5.36605
 20
-7.47392
 30
0.000000
  70
    32
  0
VERTEX
  8
241
  5
1AEE
 10
-5.36384
 20
-7.47325
 30
0.000000
  70
    32
  0
VERTEX
  8
241
  5
1AEF
 10
-5.36163
 20
-7.47257
 30
0.000000
  70
    32
  0
VERTEX
  8
241
  5
1AF0
 10
-5.35942
 20
-7.47190
 30
0.000000
  70
    32
  0
VERTEX
  8
241
  5
1AF1
 10
-5.35721
 20
-7.47122
 30
0.000000
  70
    32
  0
VERTEX
  8
241
  5
1AF2
 10
-5.35500
 20
-7.47055
 30
0.000000
  70
    32
  0
VERTEX
  8
241
  5
1AF3
 10
-5.35279
 20
-7.46988
 30
0.000000
  70
    32
  0
VERTEX
  8
241
  5
1AF4
 10
-5.35059
 20
-7.46920
 30
0.000000
  70
    32
  0
VERTEX
  8
241
  5
1AF5
 10
-5.34838
 20
-7.46853
 30
0.000000
  70
    32
  0
VERTEX
  8
241
  5
1AF6
 10
-5.34617
 20
-7.46786
 30
0.000000
  70
    32
  0
VERTEX
  8
241
  5
1AF7
 10
-5.34396
 20
-7.46718
 30
0.000000
  70
    32
  0
VERTEX
  8
241
  5
1AF8
 10
-5.34175
 20
-7.46651
 30
0.000000
  70
    32
  0
VERTEX
  8
241
  5
1AF9
 10
-5.33954
 20
-7.46583
 30
0.000000
  70
    32
  0
VERTEX
  8
241
  5
1AFA
 10
-5.33734
 20
-7.46516
 30
0.000000
  70
    32
  0
VERTEX
  8
241
  5
1AFB
 10
-5.33513
 20
-7.46449
 30
0.000000
  70
    32
  0
VERTEX
  8
241
  5
1AFC
 10
-5.33292
 20
-7.46381
 30
0.000000
  70
    32
  0
VERTEX
  8
241
  5
1AFD
 10
-5.33071
 20
-7.46314
 30
0.000000
  70
    32
  0
VERTEX
  8
241
  5
1AFE
 10
-5.32850
 20
-7.46247
 30
0.000000
  70
    32
  0
VERTEX
  8
241
  5
1AFF
 10
-5.32629
 20
-7.46179
 30
0.000000
  70
    32
  0
VERTEX
  8
241
  5
1B00
 10
-5.32408
 20
-7.46112
 30
0.000000
  70
    32
  0
VERTEX
  8
241
  5
1B01
 10
-5.32188
 20
-7.46044
 30
0.000000
  70
    32
  0
VERTEX
  8
241
  5
1B02
 10
-5.31967
 20
-7.45977
 30
0.000000
  70
    32
  0
VERTEX
  8
241
  5
1B03
 10
-5.31746
 20
-7.45910
 30
0.000000
  70
    32
  0
VERTEX
  8
241
  5
1B04
 10
-5.31525
 20
-7.45842
 30
0.000000
  70
    32
  0
VERTEX
  8
241
  5
1B05
 10
-5.31304
 20
-7.45775
 30
0.000000
  70
    32
  0
VERTEX
  8
241
  5
1B06
 10
-5.31083
 20
-7.45708
 30
0.000000
  70
    32
  0
VERTEX
  8
241
  5
1B07
 10
-5.30862
 20
-7.45640
 30
0.000000
  70
    32
  0
VERTEX
  8
241
  5
1B08
 10
-5.30642
 20
-7.45573
 30
0.000000
  70
    32
  0
VERTEX
  8
241
  5
1B09
 10
-5.30421
 20
-7.45506
 30
0.000000
  70
    32
  0
VERTEX
  8
241
  5
1B0A
 10
-5.30200
 20
-7.45438
 30
0.000000
  70
    32
  0
VERTEX
  8
241
  5
1B0B
 10
-5.29979
 20
-7.45371
 30
0.000000
  70
    32
  0
VERTEX
  8
241
  5
1B0C
 10
-5.29758
 20
-7.45303
 30
0.000000
  70
    32
  0
VERTEX
  8
241
  5
1B0D
 10
-5.29537
 20
-7.45236
 30
0.000000
  70
    32
  0
VERTEX
  8
241
  5
1B0E
 10
-5.29316
 20
-7.45169
 30
0.000000
  70
    32
  0
VERTEX
  8
241
  5
1B0F
 10
-5.29096
 20
-7.45101
 30
0.000000
  70
    32
  0
VERTEX
  8
241
  5
1B10
 10
-5.28875
 20
-7.45034
 30
0.000000
  70
    32
  0
VERTEX
  8
241
  5
1B11
 10
-5.28654
 20
-7.44967
 30
0.000000
  70
    32
  0
VERTEX
  8
241
  5
1B12
 10
-5.28433
 20
-7.44899
 30
0.000000
  70
    32
  0
VERTEX
  8
241
  5
1B13
 10
-5.28212
 20
-7.44832
 30
0.000000
  70
    32
  0
VERTEX
  8
241
  5
1B14
 10
-5.27991
 20
-7.44764
 30
0.000000
  70
    32
  0
VERTEX
  8
241
  5
1B15
 10
-5.27770
 20
-7.44697
 30
0.000000
  70
    32
  0
VERTEX
  8
241
  5
1B16
 10
-5.27550
 20
-7.44630
 30
0.000000
  70
    32
  0
VERTEX
  8
241
  5
1B17
 10
-5.27329
 20
-7.44562
 30
0.000000
  70
    32
  0
VERTEX
  8
241
  5
1B18
 10
-5.27108
 20
-7.44495
 30
0.000000
  70
    32
  0
VERTEX
  8
241
  5
1B19
 10
-5.26887
 20
-7.44428
 30
0.000000
  70
    32
  0
VERTEX
  8
241
  5
1B1A
 10
-5.26666
 20
-7.44360
 30
0.000000
  70
    32
  0
VERTEX
  8
241
  5
1B1B
 10
-5.26445
 20
-7.44293
 30
0.000000
  70
    32
  0
VERTEX
  8
241
  5
1B1C
 10
-5.26224
 20
-7.44225
 30
0.000000
  70
    32
  0
VERTEX
  8
241
  5
1B1D
 10
-5.26004
 20
-7.44158
 30
0.000000
  70
    32
  0
VERTEX
  8
241
  5
1B1E
 10
-5.25783
 20
-7.44091
 30
0.000000
  70
    32
  0
VERTEX
  8
241
  5
1B1F
 10
-5.25562
 20
-7.44023
 30
0.000000
  70
    32
  0
VERTEX
  8
241
  5
1B20
 10
-5.25341
 20
-7.43956
 30
0.000000
  70
    32
  0
VERTEX
  8
241
  5
1B21
 10
-5.25120
 20
-7.43889
 30
0.000000
  70
    32
  0
VERTEX
  8
241
  5
1B22
 10
-5.24899
 20
-7.43821
 30
0.000000
  70
    32
  0
VERTEX
  8
241
  5
1B23
 10
-5.24679
 20
-7.43754
 30
0.000000
  70
    32
  0
VERTEX
  8
241
  5
1B24
 10
-5.24458
 20
-7.43686
 30
0.000000
  70
    32
  0
VERTEX
  8
241
  5
1B25
 10
-5.24237
 20
-7.43619
 30
0.000000
  70
    32
  0
VERTEX
  8
241
  5
1B26
 10
-5.24016
 20
-7.43552
 30
0.000000
  70
    32
  0
VERTEX
  8
241
  5
1B27
 10
-5.23795
 20
-7.43484
 30
0.000000
  70
    32
  0
VERTEX
  8
241
  5
1B28
 10
-5.23574
 20
-7.43417
 30
0.000000
  70
    32
  0
VERTEX
  8
241
  5
1B29
 10
-5.23353
 20
-7.43350
 30
0.000000
  70
    32
  0
VERTEX
  8
241
  5
1B2A
 10
-5.23133
 20
-7.43282
 30
0.000000
  70
    32
  0
VERTEX
  8
241
  5
1B2B
 10
-5.22912
 20
-7.43215
 30
0.000000
  70
    32
  0
VERTEX
  8
241
  5
1B2C
 10
-5.22691
 20
-7.43148
 30
0.000000
  70
    32
  0
VERTEX
  8
241
  5
1B2D
 10
-5.22470
 20
-7.43080
 30
0.000000
  70
    32
  0
VERTEX
  8
241
  5
1B2E
 10
-5.22249
 20
-7.43013
 30
0.000000
  70
    32
  0
SEQEND
  8
241
  5
1B2F
  0
POLYLINE
  8
240
  5
1B30
  66
     1
 10
0.000000
 20
0.000000
 30
0.000000
  70
     8
  0
VERTEX
  8
240
  5
1B31
 10
-5.25369
 20
-7.47960
 30
0.000000
  70
    32
  0
VERTEX
  8
240
  5
1B32
 10
-5.23823
 20
-7.45508
 30
0.000000
  70
    32
  0
VERTEX
  8
240
  5
1B33
 10
-5.22277
 20
-7.43057
 30
0.000000
  70
    32
  0
VERTEX
  8
240
  5
1B34
 10
-5.20731
 20
-7.40606
 30
0.000000
  70
    32
  0
VERTEX
  8
240
  5
1B35
 10
-5.19185
 20
-7.38154
 30
0.000000
  70
    32
  0
VERTEX
  8
240
  5
1B36
 10
-5.17639
 20
-7.35703
 30
0.000000
  70
    32
  0
VERTEX
  8
240
  5
1B37
 10
-5.16093
 20
-7.33252
 30
0.000000
  70
    32
  0
VERTEX
  8
240
  5
1B38
 10
-5.14547
 20
-7.30801
 30
0.000000
  70
    32
  0
VERTEX
  8
240
  5
1B39
 10
-5.13000
 20
-7.28350
 30
0.000000
  70
    32
  0
VERTEX
  8
240
  5
1B3A
 10
-5.11453
 20
-7.25900
 30
0.000000
  70
    32
  0
VERTEX
  8
240
  5
1B3B
 10
-5.09907
 20
-7.23449
 30
0.000000
  70
    32
  0
VERTEX
  8
240
  5
1B3C
 10
-5.08359
 20
-7.20999
 30
0.000000
  70
    32
  0
VERTEX
  8
240
  5
1B3D
 10
-5.06812
 20
-7.18549
 30
0.000000
  70
    32
  0
VERTEX
  8
240
  5
1B3E
 10
-5.05264
 20
-7.16099
 30
0.000000
  70
    32
  0
VERTEX
  8
240
  5
1B3F
 10
-5.03716
 20
-7.13650
 30
0.000000
  70
    32
  0
VERTEX
  8
240
  5
1B40
 10
-5.02168
 20
-7.11200
 30
0.000000
  70
    32
  0
VERTEX
  8
240
  5
1B41
 10
-5.00619
 20
-7.08751
 30
0.000000
  70
    32
  0
VERTEX
  8
240
  5
1B42
 10
-4.99070
 20
-7.06303
 30
0.000000
  70
    32
  0
VERTEX
  8
240
  5
1B43
 10
-4.97521
 20
-7.03854
 30
0.000000
  70
    32
  0
VERTEX
  8
240
  5
1B44
 10
-4.95971
 20
-7.01406
 30
0.000000
  70
    32
  0
VERTEX
  8
240
  5
1B45
 10
-4.94421
 20
-6.98959
 30
0.000000
  70
    32
  0
VERTEX
  8
240
  5
1B46
 10
-4.92870
 20
-6.96511
 30
0.000000
  70
    32
  0
VERTEX
  8
240
  5
1B47
 10
-4.91319
 20
-6.94065
 30
0.000000
  70
    32
  0
VERTEX
  8
240
  5
1B48
 10
-4.89767
 20
-6.91618
 30
0.000000
  70
    32
  0
VERTEX
  8
240
  5
1B49
 10
-4.88214
 20
-6.89172
 30
0.000000
  70
    32
  0
VERTEX
  8
240
  5
1B4A
 10
-4.86662
 20
-6.86727
 30
0.000000
  70
    32
  0
VERTEX
  8
240
  5
1B4B
 10
-4.85108
 20
-6.84282
 30
0.000000
  70
    32
  0
VERTEX
  8
240
  5
1B4C
 10
-4.83554
 20
-6.81837
 30
0.000000
  70
    32
  0
VERTEX
  8
240
  5
1B4D
 10
-4.81999
 20
-6.79394
 30
0.000000
  70
    32
  0
VERTEX
  8
240
  5
1B4E
 10
-4.80444
 20
-6.76950
 30
0.000000
  70
    32
  0
VERTEX
  8
240
  5
1B4F
 10
-4.78887
 20
-6.74507
 30
0.000000
  70
    32
  0
VERTEX
  8
240
  5
1B50
 10
-4.77331
 20
-6.72065
 30
0.000000
  70
    32
  0
VERTEX
  8
240
  5
1B51
 10
-4.75773
 20
-6.69624
 30
0.000000
  70
    32
  0
VERTEX
  8
240
  5
1B52
 10
-4.74215
 20
-6.67183
 30
0.000000
  70
    32
  0
VERTEX
  8
240
  5
1B53
 10
-4.72655
 20
-6.64742
 30
0.000000
  70
    32
  0
VERTEX
  8
240
  5
1B54
 10
-4.71096
 20
-6.62303
 30
0.000000
  70
    32
  0
VERTEX
  8
240
  5
1B55
 10
-4.69535
 20
-6.59864
 30
0.000000
  70
    32
  0
VERTEX
  8
240
  5
1B56
 10
-4.67973
 20
-6.57426
 30
0.000000
  70
    32
  0
VERTEX
  8
240
  5
1B57
 10
-4.66411
 20
-6.54988
 30
0.000000
  70
    32
  0
VERTEX
  8
240
  5
1B58
 10
-4.64847
 20
-6.52551
 30
0.000000
  70
    32
  0
VERTEX
  8
240
  5
1B59
 10
-4.63283
 20
-6.50115
 30
0.000000
  70
    32
  0
VERTEX
  8
240
  5
1B5A
 10
-4.61718
 20
-6.47680
 30
0.000000
  70
    32
  0
VERTEX
  8
240
  5
1B5B
 10
-4.60151
 20
-6.45246
 30
0.000000
  70
    32
  0
VERTEX
  8
240
  5
1B5C
 10
-4.58584
 20
-6.42812
 30
0.000000
  70
    32
  0
VERTEX
  8
240
  5
1B5D
 10
-4.57016
 20
-6.40380
 30
0.000000
  70
    32
  0
VERTEX
  8
240
  5
1B5E
 10
-4.55446
 20
-6.37948
 30
0.000000
  70
    32
  0
VERTEX
  8
240
  5
1B5F
 10
-4.53876
 20
-6.35517
 30
0.000000
  70
    32
  0
VERTEX
  8
240
  5
1B60
 10
-4.52304
 20
-6.33087
 30
0.000000
  70
    32
  0
VERTEX
  8
240
  5
1B61
 10
-4.50732
 20
-6.30658
 30
0.000000
  70
    32
  0
VERTEX
  8
240
  5
1B62
 10
-4.49158
 20
-6.28229
 30
0.000000
  70
    32
  0
VERTEX
  8
240
  5
1B63
 10
-4.47583
 20
-6.25802
 30
0.000000
  70
    32
  0
VERTEX
  8
240
  5
1B64
 10
-4.46007
 20
-6.23376
 30
0.000000
  70
    32
  0
VERTEX
  8
240
  5
1B65
 10
-4.44430
 20
-6.20951
 30
0.000000
  70
    32
  0
VERTEX
  8
240
  5
1B66
 10
-4.42851
 20
-6.18527
 30
0.000000
  70
    32
  0
VERTEX
  8
240
  5
1B67
 10
-4.41271
 20
-6.16103
 30
0.000000
  70
    32
  0
VERTEX
  8
240
  5
1B68
 10
-4.39690
 20
-6.13681
 30
0.000000
  70
    32
  0
VERTEX
  8
240
  5
1B69
 10
-4.38108
 20
-6.11260
 30
0.000000
  70
    32
  0
VERTEX
  8
240
  5
1B6A
 10
-4.36524
 20
-6.08841
 30
0.000000
  70
    32
  0
VERTEX
  8
240
  5
1B6B
 10
-4.34939
 20
-6.06422
 30
0.000000
  70
    32
  0
VERTEX
  8
240
  5
1B6C
 10
-4.33353
 20
-6.04004
 30
0.000000
  70
    32
  0
VERTEX
  8
240
  5
1B6D
 10
-4.31765
 20
-6.01588
 30
0.000000
  70
    32
  0
VERTEX
  8
240
  5
1B6E
 10
-4.30175
 20
-5.99172
 30
0.000000
  70
    32
  0
VERTEX
  8
240
  5
1B6F
 10
-4.28585
 20
-5.96758
 30
0.000000
  70
    32
  0
VERTEX
  8
240
  5
1B70
 10
-4.26992
 20
-5.94346
 30
0.000000
  70
    32
  0
VERTEX
  8
240
  5
1B71
 10
-4.25399
 20
-5.91934
 30
0.000000
  70
    32
  0
VERTEX
  8
240
  5
1B72
 10
-4.23804
 20
-5.89524
 30
0.000000
  70
    32
  0
VERTEX
  8
240
  5
1B73
 10
-4.22207
 20
-5.87115
 30
0.000000
  70
    32
  0
VERTEX
  8
240
  5
1B74
 10
-4.20608
 20
-5.84707
 30
0.000000
  70
    32
  0
VERTEX
  8
240
  5
1B75
 10
-4.19008
 20
-5.82300
 30
0.000000
  70
    32
  0
VERTEX
  8
240
  5
1B76
 10
-4.17407
 20
-5.79895
 30
0.000000
  70
    32
  0
VERTEX
  8
240
  5
1B77
 10
-4.15804
 20
-5.77492
 30
0.000000
  70
    32
  0
VERTEX
  8
240
  5
1B78
 10
-4.14199
 20
-5.75089
 30
0.000000
  70
    32
  0
VERTEX
  8
240
  5
1B79
 10
-4.12592
 20
-5.72688
 30
0.000000
  70
    32
  0
VERTEX
  8
240
  5
1B7A
 10
-4.10984
 20
-5.70289
 30
0.000000
  70
    32
  0
VERTEX
  8
240
  5
1B7B
 10
-4.09374
 20
-5.67891
 30
0.000000
  70
    32
  0
VERTEX
  8
240
  5
1B7C
 10
-4.07762
 20
-5.65494
 30
0.000000
  70
    32
  0
VERTEX
  8
240
  5
1B7D
 10
-4.06149
 20
-5.63099
 30
0.000000
  70
    32
  0
VERTEX
  8
240
  5
1B7E
 10
-4.04533
 20
-5.60705
 30
0.000000
  70
    32
  0
VERTEX
  8
240
  5
1B7F
 10
-4.02916
 20
-5.58313
 30
0.000000
  70
    32
  0
VERTEX
  8
240
  5
1B80
 10
-4.01297
 20
-5.55923
 30
0.000000
  70
    32
  0
VERTEX
  8
240
  5
1B81
 10
-3.99676
 20
-5.53534
 30
0.000000
  70
    32
  0
VERTEX
  8
240
  5
1B82
 10
-3.98054
 20
-5.51146
 30
0.000000
  70
    32
  0
VERTEX
  8
240
  5
1B83
 10
-3.96429
 20
-5.48760
 30
0.000000
  70
    32
  0
VERTEX
  8
240
  5
1B84
 10
-3.94802
 20
-5.46376
 30
0.000000
  70
    32
  0
VERTEX
  8
240
  5
1B85
 10
-3.93174
 20
-5.43993
 30
0.000000
  70
    32
  0
VERTEX
  8
240
  5
1B86
 10
-3.91543
 20
-5.41612
 30
0.000000
  70
    32
  0
VERTEX
  8
240
  5
1B87
 10
-3.89910
 20
-5.39233
 30
0.000000
  70
    32
  0
VERTEX
  8
240
  5
1B88
 10
-3.88276
 20
-5.36856
 30
0.000000
  70
    32
  0
VERTEX
  8
240
  5
1B89
 10
-3.86639
 20
-5.34480
 30
0.000000
  70
    32
  0
VERTEX
  8
240
  5
1B8A
 10
-3.85000
 20
-5.32106
 30
0.000000
  70
    32
  0
VERTEX
  8
240
  5
1B8B
 10
-3.83359
 20
-5.29733
 30
0.000000
  70
    32
  0
VERTEX
  8
240
  5
1B8C
 10
-3.81716
 20
-5.27363
 30
0.000000
  70
    32
  0
VERTEX
  8
240
  5
1B8D
 10
-3.80071
 20
-5.24994
 30
0.000000
  70
    32
  0
VERTEX
  8
240
  5
1B8E
 10
-3.78423
 20
-5.22627
 30
0.000000
  70
    32
  0
VERTEX
  8
240
  5
1B8F
 10
-3.76774
 20
-5.20262
 30
0.000000
  70
    32
  0
VERTEX
  8
240
  5
1B90
 10
-3.75122
 20
-5.17899
 30
0.000000
  70
    32
  0
VERTEX
  8
240
  5
1B91
 10
-3.73467
 20
-5.15537
 30
0.000000
  70
    32
  0
VERTEX
  8
240
  5
1B92
 10
-3.71811
 20
-5.13178
 30
0.000000
  70
    32
  0
VERTEX
  8
240
  5
1B93
 10
-3.70152
 20
-5.10820
 30
0.000000
  70
    32
  0
VERTEX
  8
240
  5
1B94
 10
-3.68491
 20
-5.08464
 30
0.000000
  70
    32
  0
VERTEX
  8
240
  5
1B95
 10
-3.66828
 20
-5.06111
 30
0.000000
  70
    32
  0
VERTEX
  8
240
  5
1B96
 10
-3.65162
 20
-5.03759
 30
0.000000
  70
    32
  0
VERTEX
  8
240
  5
1B97
 10
-3.63494
 20
-5.01409
 30
0.000000
  70
    32
  0
VERTEX
  8
240
  5
1B98
 10
-3.61823
 20
-4.99061
 30
0.000000
  70
    32
  0
VERTEX
  8
240
  5
1B99
 10
-3.60150
 20
-4.96716
 30
0.000000
  70
    32
  0
VERTEX
  8
240
  5
1B9A
 10
-3.58475
 20
-4.94372
 30
0.000000
  70
    32
  0
VERTEX
  8
240
  5
1B9B
 10
-3.56797
 20
-4.92030
 30
0.000000
  70
    32
  0
VERTEX
  8
240
  5
1B9C
 10
-3.55116
 20
-4.89691
 30
0.000000
  70
    32
  0
VERTEX
  8
240
  5
1B9D
 10
-3.53433
 20
-4.87354
 30
0.000000
  70
    32
  0
VERTEX
  8
240
  5
1B9E
 10
-3.51747
 20
-4.85018
 30
0.000000
  70
    32
  0
VERTEX
  8
240
  5
1B9F
 10
-3.50059
 20
-4.82685
 30
0.000000
  70
    32
  0
VERTEX
  8
240
  5
1BA0
 10
-3.48368
 20
-4.80354
 30
0.000000
  70
    32
  0
VERTEX
  8
240
  5
1BA1
 10
-3.46675
 20
-4.78026
 30
0.000000
  70
    32
  0
VERTEX
  8
240
  5
1BA2
 10
-3.44978
 20
-4.75699
 30
0.000000
  70
    32
  0
VERTEX
  8
240
  5
1BA3
 10
-3.43280
 20
-4.73375
 30
0.000000
  70
    32
  0
VERTEX
  8
240
  5
1BA4
 10
-3.41578
 20
-4.71053
 30
0.000000
  70
    32
  0
VERTEX
  8
240
  5
1BA5
 10
-3.39874
 20
-4.68733
 30
0.000000
  70
    32
  0
VERTEX
  8
240
  5
1BA6
 10
-3.38167
 20
-4.66415
 30
0.000000
  70
    32
  0
VERTEX
  8
240
  5
1BA7
 10
-3.36457
 20
-4.64100
 30
0.000000
  70
    32
  0
VERTEX
  8
240
  5
1BA8
 10
-3.34744
 20
-4.61787
 30
0.000000
  70
    32
  0
VERTEX
  8
240
  5
1BA9
 10
-3.33029
 20
-4.59477
 30
0.000000
  70
    32
  0
VERTEX
  8
240
  5
1BAA
 10
-3.31311
 20
-4.57169
 30
0.000000
  70
    32
  0
VERTEX
  8
240
  5
1BAB
 10
-3.29589
 20
-4.54863
 30
0.000000
  70
    32
  0
VERTEX
  8
240
  5
1BAC
 10
-3.27865
 20
-4.52559
 30
0.000000
  70
    32
  0
VERTEX
  8
240
  5
1BAD
 10
-3.26138
 20
-4.50259
 30
0.000000
  70
    32
  0
VERTEX
  8
240
  5
1BAE
 10
-3.24408
 20
-4.47960
 30
0.000000
  70
    32
  0
VERTEX
  8
240
  5
1BAF
 10
-3.22675
 20
-4.45664
 30
0.000000
  70
    32
  0
VERTEX
  8
240
  5
1BB0
 10
-3.20939
 20
-4.43371
 30
0.000000
  70
    32
  0
VERTEX
  8
240
  5
1BB1
 10
-3.19201
 20
-4.41079
 30
0.000000
  70
    32
  0
VERTEX
  8
240
  5
1BB2
 10
-3.17459
 20
-4.38791
 30
0.000000
  70
    32
  0
VERTEX
  8
240
  5
1BB3
 10
-3.15714
 20
-4.36505
 30
0.000000
  70
    32
  0
VERTEX
  8
240
  5
1BB4
 10
-3.13965
 20
-4.34222
 30
0.000000
  70
    32
  0
VERTEX
  8
240
  5
1BB5
 10
-3.12214
 20
-4.31941
 30
0.000000
  70
    32
  0
VERTEX
  8
240
  5
1BB6
 10
-3.10460
 20
-4.29663
 30
0.000000
  70
    32
  0
VERTEX
  8
240
  5
1BB7
 10
-3.08702
 20
-4.27387
 30
0.000000
  70
    32
  0
VERTEX
  8
240
  5
1BB8
 10
-3.06941
 20
-4.25114
 30
0.000000
  70
    32
  0
VERTEX
  8
240
  5
1BB9
 10
-3.05176
 20
-4.22845
 30
0.000000
  70
    32
  0
VERTEX
  8
240
  5
1BBA
 10
-3.03407
 20
-4.20579
 30
0.000000
  70
    32
  0
VERTEX
  8
240
  5
1BBB
 10
-3.01632
 20
-4.18316
 30
0.000000
  70
    32
  0
VERTEX
  8
240
  5
1BBC
 10
-2.99853
 20
-4.16058
 30
0.000000
  70
    32
  0
VERTEX
  8
240
  5
1BBD
 10
-2.98068
 20
-4.13804
 30
0.000000
  70
    32
  0
VERTEX
  8
240
  5
1BBE
 10
-2.96276
 20
-4.11554
 30
0.000000
  70
    32
  0
VERTEX
  8
240
  5
1BBF
 10
-2.94478
 20
-4.09309
 30
0.000000
  70
    32
  0
VERTEX
  8
240
  5
1BC0
 10
-2.92673
 20
-4.07070
 30
0.000000
  70
    32
  0
VERTEX
  8
240
  5
1BC1
 10
-2.90861
 20
-4.04836
 30
0.000000
  70
    32
  0
VERTEX
  8
240
  5
1BC2
 10
-2.89041
 20
-4.02607
 30
0.000000
  70
    32
  0
VERTEX
  8
240
  5
1BC3
 10
-2.87212
 20
-4.00385
 30
0.000000
  70
    32
  0
VERTEX
  8
240
  5
1BC4
 10
-2.85375
 20
-3.98169
 30
0.000000
  70
    32
  0
VERTEX
  8
240
  5
1BC5
 10
-2.83528
 20
-3.95959
 30
0.000000
  70
    32
  0
VERTEX
  8
240
  5
1BC6
 10
-2.81672
 20
-3.93756
 30
0.000000
  70
    32
  0
VERTEX
  8
240
  5
1BC7
 10
-2.79805
 20
-3.91561
 30
0.000000
  70
    32
  0
VERTEX
  8
240
  5
1BC8
 10
-2.77928
 20
-3.89373
 30
0.000000
  70
    32
  0
VERTEX
  8
240
  5
1BC9
 10
-2.76041
 20
-3.87192
 30
0.000000
  70
    32
  0
VERTEX
  8
240
  5
1BCA
 10
-2.74141
 20
-3.85020
 30
0.000000
  70
    32
  0
VERTEX
  8
240
  5
1BCB
 10
-2.72230
 20
-3.82856
 30
0.000000
  70
    32
  0
VERTEX
  8
240
  5
1BCC
 10
-2.70307
 20
-3.80700
 30
0.000000
  70
    32
  0
VERTEX
  8
240
  5
1BCD
 10
-2.68371
 20
-3.78554
 30
0.000000
  70
    32
  0
VERTEX
  8
240
  5
1BCE
 10
-2.66421
 20
-3.76416
 30
0.000000
  70
    32
  0
VERTEX
  8
240
  5
1BCF
 10
-2.64459
 20
-3.74288
 30
0.000000
  70
    32
  0
VERTEX
  8
240
  5
1BD0
 10
-2.62482
 20
-3.72170
 30
0.000000
  70
    32
  0
VERTEX
  8
240
  5
1BD1
 10
-2.60490
 20
-3.70061
 30
0.000000
  70
    32
  0
VERTEX
  8
240
  5
1BD2
 10
-2.58484
 20
-3.67963
 30
0.000000
  70
    32
  0
VERTEX
  8
240
  5
1BD3
 10
-2.56463
 20
-3.65876
 30
0.000000
  70
    32
  0
VERTEX
  8
240
  5
1BD4
 10
-2.54425
 20
-3.63799
 30
0.000000
  70
    32
  0
VERTEX
  8
240
  5
1BD5
 10
-2.52372
 20
-3.61733
 30
0.000000
  70
    32
  0
VERTEX
  8
240
  5
1BD6
 10
-2.50301
 20
-3.59679
 30
0.000000
  70
    32
  0
VERTEX
  8
240
  5
1BD7
 10
-2.48214
 20
-3.57637
 30
0.000000
  70
    32
  0
VERTEX
  8
240
  5
1BD8
 10
-2.46109
 20
-3.55607
 30
0.000000
  70
    32
  0
VERTEX
  8
240
  5
1BD9
 10
-2.43986
 20
-3.53589
 30
0.000000
  70
    32
  0
VERTEX
  8
240
  5
1BDA
 10
-2.41845
 20
-3.51583
 30
0.000000
  70
    32
  0
VERTEX
  8
240
  5
1BDB
 10
-2.39685
 20
-3.49590
 30
0.000000
  70
    32
  0
VERTEX
  8
240
  5
1BDC
 10
-2.37508
 20
-3.47609
 30
0.000000
  70
    32
  0
VERTEX
  8
240
  5
1BDD
 10
-2.35316
 20
-3.45639
 30
0.000000
  70
    32
  0
VERTEX
  8
240
  5
1BDE
 10
-2.33111
 20
-3.43677
 30
0.000000
  70
    32
  0
VERTEX
  8
240
  5
1BDF
 10
-2.30895
 20
-3.41723
 30
0.000000
  70
    32
  0
VERTEX
  8
240
  5
1BE0
 10
-2.28671
 20
-3.39775
 30
0.000000
  70
    32
  0
VERTEX
  8
240
  5
1BE1
 10
-2.26440
 20
-3.37832
 30
0.000000
  70
    32
  0
VERTEX
  8
240
  5
1BE2
 10
-2.24206
 20
-3.35892
 30
0.000000
  70
    32
  0
VERTEX
  8
240
  5
1BE3
 10
-2.21968
 20
-3.33954
 30
0.000000
  70
    32
  0
VERTEX
  8
240
  5
1BE4
 10
-2.19731
 20
-3.32017
 30
0.000000
  70
    32
  0
VERTEX
  8
240
  5
1BE5
 10
-2.17496
 20
-3.30079
 30
0.000000
  70
    32
  0
VERTEX
  8
240
  5
1BE6
 10
-2.15266
 20
-3.28139
 30
0.000000
  70
    32
  0
VERTEX
  8
240
  5
1BE7
 10
-2.13042
 20
-3.26195
 30
0.000000
  70
    32
  0
VERTEX
  8
240
  5
1BE8
 10
-2.10826
 20
-3.24247
 30
0.000000
  70
    32
  0
VERTEX
  8
240
  5
1BE9
 10
-2.08621
 20
-3.22292
 30
0.000000
  70
    32
  0
VERTEX
  8
240
  5
1BEA
 10
-2.06429
 20
-3.20329
 30
0.000000
  70
    32
  0
VERTEX
  8
240
  5
1BEB
 10
-2.04252
 20
-3.18357
 30
0.000000
  70
    32
  0
VERTEX
  8
240
  5
1BEC
 10
-2.02092
 20
-3.16374
 30
0.000000
  70
    32
  0
VERTEX
  8
240
  5
1BED
 10
-1.99952
 20
-3.14380
 30
0.000000
  70
    32
  0
VERTEX
  8
240
  5
1BEE
 10
-1.97833
 20
-3.12372
 30
0.000000
  70
    32
  0
VERTEX
  8
240
  5
1BEF
 10
-1.95737
 20
-3.10349
 30
0.000000
  70
    32
  0
VERTEX
  8
240
  5
1BF0
 10
-1.93667
 20
-3.08311
 30
0.000000
  70
    32
  0
VERTEX
  8
240
  5
1BF1
 10
-1.91626
 20
-3.06255
 30
0.000000
  70
    32
  0
VERTEX
  8
240
  5
1BF2
 10
-1.89614
 20
-3.04179
 30
0.000000
  70
    32
  0
VERTEX
  8
240
  5
1BF3
 10
-1.87634
 20
-3.02084
 30
0.000000
  70
    32
  0
VERTEX
  8
240
  5
1BF4
 10
-1.85689
 20
-2.99967
 30
0.000000
  70
    32
  0
VERTEX
  8
240
  5
1BF5
 10
-1.83780
 20
-2.97826
 30
0.000000
  70
    32
  0
VERTEX
  8
240
  5
1BF6
 10
-1.81909
 20
-2.95662
 30
0.000000
  70
    32
  0
VERTEX
  8
240
  5
1BF7
 10
-1.80080
 20
-2.93471
 30
0.000000
  70
    32
  0
VERTEX
  8
240
  5
1BF8
 10
-1.78293
 20
-2.91253
 30
0.000000
  70
    32
  0
VERTEX
  8
240
  5
1BF9
 10
-1.76552
 20
-2.89006
 30
0.000000
  70
    32
  0
VERTEX
  8
240
  5
1BFA
 10
-1.74857
 20
-2.86730
 30
0.000000
  70
    32
  0
VERTEX
  8
240
  5
1BFB
 10
-1.73212
 20
-2.84421
 30
0.000000
  70
    32
  0
VERTEX
  8
240
  5
1BFC
 10
-1.71619
 20
-2.82080
 30
0.000000
  70
    32
  0
VERTEX
  8
240
  5
1BFD
 10
-1.70079
 20
-2.79705
 30
0.000000
  70
    32
  0
VERTEX
  8
240
  5
1BFE
 10
-1.68594
 20
-2.77294
 30
0.000000
  70
    32
  0
VERTEX
  8
240
  5
1BFF
 10
-1.67168
 20
-2.74846
 30
0.000000
  70
    32
  0
VERTEX
  8
240
  5
1C00
 10
-1.65802
 20
-2.72359
 30
0.000000
  70
    32
  0
VERTEX
  8
240
  5
1C01
 10
-1.64498
 20
-2.69833
 30
0.000000
  70
    32
  0
VERTEX
  8
240
  5
1C02
 10
-1.63256
 20
-2.67267
 30
0.000000
  70
    32
  0
VERTEX
  8
240
  5
1C03
 10
-1.62075
 20
-2.64665
 30
0.000000
  70
    32
  0
VERTEX
  8
240
  5
1C04
 10
-1.60955
 20
-2.62027
 30
0.000000
  70
    32
  0
VERTEX
  8
240
  5
1C05
 10
-1.59892
 20
-2.59356
 30
0.000000
  70
    32
  0
VERTEX
  8
240
  5
1C06
 10
-1.58887
 20
-2.56655
 30
0.000000
  70
    32
  0
VERTEX
  8
240
  5
1C07
 10
-1.57937
 20
-2.53926
 30
0.000000
  70
    32
  0
VERTEX
  8
240
  5
1C08
 10
-1.57042
 20
-2.51170
 30
0.000000
  70
    32
  0
VERTEX
  8
240
  5
1C09
 10
-1.56200
 20
-2.48390
 30
0.000000
  70
    32
  0
VERTEX
  8
240
  5
1C0A
 10
-1.55409
 20
-2.45589
 30
0.000000
  70
    32
  0
VERTEX
  8
240
  5
1C0B
 10
-1.54668
 20
-2.42768
 30
0.000000
  70
    32
  0
VERTEX
  8
240
  5
1C0C
 10
-1.53976
 20
-2.39929
 30
0.000000
  70
    32
  0
VERTEX
  8
240
  5
1C0D
 10
-1.53331
 20
-2.37075
 30
0.000000
  70
    32
  0
VERTEX
  8
240
  5
1C0E
 10
-1.52733
 20
-2.34209
 30
0.000000
  70
    32
  0
VERTEX
  8
240
  5
1C0F
 10
-1.52179
 20
-2.31331
 30
0.000000
  70
    32
  0
VERTEX
  8
240
  5
1C10
 10
-1.51668
 20
-2.28445
 30
0.000000
  70
    32
  0
VERTEX
  8
240
  5
1C11
 10
-1.51200
 20
-2.25553
 30
0.000000
  70
    32
  0
VERTEX
  8
240
  5
1C12
 10
-1.50771
 20
-2.22657
 30
0.000000
  70
    32
  0
VERTEX
  8
240
  5
1C13
 10
-1.50382
 20
-2.19758
 30
0.000000
  70
    32
  0
VERTEX
  8
240
  5
1C14
 10
-1.50031
 20
-2.16860
 30
0.000000
  70
    32
  0
VERTEX
  8
240
  5
1C15
 10
-1.49716
 20
-2.13963
 30
0.000000
  70
    32
  0
VERTEX
  8
240
  5
1C16
 10
-1.49437
 20
-2.11067
 30
0.000000
  70
    32
  0
VERTEX
  8
240
  5
1C17
 10
-1.49191
 20
-2.08171
 30
0.000000
  70
    32
  0
VERTEX
  8
240
  5
1C18
 10
-1.48978
 20
-2.05277
 30
0.000000
  70
    32
  0
VERTEX
  8
240
  5
1C19
 10
-1.48795
 20
-2.02384
 30
0.000000
  70
    32
  0
VERTEX
  8
240
  5
1C1A
 10
-1.48643
 20
-1.99492
 30
0.000000
  70
    32
  0
VERTEX
  8
240
  5
1C1B
 10
-1.48520
 20
-1.96601
 30
0.000000
  70
    32
  0
VERTEX
  8
240
  5
1C1C
 10
-1.48424
 20
-1.93710
 30
0.000000
  70
    32
  0
VERTEX
  8
240
  5
1C1D
 10
-1.48353
 20
-1.90820
 30
0.000000
  70
    32
  0
VERTEX
  8
240
  5
1C1E
 10
-1.48308
 20
-1.87931
 30
0.000000
  70
    32
  0
VERTEX
  8
240
  5
1C1F
 10
-1.48286
 20
-1.85043
 30
0.000000
  70
    32
  0
VERTEX
  8
240
  5
1C20
 10
-1.48286
 20
-1.82155
 30
0.000000
  70
    32
  0
VERTEX
  8
240
  5
1C21
 10
-1.48307
 20
-1.79268
 30
0.000000
  70
    32
  0
VERTEX
  8
240
  5
1C22
 10
-1.48348
 20
-1.76382
 30
0.000000
  70
    32
  0
VERTEX
  8
240
  5
1C23
 10
-1.48406
 20
-1.73496
 30
0.000000
  70
    32
  0
VERTEX
  8
240
  5
1C24
 10
-1.48482
 20
-1.70611
 30
0.000000
  70
    32
  0
VERTEX
  8
240
  5
1C25
 10
-1.48573
 20
-1.67726
 30
0.000000
  70
    32
  0
VERTEX
  8
240
  5
1C26
 10
-1.48679
 20
-1.64842
 30
0.000000
  70
    32
  0
VERTEX
  8
240
  5
1C27
 10
-1.48797
 20
-1.61958
 30
0.000000
  70
    32
  0
VERTEX
  8
240
  5
1C28
 10
-1.48927
 20
-1.59074
 30
0.000000
  70
    32
  0
VERTEX
  8
240
  5
1C29
 10
-1.49068
 20
-1.56191
 30
0.000000
  70
    32
  0
VERTEX
  8
240
  5
1C2A
 10
-1.49218
 20
-1.53308
 30
0.000000
  70
    32
  0
VERTEX
  8
240
  5
1C2B
 10
-1.49375
 20
-1.50425
 30
0.000000
  70
    32
  0
VERTEX
  8
240
  5
1C2C
 10
-1.49540
 20
-1.47542
 30
0.000000
  70
    32
  0
VERTEX
  8
240
  5
1C2D
 10
-1.49709
 20
-1.44660
 30
0.000000
  70
    32
  0
VERTEX
  8
240
  5
1C2E
 10
-1.49882
 20
-1.41777
 30
0.000000
  70
    32
  0
VERTEX
  8
240
  5
1C2F
 10
-1.50058
 20
-1.38895
 30
0.000000
  70
    32
  0
VERTEX
  8
240
  5
1C30
 10
-1.50235
 20
-1.36013
 30
0.000000
  70
    32
  0
SEQEND
  8
240
  5
1C31
  0
LINE
  5
1765
  8
241
 10
-6.0551506129667132
 20
7.5583142328521902
 30
0.0
 11
-12.207858468564719
 21
4.00604635139642
 31
0.0
  0
ENDBLK
  5
1768
  8
0
  0
ENDSEC
  0
SECTION
  2
ENTITIES
  0
TEXT
  5
13F7
  8
241
 10
-108.27099326114561
 20
24.330962467065898
 30
0.0
 40
3.0
  1
ST16-C0214-30-40
  7
YOKO
 11
-108.27099326114561
 21
24.330962467065898
 31
0.0
 73
     1
  0
LINE
  5
1639
  8
250
 10
-105.0023503878475
 20
-7.9999999999999849
 30
0.0
 11
-113.0
 21
-7.999999999999984
 31
0.0
  0
LINE
  5
163A
  8
250
 10
-105.0023503878475
 20
8.0000000000000142
 30
0.0
 11
-113.0
 21
8.0000000000000178
 31
0.0
  0
LINE
  5
163B
  8
250
 10
-112.0
 20
-5.7699999999999827
 30
0.0
 11
-112.0
 21
5.7700000000000173
 31
0.0
  0
LINE
  5
163F
  8
250
 10
-40.170979537949059
 20
-8.1999999999999744
 30
0.0
 11
-40.170979537949059
 21
-22.0
 31
0.0
  0
LINE
  5
1640
  8
250
 10
0.0
 20
0.0817819657226551
 30
0.0
 11
-0.0000000000000014
 21
-22.0
 31
0.0
  0
LINE
  5
1641
  8
250
 10
-37.940979537949069
 20
-21.0
 30
0.0
 11
-2.2300000000000009
 21
-21.0
 31
0.0
  0
LINE
  5
1645
  8
250
 10
-105.5023503878475
 20
-7.4999999999999849
 30
0.0
 11
-105.5023503878475
 21
-29.0
 31
0.0
  0
LINE
  5
1646
  8
250
 10
0.0
 20
0.0817819657226551
 30
0.0
 11
-0.0000000000000018
 21
-29.0
 31
0.0
  0
LINE
  5
1647
  8
250
 10
-103.2723503878475
 20
-28.0
 30
0.0
 11
-2.2300000000000009
 21
-28.0
 31
0.0
  0
LINE
  5
164B
  8
250
 10
0.3243297823907767
 20
0.9999999999999927
 30
0.0
 11
8.4530258772843752
 21
0.9999999999999905
 31
0.0
  0
LINE
  5
164C
  8
250
 10
7.453025877284376
 20
5.4599999999999902
 30
0.0
 11
7.453025877284376
 21
3.2299999999999902
 31
0.0
  0
LINE
  5
164D
  8
250
 10
7.453025877284376
 20
0.9999999999999907
 30
0.0
 11
7.4530258772843752
 21
-5.5871428571428581
 31
0.0
  0
LINE
  5
1650
  8
250
 10
-3.1397715385512579
 20
6.999999999999992
 30
0.0
 11
15.45302587728437
 21
6.9999999999999867
 31
0.0
  0
LINE
  5
1651
  8
250
 10
14.45302587728437
 20
4.7699999999999871
 30
0.0
 11
14.45302587728437
 21
-4.8571428571428621
 31
0.0
  0
LINE
  5
1654
  8
250
 10
0.0
 20
1.1957302318834671
 30
0.0
 11
0.0000000000000009
 21
14.667227878669181
 31
0.0
  0
LINE
  5
1655
  8
250
 10
-4.1939529872497756
 20
7.959870507276916
 30
0.0
 11
-6.9857483784338541
 21
12.795402379811581
 31
0.0
  0
ARC
  5
1656
  8
250
 10
0.0
 20
0.6957302318834678
 30
0.0
 40
12.971497646785711
 50
99.862196305317184
 51
110.137801587661
  0
TEXT
  5
165A
  8
250
 10
-7.1655629118415671
 20
13.90571980464388
 30
0.0
 40
3.0
  1
30üï
 50
9.5628247367329582
  0
LINE
  5
165B
  8
250
 10
-4.3083387430011193
 20
12.53759012088544
 30
0.0
 11
-6.48574841028148
 21
11.92937695763991
 31
0.0
  0
LINE
  5
165C
  8
250
 10
-4.6232948860688801
 20
13.210900652800939
 30
0.0
 11
-6.48574841028148
 21
11.92937695763991
 31
0.0
  0
LINE
  5
165D
  8
250
 10
-6.48574841028148
 20
11.92937695763991
 30
0.0
 11
-4.4658168145349988
 21
12.874245386843191
 31
0.0
  0
LINE
  5
165E
  8
250
 10
-2.2536939063483641
 20
13.84583327500242
 30
0.0
 11
0.0000000000000004
 21
13.66722787866917
 31
0.0
  0
LINE
  5
165F
  8
250
 10
-2.1897986885997769
 20
13.105251175844399
 30
0.0
 11
0.0000000000000004
 21
13.66722787866917
 31
0.0
  0
LINE
  5
1660
  8
250
 10
0.0000000000000004
 20
13.66722787866917
 30
0.0
 11
-2.2217462974740712
 21
13.475542225423411
 31
0.0
  0
TEXT
  5
1661
  8
250
 10
13.45302587728437
 20
-4.142857142857145
 30
0.0
 40
3.0
  1
\U+2205
 50
90.0
  0
TEXT
  5
1662
  8
250
 10
13.45302587728437
 20
-1.4285714285714299
 30
0.0
 40
3.0
  1
14
 50
90.0
  0
LINE
  5
1663
  8
250
 10
14.081359210617711
 20
4.7699999999999871
 30
0.0
 11
14.45302587728437
 21
6.9999999999999867
 31
0.0
  0
LINE
  5
1664
  8
250
 10
14.82469254395104
 20
4.7699999999999871
 30
0.0
 11
14.45302587728437
 21
6.9999999999999867
 31
0.0
  0
LINE
  5
1665
  8
250
 10
14.45302587728437
 20
6.9999999999999867
 30
0.0
 11
14.45302587728437
 21
4.7699999999999871
 31
0.0
  0
TEXT
  5
1666
  8
250
 10
6.4530258772843734
 20
-5.4093567941943776
 30
0.0
 40
3.0
  1
\U+2205
 50
90.0
  0
TEXT
  5
1667
  8
250
 10
6.4530258772843734
 20
-2.6950710799086628
 30
0.0
 40
3.0
  1
2
 50
90.0
  0
LINE
  5
1668
  8
250
 10
7.8246925439510431
 20
3.2299999999999902
 30
0.0
 11
7.453025877284376
 21
0.9999999999999907
 31
0.0
  0
LINE
  5
1669
  8
250
 10
7.081359210617709
 20
3.2299999999999902
 30
0.0
 11
7.453025877284376
 21
0.9999999999999907
 31
0.0
  0
LINE
  5
166A
  8
250
 10
7.453025877284376
 20
0.9999999999999907
 30
0.0
 11
7.453025877284376
 21
3.2299999999999902
 31
0.0
  0
TEXT
  5
166B
  8
250
 10
-56.95117519392376
 20
-27.0
 30
0.0
 40
2.7999999999999989
  1
105
  0
LINE
  5
166C
  8
250
 10
-2.2300000000000009
 20
-27.62833333333333
 30
0.0
 11
-0.0000000000000018
 21
-28.0
 31
0.0
  0
LINE
  5
166D
  8
250
 10
-2.2300000000000009
 20
-28.371666666666659
 30
0.0
 11
-0.0000000000000018
 21
-28.0
 31
0.0
  0
LINE
  5
166E
  8
250
 10
-0.0000000000000018
 20
-28.0
 30
0.0
 11
-2.2300000000000009
 21
-28.0
 31
0.0
  0
LINE
  5
166F
  8
250
 10
-103.2723503878475
 20
-28.371666666666659
 30
0.0
 11
-105.5023503878475
 21
-28.0
 31
0.0
  0
LINE
  5
1670
  8
250
 10
-103.2723503878475
 20
-27.62833333333333
 30
0.0
 11
-105.5023503878475
 21
-28.0
 31
0.0
  0
LINE
  5
1671
  8
250
 10
-105.5023503878475
 20
-28.0
 30
0.0
 11
-103.2723503878475
 21
-28.0
 31
0.0
  0
TEXT
  5
1672
  8
250
 10
-22.752156435641201
 20
-20.0
 30
0.0
 40
2.7999999999999989
  1
40
  0
LINE
  5
1673
  8
250
 10
-2.2300000000000009
 20
-20.62833333333333
 30
0.0
 11
-0.0000000000000013
 21
-21.0
 31
0.0
  0
LINE
  5
1674
  8
250
 10
-2.2300000000000009
 20
-21.37166666666667
 30
0.0
 11
-0.0000000000000013
 21
-21.0
 31
0.0
  0
LINE
  5
1675
  8
250
 10
-0.0000000000000013
 20
-21.0
 30
0.0
 11
-2.2300000000000009
 21
-21.0
 31
0.0
  0
LINE
  5
1676
  8
250
 10
-37.940979537949069
 20
-21.37166666666667
 30
0.0
 11
-40.170979537949059
 21
-21.0
 31
0.0
  0
LINE
  5
1677
  8
250
 10
-37.940979537949069
 20
-20.62833333333333
 30
0.0
 11
-40.170979537949059
 21
-21.0
 31
0.0
  0
LINE
  5
1678
  8
250
 10
-40.170979537949059
 20
-21.0
 30
0.0
 11
-37.940979537949069
 21
-21.0
 31
0.0
  0
TEXT
  5
1679
  8
250
 10
-113.0
 20
-3.8952380952380952
 30
0.0
 40
3.0
  1
\U+2205
 50
90.0
  0
TEXT
  5
167A
  8
250
 10
-113.09999999999999
 20
-1.180952380952381
 30
0.0
 40
2.7999999999999989
  1
16
 50
90.0
  0
LINE
  5
167B
  8
250
 10
-112.3716666666666
 20
5.7700000000000173
 30
0.0
 11
-112.0
 21
8.0000000000000178
 31
0.0
  0
LINE
  5
167C
  8
250
 10
-111.6283333333333
 20
5.7700000000000173
 30
0.0
 11
-112.0
 21
8.0000000000000178
 31
0.0
  0
LINE
  5
167D
  8
250
 10
-112.0
 20
8.0000000000000178
 30
0.0
 11
-112.0
 21
5.7700000000000173
 31
0.0
  0
LINE
  5
167E
  8
250
 10
-111.6283333333333
 20
-5.7699999999999827
 30
0.0
 11
-112.0
 21
-7.999999999999984
 31
0.0
  0
LINE
  5
167F
  8
250
 10
-112.3716666666666
 20
-5.7699999999999827
 30
0.0
 11
-112.0
 21
-7.999999999999984
 31
0.0
  0
LINE
  5
1680
  8
250
 10
-112.0
 20
-7.999999999999984
 30
0.0
 11
-112.0
 21
-5.7699999999999827
 31
0.0
  0
INSERT
  5
1769
  8
240
  2
A$C0E46036D
 10
0.0
 20
0.0
 30
0.0
  0
VIEWPORT
  5
22
 67
     1
  8
0
 10
261.51769911504419
 20
148.5
 30
0.0
 40
523.0353982300885
 41
297.0
 68
     1
 69
     1
1001
ACAD
1000
MVIEW
1002
{
1070
    16
1010
0.0
1020
0.0
1030
0.0
1010
0.0
1020
0.0
1030
1.0
1040
0.0
1040
297.0
1040
261.51769911504419
1040
148.5
1040
50.0
1040
0.0
1040
0.0
1070
     0
1070
   100
1070
     1
1070
     1
1070
     0
1070
     0
1070
     0
1070
     0
1040
0.0
1040
0.0
1040
0.0
1040
1.0
1040
1.0
1040
10.0
1040
10.0
1070
     0
1002
{
1002
}
1002
}
1001
GENIUS_GENODEF_13
1002
{
1000
HIER
1070
     0
1002
}
1002
{
1000
MANEDIT
1070
     0
1002
}
1002
{
1000
NOSEL
1070
     0
1002
}
1002
{
1000
BEHIND
1070
     0
1002
}
1002
{
1000
OTHER
1070
     0
1002
}
1002
{
1000
REACTOR
1002
}
1001
GENIUS_GENOBJ-N-SDF_13
1002
{
1000
OWNER
1000
GEN
1002
}
1001
GENIUS_GENSCREG_15
1000
PF
1040
1.0
1000
DF
1040
1.0
1000
MIN
1011
0.0
1021
0.0
1031
0.0
1021
0.0
1031
0.0
1000
MAX
1011
523.0353982300885
1021
0.0
1031
0.0
1021
297.0
1031
0.0
1000
FLAGS
1070
     2
  0
ENDSEC
  0
EOF
